  0
SECTION
  2
HEADER
  9
$ACADVER
  1
AC1021
  9
$ACADMAINTVER
 70
    25
  9
$DWGCODEPAGE
  3
ANSI_1252
  9
$INSBASE
 10
0.0
 20
0.0
 30
0.0
  9
$EXTMIN
 10
-8.81563
 20
-8.9905
 30
0.0
  9
$EXTMAX
 10
5.03997
 20
12.50883
 30
0.0
  9
$LIMMIN
 10
0.0
 20
0.0
  9
$LIMMAX
 10
12.0
 20
9.0
  9
$ORTHOMODE
 70
     0
  9
$REGENMODE
 70
     1
  9
$FILLMODE
 70
     1
  9
$QTEXTMODE
 70
     0
  9
$MIRRTEXT
 70
     1
  9
$LTSCALE
 40
1.0
  9
$ATTMODE
 70
     1
  9
$TEXTSIZE
 40
0.2
  9
$TRACEWID
 40
0.05
  9
$TEXTSTYLE
  7
Standard
  9
$CLAYER
  8
0
  9
$CELTYPE
  6
ByLayer
  9
$CECOLOR
 62
   256
  9
$CELTSCALE
 40
1.0
  9
$DISPSILH
 70
     0
  9
$DIMSCALE
 40
1.0
  9
$DIMASZ
 40
0.18
  9
$DIMEXO
 40
0.0625
  9
$DIMDLI
 40
0.38
  9
$DIMRND
 40
0.0
  9
$DIMDLE
 40
0.0
  9
$DIMEXE
 40
0.18
  9
$DIMTP
 40
0.0
  9
$DIMTM
 40
0.0
  9
$DIMTXT
 40
0.18
  9
$DIMCEN
 40
0.09
  9
$DIMTSZ
 40
0.0
  9
$DIMTOL
 70
     0
  9
$DIMLIM
 70
     0
  9
$DIMTIH
 70
     1
  9
$DIMTOH
 70
     1
  9
$DIMSE1
 70
     0
  9
$DIMSE2
 70
     0
  9
$DIMTAD
 70
     0
  9
$DIMZIN
 70
     0
  9
$DIMBLK
  1

  9
$DIMASO
 70
     1
  9
$DIMSHO
 70
     1
  9
$DIMPOST
  1

  9
$DIMAPOST
  1

  9
$DIMALT
 70
     0
  9
$DIMALTD
 70
     2
  9
$DIMALTF
 40
25.4
  9
$DIMLFAC
 40
1.0
  9
$DIMTOFL
 70
     0
  9
$DIMTVP
 40
0.0
  9
$DIMTIX
 70
     0
  9
$DIMSOXD
 70
     0
  9
$DIMSAH
 70
     0
  9
$DIMBLK1
  1

  9
$DIMBLK2
  1

  9
$DIMSTYLE
  2
Standard
  9
$DIMCLRD
 70
     0
  9
$DIMCLRE
 70
     0
  9
$DIMCLRT
 70
     0
  9
$DIMTFAC
 40
1.0
  9
$DIMGAP
 40
0.09
  9
$DIMJUST
 70
     0
  9
$DIMSD1
 70
     0
  9
$DIMSD2
 70
     0
  9
$DIMTOLJ
 70
     1
  9
$DIMTZIN
 70
     0
  9
$DIMALTZ
 70
     0
  9
$DIMALTTZ
 70
     0
  9
$DIMUPT
 70
     0
  9
$DIMDEC
 70
     4
  9
$DIMTDEC
 70
     4
  9
$DIMALTU
 70
     2
  9
$DIMALTTD
 70
     2
  9
$DIMTXSTY
  7
Standard
  9
$DIMAUNIT
 70
     0
  9
$DIMADEC
 70
     0
  9
$DIMALTRND
 40
0.0
  9
$DIMAZIN
 70
     0
  9
$DIMDSEP
 70
    46
  9
$DIMATFIT
 70
     3
  9
$DIMFRAC
 70
     0
  9
$DIMLDRBLK
  1

  9
$DIMLUNIT
 70
     2
  9
$DIMLWD
 70
    -2
  9
$DIMLWE
 70
    -2
  9
$DIMTMOVE
 70
     0
  9
$DIMFXL
 40
1.0
  9
$DIMFXLON
 70
     0
  9
$DIMJOGANG
 40
0.7853981633974483
  9
$DIMTFILL
 70
     0
  9
$DIMTFILLCLR
 70
     0
  9
$DIMARCSYM
 70
     0
  9
$DIMLTYPE
  6

  9
$DIMLTEX1
  6

  9
$DIMLTEX2
  6

  9
$LUNITS
 70
     2
  9
$LUPREC
 70
     4
  9
$SKETCHINC
 40
0.1
  9
$FILLETRAD
 40
0.5
  9
$AUNITS
 70
     0
  9
$AUPREC
 70
     0
  9
$MENU
  1
.
  9
$ELEVATION
 40
0.0
  9
$PELEVATION
 40
0.0
  9
$THICKNESS
 40
0.0
  9
$LIMCHECK
 70
     0
  9
$CHAMFERA
 40
0.5
  9
$CHAMFERB
 40
0.5
  9
$CHAMFERC
 40
1.0
  9
$CHAMFERD
 40
0.0
  9
$SKPOLY
 70
     0
  9
$TDCREATE
 40
2456615.367761042
  9
$TDUCREATE
 40
2456615.326094375
  9
$TDUPDATE
 40
2456615.367761053
  9
$TDUUPDATE
 40
2456615.326094387
  9
$TDINDWG
 40
0.0000000116
  9
$TDUSRTIMER
 40
0.0000000116
  9
$USRTIMER
 70
     1
  9
$ANGBASE
 50
0.0
  9
$ANGDIR
 70
     0
  9
$PDMODE
 70
     0
  9
$PDSIZE
 40
0.0
  9
$PLINEWID
 40
0.0
  9
$SPLFRAME
 70
     0
  9
$SPLINETYPE
 70
     6
  9
$SPLINESEGS
 70
     8
  9
$HANDSEED
  5
17C
  9
$SURFTAB1
 70
     6
  9
$SURFTAB2
 70
     6
  9
$SURFTYPE
 70
     6
  9
$SURFU
 70
     6
  9
$SURFV
 70
     6
  9
$UCSBASE
  2

  9
$UCSNAME
  2

  9
$UCSORG
 10
0.0
 20
0.0
 30
0.0
  9
$UCSXDIR
 10
1.0
 20
0.0
 30
0.0
  9
$UCSYDIR
 10
0.0
 20
1.0
 30
0.0
  9
$UCSORTHOREF
  2

  9
$UCSORTHOVIEW
 70
     0
  9
$UCSORGTOP
 10
0.0
 20
0.0
 30
0.0
  9
$UCSORGBOTTOM
 10
0.0
 20
0.0
 30
0.0
  9
$UCSORGLEFT
 10
0.0
 20
0.0
 30
0.0
  9
$UCSORGRIGHT
 10
0.0
 20
0.0
 30
0.0
  9
$UCSORGFRONT
 10
0.0
 20
0.0
 30
0.0
  9
$UCSORGBACK
 10
0.0
 20
0.0
 30
0.0
  9
$PUCSBASE
  2

  9
$PUCSNAME
  2

  9
$PUCSORG
 10
0.0
 20
0.0
 30
0.0
  9
$PUCSXDIR
 10
1.0
 20
0.0
 30
0.0
  9
$PUCSYDIR
 10
0.0
 20
1.0
 30
0.0
  9
$PUCSORTHOREF
  2

  9
$PUCSORTHOVIEW
 70
     0
  9
$PUCSORGTOP
 10
0.0
 20
0.0
 30
0.0
  9
$PUCSORGBOTTOM
 10
0.0
 20
0.0
 30
0.0
  9
$PUCSORGLEFT
 10
0.0
 20
0.0
 30
0.0
  9
$PUCSORGRIGHT
 10
0.0
 20
0.0
 30
0.0
  9
$PUCSORGFRONT
 10
0.0
 20
0.0
 30
0.0
  9
$PUCSORGBACK
 10
0.0
 20
0.0
 30
0.0
  9
$USERI1
 70
     0
  9
$USERI2
 70
     0
  9
$USERI3
 70
     0
  9
$USERI4
 70
     0
  9
$USERI5
 70
     0
  9
$USERR1
 40
0.0
  9
$USERR2
 40
0.0
  9
$USERR3
 40
0.0
  9
$USERR4
 40
0.0
  9
$USERR5
 40
0.0
  9
$WORLDVIEW
 70
     1
  9
$SHADEDGE
 70
     3
  9
$SHADEDIF
 70
    70
  9
$TILEMODE
 70
     1
  9
$MAXACTVP
 70
    64
  9
$PINSBASE
 10
0.0
 20
0.0
 30
0.0
  9
$PLIMCHECK
 70
     0
  9
$PEXTMIN
 10
1.000000000000000E+20
 20
1.000000000000000E+20
 30
1.000000000000000E+20
  9
$PEXTMAX
 10
-1.000000000000000E+20
 20
-1.000000000000000E+20
 30
-1.000000000000000E+20
  9
$PLIMMIN
 10
0.0
 20
0.0
  9
$PLIMMAX
 10
12.0
 20
9.0
  9
$UNITMODE
 70
     0
  9
$VISRETAIN
 70
     1
  9
$PLINEGEN
 70
     0
  9
$PSLTSCALE
 70
     1
  9
$TREEDEPTH
 70
  3020
  9
$CMLSTYLE
  2
Standard
  9
$CMLJUST
 70
     0
  9
$CMLSCALE
 40
1.0
  9
$PROXYGRAPHICS
 70
     1
  9
$MEASUREMENT
 70
     0
  9
$CELWEIGHT
370
    -1
  9
$ENDCAPS
280
     0
  9
$JOINSTYLE
280
     0
  9
$LWDISPLAY
290
     0
  9
$INSUNITS
 70
     5
  9
$HYPERLINKBASE
  1

  9
$STYLESHEET
  1

  9
$XEDIT
290
     1
  9
$CEPSNTYPE
380
     0
  9
$PSTYLEMODE
290
     1
  9
$FINGERPRINTGUID
  2
{142D8EE1-DA6A-4192-806F-C0EAD765B4A4}
  9
$VERSIONGUID
  2
{FAEB1C32-E019-11D5-929B-00C0DF256EC4}
  9
$EXTNAMES
290
     1
  9
$PSVPSCALE
 40
0.0
  9
$OLESTARTUP
290
     0
  9
$SORTENTS
280
   127
  9
$INDEXCTL
280
     0
  9
$HIDETEXT
280
     1
  9
$XCLIPFRAME
290
     0
  9
$HALOGAP
280
     0
  9
$OBSCOLOR
 70
   257
  9
$OBSLTYPE
280
     0
  9
$INTERSECTIONDISPLAY
280
     0
  9
$INTERSECTIONCOLOR
 70
   257
  9
$DIMASSOC
280
     2
  9
$PROJECTNAME
  1

  9
$CAMERADISPLAY
290
     0
  9
$LENSLENGTH
 40
50.0
  9
$CAMERAHEIGHT
 40
0.0
  9
$STEPSPERSEC
 40
2.0
  9
$STEPSIZE
 40
6.0
  9
$3DDWFPREC
 40
2.0
  9
$PSOLWIDTH
 40
0.25
  9
$PSOLHEIGHT
 40
4.0
  9
$LOFTANG1
 40
1.570796326794897
  9
$LOFTANG2
 40
1.570796326794897
  9
$LOFTMAG1
 40
0.0
  9
$LOFTMAG2
 40
0.0
  9
$LOFTPARAM
 70
     7
  9
$LOFTNORMALS
280
     1
  9
$LATITUDE
 40
37.795
  9
$LONGITUDE
 40
-122.394
  9
$NORTHDIRECTION
 40
0.0
  9
$TIMEZONE
 70
 -8000
  9
$LIGHTGLYPHDISPLAY
280
     1
  9
$TILEMODELIGHTSYNCH
280
     1
  9
$SOLIDHIST
280
     1
  9
$SHOWHIST
280
     1
  9
$DWFFRAME
280
     2
  9
$DGNFRAME
280
     2
  9
$REALWORLDSCALE
290
     1
  9
$INTERFERECOLOR
 62
   256
  9
$CSHADOW
280
     0
  9
$SHADOWPLANELOCATION
 40
0.0
  0
ENDSEC
  0
SECTION
  2
CLASSES
  0
CLASS
  1
ACDBDICTIONARYWDFLT
  2
AcDbDictionaryWithDefault
  3
ObjectDBX Classes
 90
        0
 91
        4
280
     0
281
     0
  0
CLASS
  1
VISUALSTYLE
  2
AcDbVisualStyle
  3
ObjectDBX Classes
 90
     4095
 91
        4
280
     0
281
     0
  0
CLASS
  1
MATERIAL
  2
AcDbMaterial
  3
ObjectDBX Classes
 90
     1153
 91
        4
280
     0
281
     0
  0
ENDSEC
  0
SECTION
  2
TABLES
  0
TABLE
  2
VPORT
  5
8
330
0
100
AcDbSymbolTable
 70
     1
  0
VPORT
  5
29
330
8
100
AcDbSymbolTableRecord
100
AcDbViewportTableRecord
  2
*Active
 70
     0
 10
0.0
 20
0.0
 11
1.0
 21
1.0
 12
10.42990654205607
 22
4.5
 13
0.0
 23
0.0
 14
0.5
 24
0.5
 15
0.5
 25
0.5
 16
0.0
 26
0.0
 36
1.0
 17
0.0
 27
0.0
 37
0.0
 40
9.0
 41
1.972972972850329
 42
50.0
 43
0.0
 44
0.0
 50
0.0
 51
0.0
 71
     0
 72
   100
 73
     1
 74
     3
 75
     0
 76
     0
 77
     0
 78
     0
281
     0
 65
     1
110
0.0
120
0.0
130
0.0
111
1.0
121
0.0
131
0.0
112
0.0
122
1.0
132
0.0
 79
     0
146
0.0
 60
     3
 61
     5
292
     1
282
     1
141
0.0
142
0.0
 63
   250
  0
ENDTAB
  0
TABLE
  2
LTYPE
  5
5
330
0
100
AcDbSymbolTable
 70
     1
  0
LTYPE
  5
14
330
5
100
AcDbSymbolTableRecord
100
AcDbLinetypeTableRecord
  2
ByBlock
 70
     0
  3

 72
    65
 73
     0
 40
0.0
  0
LTYPE
  5
15
330
5
100
AcDbSymbolTableRecord
100
AcDbLinetypeTableRecord
  2
ByLayer
 70
     0
  3

 72
    65
 73
     0
 40
0.0
  0
LTYPE
  5
16
330
5
100
AcDbSymbolTableRecord
100
AcDbLinetypeTableRecord
  2
Continuous
 70
     0
  3
Solid line
 72
    65
 73
     0
 40
0.0
  0
ENDTAB
  0
TABLE
  2
LAYER
  5
2
330
0
100
AcDbSymbolTable
 70
     1
  0
LAYER
  5
10
330
2
100
AcDbSymbolTableRecord
100
AcDbLayerTableRecord
  2
0
 70
     0
 62
     7
  6
Continuous
370
    -3
390
F
347
3E
  0
ENDTAB
  0
TABLE
  2
STYLE
  5
3
330
0
100
AcDbSymbolTable
 70
     1
  0
STYLE
  5
11
330
3
100
AcDbSymbolTableRecord
100
AcDbTextStyleTableRecord
  2
Standard
 70
     0
 40
0.0
 41
1.0
 50
0.0
 71
     0
 42
0.2
  3
txt
  4

  0
ENDTAB
  0
TABLE
  2
VIEW
  5
6
330
0
100
AcDbSymbolTable
 70
     0
  0
ENDTAB
  0
TABLE
  2
UCS
  5
7
330
0
100
AcDbSymbolTable
 70
     0
  0
ENDTAB
  0
TABLE
  2
APPID
  5
9
330
0
100
AcDbSymbolTable
 70
     2
  0
APPID
  5
12
330
9
100
AcDbSymbolTableRecord
100
AcDbRegAppTableRecord
  2
ACAD
 70
     0
  0
APPID
  5
3F
330
9
100
AcDbSymbolTableRecord
100
AcDbRegAppTableRecord
  2
ODA
 70
     0
  0
ENDTAB
  0
TABLE
  2
DIMSTYLE
  5
A
330
0
100
AcDbSymbolTable
 70
     1
100
AcDbDimStyleTable
  0
DIMSTYLE
105
27
330
A
100
AcDbSymbolTableRecord
100
AcDbDimStyleTableRecord
  2
Standard
 70
     0
178
     0
340
11
  0
ENDTAB
  0
TABLE
  2
BLOCK_RECORD
  5
1
330
0
100
AcDbSymbolTable
 70
     1
  0
BLOCK_RECORD
  5
1F
330
1
100
AcDbSymbolTableRecord
100
AcDbBlockTableRecord
  2
*Model_Space
340
22
 70
     0
280
     1
281
     0
  0
BLOCK_RECORD
  5
1B
330
1
100
AcDbSymbolTableRecord
100
AcDbBlockTableRecord
  2
*Paper_Space
340
1E
 70
     0
280
     1
281
     0
  0
BLOCK_RECORD
  5
23
330
1
100
AcDbSymbolTableRecord
100
AcDbBlockTableRecord
  2
*Paper_Space0
340
26
 70
     0
280
     1
281
     0
  0
ENDTAB
  0
ENDSEC
  0
SECTION
  2
BLOCKS
  0
BLOCK
  5
20
330
1F
100
AcDbEntity
  8
0
100
AcDbBlockBegin
  2
*Model_Space
 70
     0
 10
0.0
 20
0.0
 30
0.0
  3
*Model_Space
  1

  0
ENDBLK
  5
21
330
1F
100
AcDbEntity
  8
0
100
AcDbBlockEnd
  0
BLOCK
  5
1C
330
1B
100
AcDbEntity
 67
     1
  8
0
100
AcDbBlockBegin
  2
*Paper_Space
 70
     0
 10
0.0
 20
0.0
 30
0.0
  3
*Paper_Space
  1

  0
ENDBLK
  5
1D
330
1B
100
AcDbEntity
 67
     1
  8
0
100
AcDbBlockEnd
  0
BLOCK
  5
24
330
23
100
AcDbEntity
  8
0
100
AcDbBlockBegin
  2
*Paper_Space0
 70
     0
 10
0.0
 20
0.0
 30
0.0
  3
*Paper_Space0
  1

  0
ENDBLK
  5
25
330
23
100
AcDbEntity
  8
0
100
AcDbBlockEnd
  0
ENDSEC
  0
SECTION
  2
ENTITIES
  0
SPLINE
  5
40
330
1F
100
AcDbEntity
  8
0
370
    15
100
AcDbSpline
210
0.0
220
0.0
230
1.0
 70
     8
 71
     3
 72
     8
 73
     4
 74
     0
 42
0.0000000001
 43
0.0000000001
 40
0.0
 40
0.0
 40
0.0
 40
0.0
 40
1.0
 40
1.0
 40
1.0
 40
1.0
 10
-3.96936
 20
4.718
 30
0.0
 10
-4.32945
 20
4.89778
 30
0.0
 10
-4.71911
 20
5.01086
 30
0.0
 10
-5.1195
 20
5.05177
 30
0.0
  0
SPLINE
  5
41
330
1F
100
AcDbEntity
  8
0
370
    15
100
AcDbSpline
210
0.0
220
0.0
230
1.0
 70
     8
 71
     3
 72
     8
 73
     4
 74
     0
 42
0.0000000001
 43
0.0000000001
 40
0.0
 40
0.0
 40
0.0
 40
0.0
 40
1.0
 40
1.0
 40
1.0
 40
1.0
 10
-5.98589
 20
5.05177
 30
0.0
 10
-6.38628
 20
5.01086
 30
0.0
 10
-6.77594
 20
4.89778
 30
0.0
 10
-7.13603
 20
4.718
 30
0.0
  0
SPLINE
  5
42
330
1F
100
AcDbEntity
  8
0
370
    15
100
AcDbSpline
210
0.0
220
0.0
230
1.0
 70
    24
 71
     3
 72
     8
 73
     4
 74
     0
 42
0.0000000001
 43
0.0000000001
 40
0.0
 40
0.0
 40
0.0
 40
0.0
 40
1.0
 40
1.0
 40
1.0
 40
1.0
 10
-3.96936
 20
4.668
 30
0.0
 10
-3.96936
 20
4.668
 30
0.0
 10
-3.96936
 20
4.718
 30
0.0
 10
-3.96936
 20
4.718
 30
0.0
  0
SPLINE
  5
43
330
1F
100
AcDbEntity
  8
0
370
    15
100
AcDbSpline
210
0.0
220
0.0
230
1.0
 70
    24
 71
     3
 72
     8
 73
     4
 74
     0
 42
0.0000000001
 43
0.0000000001
 40
0.0
 40
0.0
 40
0.0
 40
0.0
 40
1.0
 40
1.0
 40
1.0
 40
1.0
 10
-7.13603
 20
4.718
 30
0.0
 10
-7.13603
 20
4.718
 30
0.0
 10
-7.13603
 20
4.668
 30
0.0
 10
-7.13603
 20
4.668
 30
0.0
  0
SPLINE
  5
44
330
1F
100
AcDbEntity
  8
0
370
    15
100
AcDbSpline
210
0.0
220
0.0
230
1.0
 70
     8
 71
     3
 72
     8
 73
     4
 74
     0
 42
0.0000000001
 43
0.0000000001
 40
0.0
 40
0.0
 40
0.0
 40
0.0
 40
1.0
 40
1.0
 40
1.0
 40
1.0
 10
-5.19436
 20
5.13467
 30
0.0
 10
-5.19436
 20
5.09192
 30
0.0
 10
-5.16202
 20
5.05611
 30
0.0
 10
-5.1195
 20
5.05177
 30
0.0
  0
SPLINE
  5
45
330
1F
100
AcDbEntity
  8
0
370
    15
100
AcDbSpline
210
0.0
220
0.0
230
1.0
 70
     8
 71
     3
 72
     8
 73
     4
 74
     0
 42
0.0000000001
 43
0.0000000001
 40
0.0
 40
0.0
 40
0.0
 40
0.0
 40
1.0
 40
1.0
 40
1.0
 40
1.0
 10
-5.98589
 20
5.05177
 30
0.0
 10
-5.94337
 20
5.05611
 30
0.0
 10
-5.91103
 20
5.09192
 30
0.0
 10
-5.91103
 20
5.13467
 30
0.0
  0
SPLINE
  5
46
330
1F
100
AcDbEntity
  8
0
370
    15
100
AcDbSpline
210
0.0
220
0.0
230
1.0
 70
    24
 71
     3
 72
     8
 73
     4
 74
     0
 42
0.0000000001
 43
0.0000000001
 40
0.0
 40
0.0
 40
0.0
 40
0.0
 40
1.0
 40
1.0
 40
1.0
 40
1.0
 10
-5.19436
 20
5.13467
 30
0.0
 10
-5.19436
 20
5.13467
 30
0.0
 10
-5.19436
 20
7.668
 30
0.0
 10
-5.19436
 20
7.668
 30
0.0
  0
SPLINE
  5
47
330
1F
100
AcDbEntity
  8
0
370
    15
100
AcDbSpline
210
0.0
220
0.0
230
1.0
 70
    24
 71
     3
 72
     8
 73
     4
 74
     0
 42
0.0000000001
 43
0.0000000001
 40
0.0
 40
0.0
 40
0.0
 40
0.0
 40
1.0
 40
1.0
 40
1.0
 40
1.0
 10
-5.91103
 20
7.668
 30
0.0
 10
-5.91103
 20
7.668
 30
0.0
 10
-5.91103
 20
5.13467
 30
0.0
 10
-5.91103
 20
5.13467
 30
0.0
  0
SPLINE
  5
48
330
1F
100
AcDbEntity
  8
0
370
    15
100
AcDbSpline
210
0.0
220
0.0
230
1.0
 70
    24
 71
     3
 72
     8
 73
     4
 74
     0
 42
0.0000000001
 43
0.0000000001
 40
0.0
 40
0.0
 40
0.0
 40
0.0
 40
1.0
 40
1.0
 40
1.0
 40
1.0
 10
-4.08603
 20
3.69967
 30
0.0
 10
-4.08603
 20
3.69967
 30
0.0
 10
-4.08603
 20
3.70133
 30
0.0
 10
-4.08603
 20
3.70133
 30
0.0
  0
SPLINE
  5
49
330
1F
100
AcDbEntity
  8
0
370
    15
100
AcDbSpline
210
0.0
220
0.0
230
1.0
 70
    24
 71
     3
 72
     8
 73
     4
 74
     0
 42
0.0000000001
 43
0.0000000001
 40
0.0
 40
0.0
 40
0.0
 40
0.0
 40
1.0
 40
1.0
 40
1.0
 40
1.0
 10
-7.01936
 20
3.70133
 30
0.0
 10
-7.01936
 20
3.70133
 30
0.0
 10
-7.01936
 20
3.69967
 30
0.0
 10
-7.01936
 20
3.69967
 30
0.0
  0
SPLINE
  5
4A
330
1F
100
AcDbEntity
  8
0
370
    15
100
AcDbSpline
210
0.0
220
0.0
230
1.0
 70
    24
 71
     3
 72
     8
 73
     4
 74
     0
 42
0.0000000001
 43
0.0000000001
 40
0.0
 40
0.0
 40
0.0
 40
0.0
 40
1.0
 40
1.0
 40
1.0
 40
1.0
 10
-5.2527
 20
12.43467
 30
0.0
 10
-5.2527
 20
12.43467
 30
0.0
 10
-5.2527
 20
12.50133
 30
0.0
 10
-5.2527
 20
12.50133
 30
0.0
  0
SPLINE
  5
4B
330
1F
100
AcDbEntity
  8
0
370
    15
100
AcDbSpline
210
0.0
220
0.0
230
1.0
 70
    24
 71
     3
 72
     8
 73
     4
 74
     0
 42
0.0000000001
 43
0.0000000001
 40
0.0
 40
0.0
 40
0.0
 40
0.0
 40
1.0
 40
1.0
 40
1.0
 40
1.0
 10
-5.8527
 20
12.50133
 30
0.0
 10
-5.8527
 20
12.50133
 30
0.0
 10
-5.8527
 20
12.43467
 30
0.0
 10
-5.8527
 20
12.43467
 30
0.0
  0
SPLINE
  5
4C
330
1F
100
AcDbEntity
  8
0
370
    15
100
AcDbSpline
210
0.0
220
0.0
230
1.0
 70
    24
 71
     3
 72
     8
 73
     4
 74
     0
 42
0.0000000001
 43
0.0000000001
 40
0.0
 40
0.0
 40
0.0
 40
0.0
 40
1.0
 40
1.0
 40
1.0
 40
1.0
 10
-5.28603
 20
7.668
 30
0.0
 10
-5.28603
 20
7.668
 30
0.0
 10
-5.28603
 20
12.43467
 30
0.0
 10
-5.28603
 20
12.43467
 30
0.0
  0
SPLINE
  5
4D
330
1F
100
AcDbEntity
  8
0
370
    15
100
AcDbSpline
210
0.0
220
0.0
230
1.0
 70
    24
 71
     3
 72
     8
 73
     4
 74
     0
 42
0.0000000001
 43
0.0000000001
 40
0.0
 40
0.0
 40
0.0
 40
0.0
 40
1.0
 40
1.0
 40
1.0
 40
1.0
 10
-5.81936
 20
12.43467
 30
0.0
 10
-5.81936
 20
12.43467
 30
0.0
 10
-5.81936
 20
7.668
 30
0.0
 10
-5.81936
 20
7.668
 30
0.0
  0
SPLINE
  5
4E
330
1F
100
AcDbEntity
  8
0
370
    15
100
AcDbSpline
210
0.0
220
0.0
230
1.0
 70
     8
 71
     3
 72
    12
 73
     8
 74
     0
 42
0.0000000001
 43
0.0000000001
 40
0.0
 40
0.0
 40
0.0
 40
0.0
 40
0.3333333333333333
 40
0.3333333333333333
 40
0.3333333333333333
 40
0.3333333333333333
 40
1.0
 40
1.0
 40
1.0
 40
1.0
 10
-3.9539
 20
4.6335
 30
0.0
 10
-3.95358
 20
4.64254
 30
0.0
 10
-3.95695
 20
4.65132
 30
0.0
 10
-3.96323
 20
4.65782
 30
0.0
 10
-3.96323
 20
4.65782
 30
0.0
 10
-3.96952
 20
4.66433
 30
0.0
 10
-3.97817
 20
4.668
 30
0.0
 10
-3.98721
 20
4.668
 30
0.0
  0
SPLINE
  5
4F
330
1F
100
AcDbEntity
  8
0
370
    15
100
AcDbSpline
210
0.0
220
0.0
230
1.0
 70
     8
 71
     3
 72
    12
 73
     8
 74
     0
 42
0.0000000001
 43
0.0000000001
 40
0.0
 40
0.0
 40
0.0
 40
0.0
 40
0.3333333333333333
 40
0.3333333333333333
 40
0.3333333333333333
 40
0.3333333333333333
 40
1.0
 40
1.0
 40
1.0
 40
1.0
 10
-7.11818
 20
4.668
 30
0.0
 10
-7.12722
 20
4.668
 30
0.0
 10
-7.13587
 20
4.66433
 30
0.0
 10
-7.14216
 20
4.65782
 30
0.0
 10
-7.14216
 20
4.65782
 30
0.0
 10
-7.14844
 20
4.65132
 30
0.0
 10
-7.15181
 20
4.64254
 30
0.0
 10
-7.15149
 20
4.6335
 30
0.0
  0
SPLINE
  5
50
330
1F
100
AcDbEntity
  8
0
370
    15
100
AcDbSpline
210
0.0
220
0.0
230
1.0
 70
    24
 71
     3
 72
     8
 73
     4
 74
     0
 42
0.0000000001
 43
0.0000000001
 40
0.0
 40
0.0
 40
0.0
 40
0.0
 40
1.0
 40
1.0
 40
1.0
 40
1.0
 10
-7.15149
 20
4.6335
 30
0.0
 10
-7.15149
 20
4.6335
 30
0.0
 10
-7.13736
 20
4.22885
 30
0.0
 10
-7.13736
 20
4.22885
 30
0.0
  0
SPLINE
  5
51
330
1F
100
AcDbEntity
  8
0
370
    15
100
AcDbSpline
210
0.0
220
0.0
230
1.0
 70
    24
 71
     3
 72
     8
 73
     4
 74
     0
 42
0.0000000001
 43
0.0000000001
 40
0.0
 40
0.0
 40
0.0
 40
0.0
 40
1.0
 40
1.0
 40
1.0
 40
1.0
 10
-3.96803
 20
4.22885
 30
0.0
 10
-3.96803
 20
4.22885
 30
0.0
 10
-3.9539
 20
4.6335
 30
0.0
 10
-3.9539
 20
4.6335
 30
0.0
  0
SPLINE
  5
52
330
1F
100
AcDbEntity
  8
0
370
    15
100
AcDbSpline
210
0.0
220
0.0
230
1.0
 70
     8
 71
     3
 72
     8
 73
     4
 74
     0
 42
0.0000000001
 43
0.0000000001
 40
0.0
 40
0.0
 40
0.0
 40
0.0
 40
1.0
 40
1.0
 40
1.0
 40
1.0
 10
-7.13736
 20
4.22885
 30
0.0
 10
-7.1351
 20
4.16402
 30
0.0
 10
-7.09543
 20
4.1064
 30
0.0
 10
-7.03568
 20
4.08115
 30
0.0
  0
SPLINE
  5
53
330
1F
100
AcDbEntity
  8
0
370
    15
100
AcDbSpline
210
0.0
220
0.0
230
1.0
 70
     8
 71
     3
 72
     8
 73
     4
 74
     0
 42
0.0000000001
 43
0.0000000001
 40
0.0
 40
0.0
 40
0.0
 40
0.0
 40
1.0
 40
1.0
 40
1.0
 40
1.0
 10
-4.06971
 20
4.08115
 30
0.0
 10
-4.00996
 20
4.1064
 30
0.0
 10
-3.97029
 20
4.16402
 30
0.0
 10
-3.96803
 20
4.22885
 30
0.0
  0
SPLINE
  5
54
330
1F
100
AcDbEntity
  8
0
370
    15
100
AcDbSpline
210
0.0
220
0.0
230
1.0
 70
     8
 71
     3
 72
     8
 73
     4
 74
     0
 42
0.0000000001
 43
0.0000000001
 40
0.0
 40
0.0
 40
0.0
 40
0.0
 40
1.0
 40
1.0
 40
1.0
 40
1.0
 10
-4.06971
 20
4.08115
 30
0.0
 10
-4.12638
 20
4.0572
 30
0.0
 10
-4.17531
 20
4.01804
 30
0.0
 10
-4.21109
 20
3.968
 30
0.0
  0
SPLINE
  5
55
330
1F
100
AcDbEntity
  8
0
370
    15
100
AcDbSpline
210
0.0
220
0.0
230
1.0
 70
     8
 71
     3
 72
     8
 73
     4
 74
     0
 42
0.0000000001
 43
0.0000000001
 40
0.0
 40
0.0
 40
0.0
 40
0.0
 40
1.0
 40
1.0
 40
1.0
 40
1.0
 10
-6.8943
 20
3.968
 30
0.0
 10
-6.93008
 20
4.01804
 30
0.0
 10
-6.97901
 20
4.0572
 30
0.0
 10
-7.03568
 20
4.08115
 30
0.0
  0
SPLINE
  5
56
330
1F
100
AcDbEntity
  8
0
370
    15
100
AcDbSpline
210
0.0
220
0.0
230
1.0
 70
    24
 71
     3
 72
     8
 73
     4
 74
     0
 42
0.0000000001
 43
0.0000000001
 40
0.0
 40
0.0
 40
0.0
 40
0.0
 40
1.0
 40
1.0
 40
1.0
 40
1.0
 10
-6.82862
 20
3.69967
 30
0.0
 10
-6.82862
 20
3.69967
 30
0.0
 10
-6.7183
 20
1.11819
 30
0.0
 10
-6.7183
 20
1.11819
 30
0.0
  0
SPLINE
  5
57
330
1F
100
AcDbEntity
  8
0
370
    15
100
AcDbSpline
210
0.0
220
0.0
230
1.0
 70
    24
 71
     3
 72
     8
 73
     4
 74
     0
 42
0.0000000001
 43
0.0000000001
 40
0.0
 40
0.0
 40
0.0
 40
0.0
 40
1.0
 40
1.0
 40
1.0
 40
1.0
 10
-4.38709
 20
1.11819
 30
0.0
 10
-4.38709
 20
1.11819
 30
0.0
 10
-4.27677
 20
3.69967
 30
0.0
 10
-4.27677
 20
3.69967
 30
0.0
  0
SPLINE
  5
58
330
1F
100
AcDbEntity
  8
0
370
    15
100
AcDbSpline
210
0.0
220
0.0
230
1.0
 70
     8
 71
     3
 72
    12
 73
     8
 74
     0
 42
0.0000000001
 43
0.0000000001
 40
0.0
 40
0.0
 40
0.0
 40
0.0
 40
0.3333333333333333
 40
0.3333333333333333
 40
0.3333333333333333
 40
0.3333333333333333
 40
1.0
 40
1.0
 40
1.0
 40
1.0
 10
-6.7183
 20
1.11819
 30
0.0
 10
-6.69161
 20
0.4938
 30
0.0
 10
-6.17765
 20
0.00133
 30
0.0
 10
-5.5527
 20
0.00133
 30
0.0
 10
-5.5527
 20
0.00133
 30
0.0
 10
-4.92774
 20
0.00133
 30
0.0
 10
-4.41378
 20
0.4938
 30
0.0
 10
-4.38709
 20
1.11819
 30
0.0
  0
SPLINE
  5
59
330
1F
100
AcDbEntity
  8
0
370
    15
100
AcDbSpline
210
0.0
220
0.0
230
1.0
 70
     8
 71
     3
 72
     8
 73
     4
 74
     0
 42
0.0000000001
 43
0.0000000001
 40
0.0
 40
0.0
 40
0.0
 40
0.0
 40
1.0
 40
1.0
 40
1.0
 40
1.0
 10
-3.96546
 20
3.71293
 30
0.0
 10
-3.94016
 20
3.79211
 30
0.0
 10
-3.94016
 20
3.87722
 30
0.0
 10
-3.96546
 20
3.9564
 30
0.0
  0
SPLINE
  5
5A
330
1F
100
AcDbEntity
  8
0
370
    15
100
AcDbSpline
210
0.0
220
0.0
230
1.0
 70
     8
 71
     3
 72
     8
 73
     4
 74
     0
 42
0.0000000001
 43
0.0000000001
 40
0.0
 40
0.0
 40
0.0
 40
0.0
 40
1.0
 40
1.0
 40
1.0
 40
1.0
 10
-7.13993
 20
3.95641
 30
0.0
 10
-7.16523
 20
3.87722
 30
0.0
 10
-7.16523
 20
3.79212
 30
0.0
 10
-7.13993
 20
3.71293
 30
0.0
  0
SPLINE
  5
5B
330
1F
100
AcDbEntity
  8
0
370
    15
100
AcDbSpline
210
0.0
220
0.0
230
1.0
 70
     8
 71
     3
 72
     8
 73
     4
 74
     0
 42
0.0000000001
 43
0.0000000001
 40
0.0
 40
0.0
 40
0.0
 40
0.0
 40
1.0
 40
1.0
 40
1.0
 40
1.0
 10
-7.13993
 20
3.71293
 30
0.0
 10
-7.13772
 20
3.70602
 30
0.0
 10
-7.1313
 20
3.70133
 30
0.0
 10
-7.12405
 20
3.70133
 30
0.0
  0
SPLINE
  5
5C
330
1F
100
AcDbEntity
  8
0
370
    15
100
AcDbSpline
210
0.0
220
0.0
230
1.0
 70
     8
 71
     3
 72
     8
 73
     4
 74
     0
 42
0.0000000001
 43
0.0000000001
 40
0.0
 40
0.0
 40
0.0
 40
0.0
 40
1.0
 40
1.0
 40
1.0
 40
1.0
 10
-3.98134
 20
3.70133
 30
0.0
 10
-3.97409
 20
3.70133
 30
0.0
 10
-3.96767
 20
3.70602
 30
0.0
 10
-3.96546
 20
3.71293
 30
0.0
  0
SPLINE
  5
5D
330
1F
100
AcDbEntity
  8
0
370
    15
100
AcDbSpline
210
0.0
220
0.0
230
1.0
 70
     8
 71
     3
 72
     8
 73
     4
 74
     0
 42
0.0000000001
 43
0.0000000001
 40
0.0
 40
0.0
 40
0.0
 40
0.0
 40
1.0
 40
1.0
 40
1.0
 40
1.0
 10
-3.96546
 20
3.95641
 30
0.0
 10
-3.96767
 20
3.96331
 30
0.0
 10
-3.97409
 20
3.968
 30
0.0
 10
-3.98134
 20
3.968
 30
0.0
  0
SPLINE
  5
5E
330
1F
100
AcDbEntity
  8
0
370
    15
100
AcDbSpline
210
0.0
220
0.0
230
1.0
 70
     8
 71
     3
 72
     8
 73
     4
 74
     0
 42
0.0000000001
 43
0.0000000001
 40
0.0
 40
0.0
 40
0.0
 40
0.0
 40
1.0
 40
1.0
 40
1.0
 40
1.0
 10
-7.12405
 20
3.968
 30
0.0
 10
-7.1313
 20
3.968
 30
0.0
 10
-7.13772
 20
3.96331
 30
0.0
 10
-7.13993
 20
3.95641
 30
0.0
  0
SPLINE
  5
5F
330
1F
100
AcDbEntity
  8
0
370
    15
100
AcDbSpline
210
0.0
220
0.0
230
1.0
 70
    24
 71
     3
 72
     8
 73
     4
 74
     0
 42
0.0000000001
 43
0.0000000001
 40
0.0
 40
0.0
 40
0.0
 40
0.0
 40
1.0
 40
1.0
 40
1.0
 40
1.0
 10
-3.96936
 20
4.718
 30
0.0
 10
-3.96936
 20
4.718
 30
0.0
 10
-7.13603
 20
4.718
 30
0.0
 10
-7.13603
 20
4.718
 30
0.0
  0
SPLINE
  5
60
330
1F
100
AcDbEntity
  8
0
370
    15
100
AcDbSpline
210
0.0
220
0.0
230
1.0
 70
    24
 71
     3
 72
     8
 73
     4
 74
     0
 42
0.0000000001
 43
0.0000000001
 40
0.0
 40
0.0
 40
0.0
 40
0.0
 40
1.0
 40
1.0
 40
1.0
 40
1.0
 10
-3.96936
 20
4.668
 30
0.0
 10
-3.96936
 20
4.668
 30
0.0
 10
-7.13603
 20
4.668
 30
0.0
 10
-7.13603
 20
4.668
 30
0.0
  0
SPLINE
  5
61
330
1F
100
AcDbEntity
  8
0
370
    15
100
AcDbSpline
210
0.0
220
0.0
230
1.0
 70
    24
 71
     3
 72
     8
 73
     4
 74
     0
 42
0.0000000001
 43
0.0000000001
 40
0.0
 40
0.0
 40
0.0
 40
0.0
 40
1.0
 40
1.0
 40
1.0
 40
1.0
 10
-5.19436
 20
7.668
 30
0.0
 10
-5.19436
 20
7.668
 30
0.0
 10
-5.91103
 20
7.668
 30
0.0
 10
-5.91103
 20
7.668
 30
0.0
  0
SPLINE
  5
62
330
1F
100
AcDbEntity
  8
0
370
    15
100
AcDbSpline
210
0.0
220
0.0
230
1.0
 70
    24
 71
     3
 72
     8
 73
     4
 74
     0
 42
0.0000000001
 43
0.0000000001
 40
0.0
 40
0.0
 40
0.0
 40
0.0
 40
1.0
 40
1.0
 40
1.0
 40
1.0
 10
-4.08603
 20
3.69967
 30
0.0
 10
-4.08603
 20
3.69967
 30
0.0
 10
-7.01936
 20
3.69967
 30
0.0
 10
-7.01936
 20
3.69967
 30
0.0
  0
SPLINE
  5
63
330
1F
100
AcDbEntity
  8
0
370
    15
100
AcDbSpline
210
0.0
220
0.0
230
1.0
 70
    24
 71
     3
 72
     8
 73
     4
 74
     0
 42
0.0000000001
 43
0.0000000001
 40
0.0
 40
0.0
 40
0.0
 40
0.0
 40
1.0
 40
1.0
 40
1.0
 40
1.0
 10
-5.32493
 20
12.43467
 30
0.0
 10
-5.32493
 20
12.43467
 30
0.0
 10
-5.8527
 20
12.43467
 30
0.0
 10
-5.8527
 20
12.43467
 30
0.0
  0
SPLINE
  5
64
330
1F
100
AcDbEntity
  8
0
370
    15
100
AcDbSpline
210
0.0
220
0.0
230
1.0
 70
    24
 71
     3
 72
     8
 73
     4
 74
     0
 42
0.0000000001
 43
0.0000000001
 40
0.0
 40
0.0
 40
0.0
 40
0.0
 40
1.0
 40
1.0
 40
1.0
 40
1.0
 10
-5.2527
 20
12.43467
 30
0.0
 10
-5.2527
 20
12.43467
 30
0.0
 10
-5.32493
 20
12.43467
 30
0.0
 10
-5.32493
 20
12.43467
 30
0.0
  0
SPLINE
  5
65
330
1F
100
AcDbEntity
  8
0
370
    15
100
AcDbSpline
210
0.0
220
0.0
230
1.0
 70
    24
 71
     3
 72
     8
 73
     4
 74
     0
 42
0.0000000001
 43
0.0000000001
 40
0.0
 40
0.0
 40
0.0
 40
0.0
 40
1.0
 40
1.0
 40
1.0
 40
1.0
 10
-5.32493
 20
12.50133
 30
0.0
 10
-5.32493
 20
12.50133
 30
0.0
 10
-5.8527
 20
12.50133
 30
0.0
 10
-5.8527
 20
12.50133
 30
0.0
  0
SPLINE
  5
66
330
1F
100
AcDbEntity
  8
0
370
    15
100
AcDbSpline
210
0.0
220
0.0
230
1.0
 70
    24
 71
     3
 72
     8
 73
     4
 74
     0
 42
0.0000000001
 43
0.0000000001
 40
0.0
 40
0.0
 40
0.0
 40
0.0
 40
1.0
 40
1.0
 40
1.0
 40
1.0
 10
-5.2527
 20
12.50133
 30
0.0
 10
-5.2527
 20
12.50133
 30
0.0
 10
-5.32493
 20
12.50133
 30
0.0
 10
-5.32493
 20
12.50133
 30
0.0
  0
SPLINE
  5
67
330
1F
100
AcDbEntity
  8
0
370
    15
100
AcDbSpline
210
0.0
220
0.0
230
1.0
 70
    24
 71
     3
 72
     8
 73
     4
 74
     0
 42
0.0000000001
 43
0.0000000001
 40
0.0
 40
0.0
 40
0.0
 40
0.0
 40
1.0
 40
1.0
 40
1.0
 40
1.0
 10
-3.98134
 20
3.70133
 30
0.0
 10
-3.98134
 20
3.70133
 30
0.0
 10
-7.12405
 20
3.70133
 30
0.0
 10
-7.12405
 20
3.70133
 30
0.0
  0
SPLINE
  5
68
330
1F
100
AcDbEntity
  8
0
370
    15
100
AcDbSpline
210
0.0
220
0.0
230
1.0
 70
    24
 71
     3
 72
     8
 73
     4
 74
     0
 42
0.0000000001
 43
0.0000000001
 40
0.0
 40
0.0
 40
0.0
 40
0.0
 40
1.0
 40
1.0
 40
1.0
 40
1.0
 10
-7.12405
 20
3.968
 30
0.0
 10
-7.12405
 20
3.968
 30
0.0
 10
-3.98134
 20
3.968
 30
0.0
 10
-3.98134
 20
3.968
 30
0.0
  0
SPLINE
  5
69
330
1F
100
AcDbEntity
  8
0
 62
     8
370
    15
100
AcDbSpline
210
0.0
220
0.0
230
1.0
 70
    24
 71
     3
 72
     8
 73
     4
 74
     0
 42
0.0000000001
 43
0.0000000001
 40
0.0
 40
0.0
 40
0.0
 40
0.0
 40
1.0
 40
1.0
 40
1.0
 40
1.0
 10
-5.1195
 20
5.05177
 30
0.0
 10
-5.1195
 20
5.05177
 30
0.0
 10
-5.98589
 20
5.05177
 30
0.0
 10
-5.98589
 20
5.05177
 30
0.0
  0
SPLINE
  5
6A
330
1F
100
AcDbEntity
  8
0
 62
     8
370
    15
100
AcDbSpline
210
0.0
220
0.0
230
1.0
 70
    24
 71
     3
 72
     8
 73
     4
 74
     0
 42
0.0000000001
 43
0.0000000001
 40
0.0
 40
0.0
 40
0.0
 40
0.0
 40
1.0
 40
1.0
 40
1.0
 40
1.0
 10
-5.19436
 20
5.13467
 30
0.0
 10
-5.19436
 20
5.13467
 30
0.0
 10
-5.91103
 20
5.13467
 30
0.0
 10
-5.91103
 20
5.13467
 30
0.0
  0
SPLINE
  5
6B
330
1F
100
AcDbEntity
  8
0
 62
     8
370
    15
100
AcDbSpline
210
0.0
220
0.0
230
1.0
 70
    24
 71
     3
 72
     8
 73
     4
 74
     0
 42
0.0000000001
 43
0.0000000001
 40
0.0
 40
0.0
 40
0.0
 40
0.0
 40
1.0
 40
1.0
 40
1.0
 40
1.0
 10
-7.15009
 20
4.6335
 30
0.0
 10
-7.15009
 20
4.6335
 30
0.0
 10
-7.15149
 20
4.6335
 30
0.0
 10
-7.15149
 20
4.6335
 30
0.0
  0
SPLINE
  5
6C
330
1F
100
AcDbEntity
  8
0
 62
     8
370
    15
100
AcDbSpline
210
0.0
220
0.0
230
1.0
 70
    24
 71
     3
 72
     8
 73
     4
 74
     0
 42
0.0000000001
 43
0.0000000001
 40
0.0
 40
0.0
 40
0.0
 40
0.0
 40
1.0
 40
1.0
 40
1.0
 40
1.0
 10
-3.9539
 20
4.6335
 30
0.0
 10
-3.9539
 20
4.6335
 30
0.0
 10
-7.15009
 20
4.6335
 30
0.0
 10
-7.15009
 20
4.6335
 30
0.0
  0
SPLINE
  5
6D
330
1F
100
AcDbEntity
  8
0
 62
     8
370
    15
100
AcDbSpline
210
0.0
220
0.0
230
1.0
 70
    24
 71
     3
 72
     8
 73
     4
 74
     0
 42
0.0000000001
 43
0.0000000001
 40
0.0
 40
0.0
 40
0.0
 40
0.0
 40
1.0
 40
1.0
 40
1.0
 40
1.0
 10
-7.13736
 20
4.22885
 30
0.0
 10
-7.13736
 20
4.22885
 30
0.0
 10
-3.96803
 20
4.22885
 30
0.0
 10
-3.96803
 20
4.22885
 30
0.0
  0
SPLINE
  5
6E
330
1F
100
AcDbEntity
  8
0
 62
     8
370
    15
100
AcDbSpline
210
0.0
220
0.0
230
1.0
 70
    24
 71
     3
 72
     8
 73
     4
 74
     0
 42
0.0000000001
 43
0.0000000001
 40
0.0
 40
0.0
 40
0.0
 40
0.0
 40
1.0
 40
1.0
 40
1.0
 40
1.0
 10
-7.03568
 20
4.08115
 30
0.0
 10
-7.03568
 20
4.08115
 30
0.0
 10
-4.06971
 20
4.08115
 30
0.0
 10
-4.06971
 20
4.08115
 30
0.0
  0
SPLINE
  5
6F
330
1F
100
AcDbEntity
  8
0
 62
     8
370
    15
100
AcDbSpline
210
0.0
220
0.0
230
1.0
 70
    24
 71
     3
 72
     8
 73
     4
 74
     0
 42
0.0000000001
 43
0.0000000001
 40
0.0
 40
0.0
 40
0.0
 40
0.0
 40
1.0
 40
1.0
 40
1.0
 40
1.0
 10
-6.71728
 20
1.11819
 30
0.0
 10
-6.71728
 20
1.11819
 30
0.0
 10
-6.7183
 20
1.11819
 30
0.0
 10
-6.7183
 20
1.11819
 30
0.0
  0
SPLINE
  5
70
330
1F
100
AcDbEntity
  8
0
 62
     8
370
    15
100
AcDbSpline
210
0.0
220
0.0
230
1.0
 70
    24
 71
     3
 72
     8
 73
     4
 74
     0
 42
0.0000000001
 43
0.0000000001
 40
0.0
 40
0.0
 40
0.0
 40
0.0
 40
1.0
 40
1.0
 40
1.0
 40
1.0
 10
-4.38709
 20
1.11819
 30
0.0
 10
-4.38709
 20
1.11819
 30
0.0
 10
-6.71728
 20
1.11819
 30
0.0
 10
-6.71728
 20
1.11819
 30
0.0
  0
SPLINE
  5
71
330
1F
100
AcDbEntity
  8
0
 62
     8
370
    15
100
AcDbSpline
210
0.0
220
0.0
230
1.0
 70
    24
 71
     3
 72
     8
 73
     4
 74
     0
 42
0.0000000001
 43
0.0000000001
 40
0.0
 40
0.0
 40
0.0
 40
0.0
 40
1.0
 40
1.0
 40
1.0
 40
1.0
 10
-7.13993
 20
3.71293
 30
0.0
 10
-7.13993
 20
3.71293
 30
0.0
 10
-3.96546
 20
3.71293
 30
0.0
 10
-3.96546
 20
3.71293
 30
0.0
  0
SPLINE
  5
72
330
1F
100
AcDbEntity
  8
0
 62
     8
370
    15
100
AcDbSpline
210
0.0
220
0.0
230
1.0
 70
    24
 71
     3
 72
     8
 73
     4
 74
     0
 42
0.0000000001
 43
0.0000000001
 40
0.0
 40
0.0
 40
0.0
 40
0.0
 40
1.0
 40
1.0
 40
1.0
 40
1.0
 10
-3.96546
 20
3.95641
 30
0.0
 10
-3.96546
 20
3.95641
 30
0.0
 10
-7.13993
 20
3.95641
 30
0.0
 10
-7.13993
 20
3.95641
 30
0.0
  0
SPLINE
  5
73
330
1F
100
AcDbEntity
  8
0
100
AcDbSpline
210
0.0
220
0.0
230
1.0
 70
    27
 71
     3
 72
    12
 73
     8
 74
     0
 42
0.0000000001
 43
0.0000000001
 40
0.0
 40
0.0
 40
0.0
 40
0.0
 40
0.3333333333333333
 40
0.3333333333333333
 40
0.3333333333333333
 40
0.3333333333333333
 40
1.0
 40
1.0
 40
1.0
 40
1.0
 10
-8.36446
 20
12.50133
 30
0.0
 10
-8.36446
 20
12.50133
 30
0.0
 10
-8.31366
 20
12.17113
 30
0.0
 10
-8.31366
 20
12.17113
 30
0.0
 10
-8.31366
 20
12.17113
 30
0.0
 10
-8.31366
 20
12.17113
 30
0.0
 10
-8.36446
 20
12.50133
 30
0.0
 10
-8.36446
 20
12.50133
 30
0.0
  0
SPLINE
  5
74
330
1F
100
AcDbEntity
  8
0
100
AcDbSpline
210
0.0
220
0.0
230
1.0
 70
     8
 71
     3
 72
    12
 73
     8
 74
     0
 42
0.0000000001
 43
0.0000000001
 40
0.0
 40
0.0
 40
0.0
 40
0.0
 40
0.3333333333333333
 40
0.3333333333333333
 40
0.3333333333333333
 40
0.3333333333333333
 40
1.0
 40
1.0
 40
1.0
 40
1.0
 10
-8.31366
 20
12.17113
 30
0.0
 10
-8.31366
 20
12.17113
 30
0.0
 10
-8.41526
 20
12.17113
 30
0.0
 10
-8.41526
 20
12.17113
 30
0.0
 10
-8.41526
 20
12.17113
 30
0.0
 10
-8.41526
 20
12.17113
 30
0.0
 10
-8.36446
 20
12.50133
 30
0.0
 10
-8.36446
 20
12.50133
 30
0.0
  0
SPLINE
  5
75
330
1F
100
AcDbEntity
  8
0
370
     9
100
AcDbSpline
210
0.0
220
0.0
230
1.0
 70
    24
 71
     3
 72
     8
 73
     4
 74
     0
 42
0.0000000001
 43
0.0000000001
 40
0.0
 40
0.0
 40
0.0
 40
0.0
 40
1.0
 40
1.0
 40
1.0
 40
1.0
 10
-8.36446
 20
12.50133
 30
0.0
 10
-8.36446
 20
12.50133
 30
0.0
 10
-8.31366
 20
12.17113
 30
0.0
 10
-8.31366
 20
12.17113
 30
0.0
  0
SPLINE
  5
76
330
1F
100
AcDbEntity
  8
0
370
     9
100
AcDbSpline
210
0.0
220
0.0
230
1.0
 70
     8
 71
     3
 72
    12
 73
     8
 74
     0
 42
0.0000000001
 43
0.0000000001
 40
0.0
 40
0.0
 40
0.0
 40
0.0
 40
0.3333333333333333
 40
0.3333333333333333
 40
0.3333333333333333
 40
0.3333333333333333
 40
1.0
 40
1.0
 40
1.0
 40
1.0
 10
-8.31366
 20
12.17113
 30
0.0
 10
-8.31366
 20
12.17113
 30
0.0
 10
-8.41526
 20
12.17113
 30
0.0
 10
-8.41526
 20
12.17113
 30
0.0
 10
-8.41526
 20
12.17113
 30
0.0
 10
-8.41526
 20
12.17113
 30
0.0
 10
-8.36446
 20
12.50133
 30
0.0
 10
-8.36446
 20
12.50133
 30
0.0
  0
SPLINE
  5
77
330
1F
100
AcDbEntity
  8
0
100
AcDbSpline
210
0.0
220
0.0
230
1.0
 70
    27
 71
     3
 72
    12
 73
     8
 74
     0
 42
0.0000000001
 43
0.0000000001
 40
0.0
 40
0.0
 40
0.0
 40
0.0
 40
0.3333333333333333
 40
0.3333333333333333
 40
0.3333333333333333
 40
0.3333333333333333
 40
1.0
 40
1.0
 40
1.0
 40
1.0
 10
-8.36446
 20
0.00133
 30
0.0
 10
-8.36446
 20
0.00133
 30
0.0
 10
-8.41526
 20
0.33153
 30
0.0
 10
-8.41526
 20
0.33153
 30
0.0
 10
-8.41526
 20
0.33153
 30
0.0
 10
-8.41526
 20
0.33153
 30
0.0
 10
-8.36446
 20
0.00133
 30
0.0
 10
-8.36446
 20
0.00133
 30
0.0
  0
SPLINE
  5
78
330
1F
100
AcDbEntity
  8
0
100
AcDbSpline
210
0.0
220
0.0
230
1.0
 70
     8
 71
     3
 72
    12
 73
     8
 74
     0
 42
0.0000000001
 43
0.0000000001
 40
0.0
 40
0.0
 40
0.0
 40
0.0
 40
0.3333333333333333
 40
0.3333333333333333
 40
0.3333333333333333
 40
0.3333333333333333
 40
1.0
 40
1.0
 40
1.0
 40
1.0
 10
-8.41526
 20
0.33153
 30
0.0
 10
-8.41526
 20
0.33153
 30
0.0
 10
-8.31366
 20
0.33153
 30
0.0
 10
-8.31366
 20
0.33153
 30
0.0
 10
-8.31366
 20
0.33153
 30
0.0
 10
-8.31366
 20
0.33153
 30
0.0
 10
-8.36446
 20
0.00133
 30
0.0
 10
-8.36446
 20
0.00133
 30
0.0
  0
SPLINE
  5
79
330
1F
100
AcDbEntity
  8
0
370
     9
100
AcDbSpline
210
0.0
220
0.0
230
1.0
 70
    24
 71
     3
 72
     8
 73
     4
 74
     0
 42
0.0000000001
 43
0.0000000001
 40
0.0
 40
0.0
 40
0.0
 40
0.0
 40
1.0
 40
1.0
 40
1.0
 40
1.0
 10
-8.36446
 20
0.00133
 30
0.0
 10
-8.36446
 20
0.00133
 30
0.0
 10
-8.41526
 20
0.33153
 30
0.0
 10
-8.41526
 20
0.33153
 30
0.0
  0
SPLINE
  5
7A
330
1F
100
AcDbEntity
  8
0
370
     9
100
AcDbSpline
210
0.0
220
0.0
230
1.0
 70
     8
 71
     3
 72
    12
 73
     8
 74
     0
 42
0.0000000001
 43
0.0000000001
 40
0.0
 40
0.0
 40
0.0
 40
0.0
 40
0.3333333333333333
 40
0.3333333333333333
 40
0.3333333333333333
 40
0.3333333333333333
 40
1.0
 40
1.0
 40
1.0
 40
1.0
 10
-8.41526
 20
0.33153
 30
0.0
 10
-8.41526
 20
0.33153
 30
0.0
 10
-8.31366
 20
0.33153
 30
0.0
 10
-8.31366
 20
0.33153
 30
0.0
 10
-8.31366
 20
0.33153
 30
0.0
 10
-8.31366
 20
0.33153
 30
0.0
 10
-8.36446
 20
0.00133
 30
0.0
 10
-8.36446
 20
0.00133
 30
0.0
  0
SPLINE
  5
7B
330
1F
100
AcDbEntity
  8
0
370
     9
100
AcDbSpline
210
0.0
220
0.0
230
1.0
 70
    24
 71
     3
 72
     8
 73
     4
 74
     0
 42
0.0000000001
 43
0.0000000001
 40
0.0
 40
0.0
 40
0.0
 40
0.0
 40
1.0
 40
1.0
 40
1.0
 40
1.0
 10
-5.9527
 20
12.50133
 30
0.0
 10
-5.9527
 20
12.50133
 30
0.0
 10
-8.46446
 20
12.50133
 30
0.0
 10
-8.46446
 20
12.50133
 30
0.0
  0
SPLINE
  5
7C
330
1F
100
AcDbEntity
  8
0
370
     9
100
AcDbSpline
210
0.0
220
0.0
230
1.0
 70
    24
 71
     3
 72
     8
 73
     4
 74
     0
 42
0.0000000001
 43
0.0000000001
 40
0.0
 40
0.0
 40
0.0
 40
0.0
 40
1.0
 40
1.0
 40
1.0
 40
1.0
 10
-5.6527
 20
0.00133
 30
0.0
 10
-5.6527
 20
0.00133
 30
0.0
 10
-8.46446
 20
0.00133
 30
0.0
 10
-8.46446
 20
0.00133
 30
0.0
  0
SPLINE
  5
7D
330
1F
100
AcDbEntity
  8
0
370
     9
100
AcDbSpline
210
0.0
220
0.0
230
1.0
 70
    24
 71
     3
 72
     8
 73
     4
 74
     0
 42
0.0000000001
 43
0.0000000001
 40
0.0
 40
0.0
 40
0.0
 40
0.0
 40
1.0
 40
1.0
 40
1.0
 40
1.0
 10
-8.36446
 20
12.50133
 30
0.0
 10
-8.36446
 20
12.50133
 30
0.0
 10
-8.36446
 20
0.00133
 30
0.0
 10
-8.36446
 20
0.00133
 30
0.0
  0
SPLINE
  5
7E
330
1F
100
AcDbEntity
  8
0
100
AcDbSpline
210
0.0
220
0.0
230
1.0
 70
    11
 71
     3
 72
   124
 73
   120
 74
     0
 42
0.0000000001
 43
0.0000000001
 40
0.0
 40
0.0
 40
0.0
 40
0.0
 40
0.032258064516129
 40
0.032258064516129
 40
0.032258064516129
 40
0.032258064516129
 40
0.0645161290322581
 40
0.0645161290322581
 40
0.0645161290322581
 40
0.0645161290322581
 40
0.0967741935483871
 40
0.0967741935483871
 40
0.0967741935483871
 40
0.0967741935483871
 40
0.1290322580645161
 40
0.1290322580645161
 40
0.1290322580645161
 40
0.1290322580645161
 40
0.1612903225806452
 40
0.1612903225806452
 40
0.1612903225806452
 40
0.1612903225806452
 40
0.1935483870967742
 40
0.1935483870967742
 40
0.1935483870967742
 40
0.1935483870967742
 40
0.2258064516129032
 40
0.2258064516129032
 40
0.2258064516129032
 40
0.2258064516129032
 40
0.2580645161290323
 40
0.2580645161290323
 40
0.2580645161290323
 40
0.2580645161290323
 40
0.2903225806451613
 40
0.2903225806451613
 40
0.2903225806451613
 40
0.2903225806451613
 40
0.3225806451612903
 40
0.3225806451612903
 40
0.3225806451612903
 40
0.3225806451612903
 40
0.3548387096774194
 40
0.3548387096774194
 40
0.3548387096774194
 40
0.3548387096774194
 40
0.3870967741935484
 40
0.3870967741935484
 40
0.3870967741935484
 40
0.3870967741935484
 40
0.4193548387096774
 40
0.4193548387096774
 40
0.4193548387096774
 40
0.4193548387096774
 40
0.4516129032258064
 40
0.4516129032258064
 40
0.4516129032258064
 40
0.4516129032258064
 40
0.4838709677419355
 40
0.4838709677419355
 40
0.4838709677419355
 40
0.4838709677419355
 40
0.5161290322580645
 40
0.5161290322580645
 40
0.5161290322580645
 40
0.5161290322580645
 40
0.5483870967741935
 40
0.5483870967741935
 40
0.5483870967741935
 40
0.5483870967741935
 40
0.5806451612903226
 40
0.5806451612903226
 40
0.5806451612903226
 40
0.5806451612903226
 40
0.6129032258064516
 40
0.6129032258064516
 40
0.6129032258064516
 40
0.6129032258064516
 40
0.6451612903225806
 40
0.6451612903225806
 40
0.6451612903225806
 40
0.6451612903225806
 40
0.6774193548387096
 40
0.6774193548387096
 40
0.6774193548387096
 40
0.6774193548387096
 40
0.7096774193548387
 40
0.7096774193548387
 40
0.7096774193548387
 40
0.7096774193548387
 40
0.7419354838709677
 40
0.7419354838709677
 40
0.7419354838709677
 40
0.7419354838709677
 40
0.7741935483870968
 40
0.7741935483870968
 40
0.7741935483870968
 40
0.7741935483870968
 40
0.8064516129032258
 40
0.8064516129032258
 40
0.8064516129032258
 40
0.8064516129032258
 40
0.8387096774193549
 40
0.8387096774193549
 40
0.8387096774193549
 40
0.8387096774193549
 40
0.8709677419354839
 40
0.8709677419354839
 40
0.8709677419354839
 40
0.8709677419354839
 40
0.9032258064516129
 40
0.9032258064516129
 40
0.9032258064516129
 40
0.9032258064516129
 40
0.9354838709677419
 40
0.9354838709677419
 40
0.9354838709677419
 40
0.9354838709677419
 40
1.0
 40
1.0
 40
1.0
 40
1.0
 10
-8.56491
 20
4.78405
 30
0.0
 10
-8.56491
 20
4.78405
 30
0.0
 10
-8.56899
 20
4.81479
 30
0.0
 10
-8.56899
 20
4.81479
 30
0.0
 10
-8.56899
 20
4.81479
 30
0.0
 10
-8.55155
 20
4.81835
 30
0.0
 10
-8.53901
 20
4.82436
 30
0.0
 10
-8.53131
 20
4.83282
 30
0.0
 10
-8.53131
 20
4.83282
 30
0.0
 10
-8.52361
 20
4.84133
 30
0.0
 10
-8.51976
 20
4.85166
 30
0.0
 10
-8.51976
 20
4.86385
 30
0.0
 10
-8.51976
 20
4.86385
 30
0.0
 10
-8.51976
 20
4.87832
 30
0.0
 10
-8.52478
 20
4.89057
 30
0.0
 10
-8.53481
 20
4.90054
 30
0.0
 10
-8.53481
 20
4.90054
 30
0.0
 10
-8.54484
 20
4.91046
 30
0.0
 10
-8.55727
 20
4.91547
 30
0.0
 10
-8.57208
 20
4.91547
 30
0.0
 10
-8.57208
 20
4.91547
 30
0.0
 10
-8.5862
 20
4.91547
 30
0.0
 10
-8.59787
 20
4.91087
 30
0.0
 10
-8.60703
 20
4.90165
 30
0.0
 10
-8.60703
 20
4.90165
 30
0.0
 10
-8.61618
 20
4.89237
 30
0.0
 10
-8.62079
 20
4.88065
 30
0.0
 10
-8.62079
 20
4.86642
 30
0.0
 10
-8.62079
 20
4.86642
 30
0.0
 10
-8.62079
 20
4.86058
 30
0.0
 10
-8.61963
 20
4.85335
 30
0.0
 10
-8.61735
 20
4.84472
 30
0.0
 10
-8.61735
 20
4.84472
 30
0.0
 10
-8.61735
 20
4.84472
 30
0.0
 10
-8.64436
 20
4.84816
 30
0.0
 10
-8.64436
 20
4.84816
 30
0.0
 10
-8.64436
 20
4.84816
 30
0.0
 10
-8.64413
 20
4.8502
 30
0.0
 10
-8.64401
 20
4.85183
 30
0.0
 10
-8.64401
 20
4.85312
 30
0.0
 10
-8.64401
 20
4.85312
 30
0.0
 10
-8.64401
 20
4.86618
 30
0.0
 10
-8.64745
 20
4.87797
 30
0.0
 10
-8.65428
 20
4.88847
 30
0.0
 10
-8.65428
 20
4.88847
 30
0.0
 10
-8.6611
 20
4.89897
 30
0.0
 10
-8.67166
 20
4.90422
 30
0.0
 10
-8.68589
 20
4.90422
 30
0.0
 10
-8.68589
 20
4.90422
 30
0.0
 10
-8.69715
 20
4.90422
 30
0.0
 10
-8.70654
 20
4.90037
 30
0.0
 10
-8.71389
 20
4.89272
 30
0.0
 10
-8.71389
 20
4.89272
 30
0.0
 10
-8.7213
 20
4.88508
 30
0.0
 10
-8.72503
 20
4.87522
 30
0.0
 10
-8.72503
 20
4.86315
 30
0.0
 10
-8.72503
 20
4.86315
 30
0.0
 10
-8.72503
 20
4.85119
 30
0.0
 10
-8.72124
 20
4.84122
 30
0.0
 10
-8.71378
 20
4.83328
 30
0.0
 10
-8.71378
 20
4.83328
 30
0.0
 10
-8.70625
 20
4.82529
 30
0.0
 10
-8.69493
 20
4.82016
 30
0.0
 10
-8.67988
 20
4.81788
 30
0.0
 10
-8.67988
 20
4.81788
 30
0.0
 10
-8.67988
 20
4.81788
 30
0.0
 10
-8.68537
 20
4.78714
 30
0.0
 10
-8.68537
 20
4.78714
 30
0.0
 10
-8.68537
 20
4.78714
 30
0.0
 10
-8.70602
 20
4.79087
 30
0.0
 10
-8.722
 20
4.79945
 30
0.0
 10
-8.73332
 20
4.81275
 30
0.0
 10
-8.73332
 20
4.81275
 30
0.0
 10
-8.74463
 20
4.82611
 30
0.0
 10
-8.75029
 20
4.84267
 30
0.0
 10
-8.75029
 20
4.86251
 30
0.0
 10
-8.75029
 20
4.86251
 30
0.0
 10
-8.75029
 20
4.87616
 30
0.0
 10
-8.74738
 20
4.88876
 30
0.0
 10
-8.74154
 20
4.90025
 30
0.0
 10
-8.74154
 20
4.90025
 30
0.0
 10
-8.73565
 20
4.91174
 30
0.0
 10
-8.72766
 20
4.92055
 30
0.0
 10
-8.71751
 20
4.92667
 30
0.0
 10
-8.71751
 20
4.92667
 30
0.0
 10
-8.70736
 20
4.93274
 30
0.0
 10
-8.69663
 20
4.93583
 30
0.0
 10
-8.68519
 20
4.93583
 30
0.0
 10
-8.68519
 20
4.93583
 30
0.0
 10
-8.6744
 20
4.93583
 30
0.0
 10
-8.66454
 20
4.93292
 30
0.0
 10
-8.65562
 20
4.92708
 30
0.0
 10
-8.65562
 20
4.92708
 30
0.0
 10
-8.64675
 20
4.92125
 30
0.0
 10
-8.63969
 20
4.91267
 30
0.0
 10
-8.63444
 20
4.9013
 30
0.0
 10
-8.63444
 20
4.9013
 30
0.0
 10
-8.63106
 20
4.91612
 30
0.0
 10
-8.62394
 20
4.92761
 30
0.0
 10
-8.61315
 20
4.93583
 30
0.0
 10
-8.61315
 20
4.93583
 30
0.0
 10
-8.60242
 20
4.944
 30
0.0
 10
-8.58894
 20
4.94808
 30
0.0
 10
-8.57278
 20
4.94808
 30
0.0
 10
-8.57278
 20
4.94808
 30
0.0
 10
-8.55091
 20
4.94808
 30
0.0
 10
-8.53236
 20
4.94015
 30
0.0
 10
-8.51713
 20
4.92417
 30
0.0
 10
-8.51713
 20
4.92417
 30
0.0
 10
-8.50191
 20
4.90824
 30
0.0
 10
-8.49433
 20
4.88806
 30
0.0
 10
-8.49433
 20
4.86367
 30
0.0
 10
-8.49433
 20
4.86367
 30
0.0
 10
-8.49433
 20
4.84168
 30
0.0
 10
-8.50086
 20
4.82342
 30
0.0
 10
-8.51398
 20
4.8089
 30
0.0
 10
-8.51398
 20
4.8089
 30
0.0
 10
-8.52705
 20
4.79437
 30
0.0
 10
-8.54403
 20
4.78609
 30
0.0
 10
-8.56491
 20
4.78405
 30
0.0
  0
SPLINE
  5
7F
330
1F
100
AcDbEntity
  8
0
100
AcDbSpline
210
0.0
220
0.0
230
1.0
 70
    11
 71
     3
 72
    48
 73
    44
 74
     0
 42
0.0000000001
 43
0.0000000001
 40
0.0
 40
0.0
 40
0.0
 40
0.0
 40
0.0833333333333333
 40
0.0833333333333333
 40
0.0833333333333333
 40
0.0833333333333333
 40
0.1666666666666667
 40
0.1666666666666667
 40
0.1666666666666667
 40
0.1666666666666667
 40
0.25
 40
0.25
 40
0.25
 40
0.25
 40
0.3333333333333333
 40
0.3333333333333333
 40
0.3333333333333333
 40
0.3333333333333333
 40
0.4166666666666667
 40
0.4166666666666667
 40
0.4166666666666667
 40
0.4166666666666667
 40
0.5
 40
0.5
 40
0.5
 40
0.5
 40
0.5833333333333334
 40
0.5833333333333334
 40
0.5833333333333334
 40
0.5833333333333334
 40
0.6666666666666666
 40
0.6666666666666666
 40
0.6666666666666666
 40
0.6666666666666666
 40
0.75
 40
0.75
 40
0.75
 40
0.75
 40
0.8333333333333334
 40
0.8333333333333334
 40
0.8333333333333334
 40
0.8333333333333334
 40
1.0
 40
1.0
 40
1.0
 40
1.0
 10
-8.71646
 20
4.98058
 30
0.0
 10
-8.71646
 20
4.98058
 30
0.0
 10
-8.74603
 20
4.98058
 30
0.0
 10
-8.74603
 20
4.98058
 30
0.0
 10
-8.74603
 20
4.98058
 30
0.0
 10
-8.74603
 20
4.98058
 30
0.0
 10
-8.74603
 20
5.14274
 30
0.0
 10
-8.74603
 20
5.14274
 30
0.0
 10
-8.74603
 20
5.14274
 30
0.0
 10
-8.74603
 20
5.14274
 30
0.0
 10
-8.72212
 20
5.14274
 30
0.0
 10
-8.72212
 20
5.14274
 30
0.0
 10
-8.72212
 20
5.14274
 30
0.0
 10
-8.70514
 20
5.12682
 30
0.0
 10
-8.68257
 20
5.11101
 30
0.0
 10
-8.65445
 20
5.09532
 30
0.0
 10
-8.65445
 20
5.09532
 30
0.0
 10
-8.62633
 20
5.07968
 30
0.0
 10
-8.59734
 20
5.06755
 30
0.0
 10
-8.56765
 20
5.05903
 30
0.0
 10
-8.56765
 20
5.05903
 30
0.0
 10
-8.54665
 20
5.05285
 30
0.0
 10
-8.52373
 20
5.04894
 30
0.0
 10
-8.49876
 20
5.04725
 30
0.0
 10
-8.49876
 20
5.04725
 30
0.0
 10
-8.49876
 20
5.04725
 30
0.0
 10
-8.49876
 20
5.01563
 30
0.0
 10
-8.49876
 20
5.01563
 30
0.0
 10
-8.49876
 20
5.01563
 30
0.0
 10
-8.51848
 20
5.01598
 30
0.0
 10
-8.54228
 20
5.01983
 30
0.0
 10
-8.57022
 20
5.02724
 30
0.0
 10
-8.57022
 20
5.02724
 30
0.0
 10
-8.5981
 20
5.03465
 30
0.0
 10
-8.62505
 20
5.04527
 30
0.0
 10
-8.65095
 20
5.05909
 30
0.0
 10
-8.65095
 20
5.05909
 30
0.0
 10
-8.67685
 20
5.07298
 30
0.0
 10
-8.69873
 20
5.08768
 30
0.0
 10
-8.71646
 20
5.10331
 30
0.0
 10
-8.71646
 20
5.10331
 30
0.0
 10
-8.71646
 20
5.10331
 30
0.0
 10
-8.71646
 20
4.98058
 30
0.0
 10
-8.71646
 20
4.98058
 30
0.0
  0
SPLINE
  5
80
330
1F
100
AcDbEntity
  8
0
100
AcDbSpline
210
0.0
220
0.0
230
1.0
 70
    11
 71
     3
 72
    92
 73
    88
 74
     0
 42
0.0000000001
 43
0.0000000001
 40
0.0
 40
0.0
 40
0.0
 40
0.0
 40
0.0434782608695652
 40
0.0434782608695652
 40
0.0434782608695652
 40
0.0434782608695652
 40
0.0869565217391304
 40
0.0869565217391304
 40
0.0869565217391304
 40
0.0869565217391304
 40
0.1304347826086956
 40
0.1304347826086956
 40
0.1304347826086956
 40
0.1304347826086956
 40
0.1739130434782609
 40
0.1739130434782609
 40
0.1739130434782609
 40
0.1739130434782609
 40
0.2173913043478261
 40
0.2173913043478261
 40
0.2173913043478261
 40
0.2173913043478261
 40
0.2608695652173913
 40
0.2608695652173913
 40
0.2608695652173913
 40
0.2608695652173913
 40
0.3043478260869565
 40
0.3043478260869565
 40
0.3043478260869565
 40
0.3043478260869565
 40
0.3478260869565217
 40
0.3478260869565217
 40
0.3478260869565217
 40
0.3478260869565217
 40
0.391304347826087
 40
0.391304347826087
 40
0.391304347826087
 40
0.391304347826087
 40
0.4347826086956522
 40
0.4347826086956522
 40
0.4347826086956522
 40
0.4347826086956522
 40
0.4782608695652174
 40
0.4782608695652174
 40
0.4782608695652174
 40
0.4782608695652174
 40
0.5217391304347826
 40
0.5217391304347826
 40
0.5217391304347826
 40
0.5217391304347826
 40
0.5652173913043478
 40
0.5652173913043478
 40
0.5652173913043478
 40
0.5652173913043478
 40
0.6086956521739131
 40
0.6086956521739131
 40
0.6086956521739131
 40
0.6086956521739131
 40
0.6521739130434783
 40
0.6521739130434783
 40
0.6521739130434783
 40
0.6521739130434783
 40
0.6956521739130435
 40
0.6956521739130435
 40
0.6956521739130435
 40
0.6956521739130435
 40
0.7391304347826086
 40
0.7391304347826086
 40
0.7391304347826086
 40
0.7391304347826086
 40
0.782608695652174
 40
0.782608695652174
 40
0.782608695652174
 40
0.782608695652174
 40
0.8260869565217391
 40
0.8260869565217391
 40
0.8260869565217391
 40
0.8260869565217391
 40
0.8695652173913043
 40
0.8695652173913043
 40
0.8695652173913043
 40
0.8695652173913043
 40
0.9130434782608695
 40
0.9130434782608695
 40
0.9130434782608695
 40
0.9130434782608695
 40
1.0
 40
1.0
 40
1.0
 40
1.0
 10
-8.56438
 20
5.17319
 30
0.0
 10
-8.56438
 20
5.17319
 30
0.0
 10
-8.56713
 20
5.20551
 30
0.0
 10
-8.56713
 20
5.20551
 30
0.0
 10
-8.56713
 20
5.20551
 30
0.0
 10
-8.55138
 20
5.2079
 30
0.0
 10
-8.53959
 20
5.21344
 30
0.0
 10
-8.53166
 20
5.22214
 30
0.0
 10
-8.53166
 20
5.22214
 30
0.0
 10
-8.52373
 20
5.23089
 30
0.0
 10
-8.51976
 20
5.24139
 30
0.0
 10
-8.51976
 20
5.25369
 30
0.0
 10
-8.51976
 20
5.25369
 30
0.0
 10
-8.51976
 20
5.26851
 30
0.0
 10
-8.52536
 20
5.28105
 30
0.0
 10
-8.5365
 20
5.29126
 30
0.0
 10
-8.5365
 20
5.29126
 30
0.0
 10
-8.5477
 20
5.30153
 30
0.0
 10
-8.56252
 20
5.30666
 30
0.0
 10
-8.58095
 20
5.30666
 30
0.0
 10
-8.58095
 20
5.30666
 30
0.0
 10
-8.59851
 20
5.30666
 30
0.0
 10
-8.61233
 20
5.30176
 30
0.0
 10
-8.62248
 20
5.2919
 30
0.0
 10
-8.62248
 20
5.2919
 30
0.0
 10
-8.63263
 20
5.28204
 30
0.0
 10
-8.63771
 20
5.26915
 30
0.0
 10
-8.63771
 20
5.25317
 30
0.0
 10
-8.63771
 20
5.25317
 30
0.0
 10
-8.63771
 20
5.24325
 30
0.0
 10
-8.63543
 20
5.23433
 30
0.0
 10
-8.63094
 20
5.22634
 30
0.0
 10
-8.63094
 20
5.22634
 30
0.0
 10
-8.62645
 20
5.21834
 30
0.0
 10
-8.62062
 20
5.2121
 30
0.0
 10
-8.61344
 20
5.20755
 30
0.0
 10
-8.61344
 20
5.20755
 30
0.0
 10
-8.61344
 20
5.20755
 30
0.0
 10
-8.61718
 20
5.17868
 30
0.0
 10
-8.61718
 20
5.17868
 30
0.0
 10
-8.61718
 20
5.17868
 30
0.0
 10
-8.61718
 20
5.17868
 30
0.0
 10
-8.74586
 20
5.20294
 30
0.0
 10
-8.74586
 20
5.20294
 30
0.0
 10
-8.74586
 20
5.20294
 30
0.0
 10
-8.74586
 20
5.20294
 30
0.0
 10
-8.74586
 20
5.32754
 30
0.0
 10
-8.74586
 20
5.32754
 30
0.0
 10
-8.74586
 20
5.32754
 30
0.0
 10
-8.74586
 20
5.32754
 30
0.0
 10
-8.71646
 20
5.32754
 30
0.0
 10
-8.71646
 20
5.32754
 30
0.0
 10
-8.71646
 20
5.32754
 30
0.0
 10
-8.71646
 20
5.32754
 30
0.0
 10
-8.71646
 20
5.22756
 30
0.0
 10
-8.71646
 20
5.22756
 30
0.0
 10
-8.71646
 20
5.22756
 30
0.0
 10
-8.71646
 20
5.22756
 30
0.0
 10
-8.64914
 20
5.21403
 30
0.0
 10
-8.64914
 20
5.21403
 30
0.0
 10
-8.64914
 20
5.21403
 30
0.0
 10
-8.65964
 20
5.22908
 30
0.0
 10
-8.66489
 20
5.24489
 30
0.0
 10
-8.66489
 20
5.26139
 30
0.0
 10
-8.66489
 20
5.26139
 30
0.0
 10
-8.66489
 20
5.28327
 30
0.0
 10
-8.65731
 20
5.3017
 30
0.0
 10
-8.64214
 20
5.31675
 30
0.0
 10
-8.64214
 20
5.31675
 30
0.0
 10
-8.62698
 20
5.3318
 30
0.0
 10
-8.60749
 20
5.33933
 30
0.0
 10
-8.58369
 20
5.33933
 30
0.0
 10
-8.58369
 20
5.33933
 30
0.0
 10
-8.561
 20
5.33933
 30
0.0
 10
-8.5414
 20
5.33268
 30
0.0
 10
-8.52489
 20
5.31949
 30
0.0
 10
-8.52489
 20
5.31949
 30
0.0
 10
-8.50465
 20
5.30339
 30
0.0
 10
-8.4945
 20
5.28146
 30
0.0
 10
-8.4945
 20
5.25369
 30
0.0
 10
-8.4945
 20
5.25369
 30
0.0
 10
-8.4945
 20
5.23089
 30
0.0
 10
-8.50086
 20
5.21228
 30
0.0
 10
-8.51363
 20
5.19787
 30
0.0
 10
-8.51363
 20
5.19787
 30
0.0
 10
-8.52641
 20
5.18346
 30
0.0
 10
-8.54333
 20
5.17524
 30
0.0
 10
-8.56438
 20
5.17319
 30
0.0
  0
SPLINE
  5
81
330
1F
100
AcDbEntity
  8
0
100
AcDbSpline
210
0.0
220
0.0
230
1.0
 70
    27
 71
     3
 72
    12
 73
     8
 74
     0
 42
0.0000000001
 43
0.0000000001
 40
0.0
 40
0.0
 40
0.0
 40
0.0
 40
0.3333333333333333
 40
0.3333333333333333
 40
0.3333333333333333
 40
0.3333333333333333
 40
1.0
 40
1.0
 40
1.0
 40
1.0
 10
-2.64797
 20
3.968
 30
0.0
 10
-2.64797
 20
3.968
 30
0.0
 10
-2.59717
 20
3.6378
 30
0.0
 10
-2.59717
 20
3.6378
 30
0.0
 10
-2.59717
 20
3.6378
 30
0.0
 10
-2.59717
 20
3.6378
 30
0.0
 10
-2.64797
 20
3.968
 30
0.0
 10
-2.64797
 20
3.968
 30
0.0
  0
SPLINE
  5
82
330
1F
100
AcDbEntity
  8
0
100
AcDbSpline
210
0.0
220
0.0
230
1.0
 70
     8
 71
     3
 72
    12
 73
     8
 74
     0
 42
0.0000000001
 43
0.0000000001
 40
0.0
 40
0.0
 40
0.0
 40
0.0
 40
0.3333333333333333
 40
0.3333333333333333
 40
0.3333333333333333
 40
0.3333333333333333
 40
1.0
 40
1.0
 40
1.0
 40
1.0
 10
-2.59717
 20
3.6378
 30
0.0
 10
-2.59717
 20
3.6378
 30
0.0
 10
-2.69877
 20
3.6378
 30
0.0
 10
-2.69877
 20
3.6378
 30
0.0
 10
-2.69877
 20
3.6378
 30
0.0
 10
-2.69877
 20
3.6378
 30
0.0
 10
-2.64797
 20
3.968
 30
0.0
 10
-2.64797
 20
3.968
 30
0.0
  0
SPLINE
  5
83
330
1F
100
AcDbEntity
  8
0
370
     9
100
AcDbSpline
210
0.0
220
0.0
230
1.0
 70
    24
 71
     3
 72
     8
 73
     4
 74
     0
 42
0.0000000001
 43
0.0000000001
 40
0.0
 40
0.0
 40
0.0
 40
0.0
 40
1.0
 40
1.0
 40
1.0
 40
1.0
 10
-2.64797
 20
3.968
 30
0.0
 10
-2.64797
 20
3.968
 30
0.0
 10
-2.59717
 20
3.6378
 30
0.0
 10
-2.59717
 20
3.6378
 30
0.0
  0
SPLINE
  5
84
330
1F
100
AcDbEntity
  8
0
370
     9
100
AcDbSpline
210
0.0
220
0.0
230
1.0
 70
     8
 71
     3
 72
    12
 73
     8
 74
     0
 42
0.0000000001
 43
0.0000000001
 40
0.0
 40
0.0
 40
0.0
 40
0.0
 40
0.3333333333333333
 40
0.3333333333333333
 40
0.3333333333333333
 40
0.3333333333333333
 40
1.0
 40
1.0
 40
1.0
 40
1.0
 10
-2.59717
 20
3.6378
 30
0.0
 10
-2.59717
 20
3.6378
 30
0.0
 10
-2.69877
 20
3.6378
 30
0.0
 10
-2.69877
 20
3.6378
 30
0.0
 10
-2.69877
 20
3.6378
 30
0.0
 10
-2.69877
 20
3.6378
 30
0.0
 10
-2.64797
 20
3.968
 30
0.0
 10
-2.64797
 20
3.968
 30
0.0
  0
SPLINE
  5
85
330
1F
100
AcDbEntity
  8
0
100
AcDbSpline
210
0.0
220
0.0
230
1.0
 70
    27
 71
     3
 72
    12
 73
     8
 74
     0
 42
0.0000000001
 43
0.0000000001
 40
0.0
 40
0.0
 40
0.0
 40
0.0
 40
0.3333333333333333
 40
0.3333333333333333
 40
0.3333333333333333
 40
0.3333333333333333
 40
1.0
 40
1.0
 40
1.0
 40
1.0
 10
-2.64797
 20
0.00133
 30
0.0
 10
-2.64797
 20
0.00133
 30
0.0
 10
-2.69877
 20
0.33153
 30
0.0
 10
-2.69877
 20
0.33153
 30
0.0
 10
-2.69877
 20
0.33153
 30
0.0
 10
-2.69877
 20
0.33153
 30
0.0
 10
-2.64797
 20
0.00133
 30
0.0
 10
-2.64797
 20
0.00133
 30
0.0
  0
SPLINE
  5
86
330
1F
100
AcDbEntity
  8
0
100
AcDbSpline
210
0.0
220
0.0
230
1.0
 70
     8
 71
     3
 72
    12
 73
     8
 74
     0
 42
0.0000000001
 43
0.0000000001
 40
0.0
 40
0.0
 40
0.0
 40
0.0
 40
0.3333333333333333
 40
0.3333333333333333
 40
0.3333333333333333
 40
0.3333333333333333
 40
1.0
 40
1.0
 40
1.0
 40
1.0
 10
-2.69877
 20
0.33153
 30
0.0
 10
-2.69877
 20
0.33153
 30
0.0
 10
-2.59717
 20
0.33153
 30
0.0
 10
-2.59717
 20
0.33153
 30
0.0
 10
-2.59717
 20
0.33153
 30
0.0
 10
-2.59717
 20
0.33153
 30
0.0
 10
-2.64797
 20
0.00133
 30
0.0
 10
-2.64797
 20
0.00133
 30
0.0
  0
SPLINE
  5
87
330
1F
100
AcDbEntity
  8
0
370
     9
100
AcDbSpline
210
0.0
220
0.0
230
1.0
 70
    24
 71
     3
 72
     8
 73
     4
 74
     0
 42
0.0000000001
 43
0.0000000001
 40
0.0
 40
0.0
 40
0.0
 40
0.0
 40
1.0
 40
1.0
 40
1.0
 40
1.0
 10
-2.64797
 20
0.00133
 30
0.0
 10
-2.64797
 20
0.00133
 30
0.0
 10
-2.69877
 20
0.33153
 30
0.0
 10
-2.69877
 20
0.33153
 30
0.0
  0
SPLINE
  5
88
330
1F
100
AcDbEntity
  8
0
370
     9
100
AcDbSpline
210
0.0
220
0.0
230
1.0
 70
     8
 71
     3
 72
    12
 73
     8
 74
     0
 42
0.0000000001
 43
0.0000000001
 40
0.0
 40
0.0
 40
0.0
 40
0.0
 40
0.3333333333333333
 40
0.3333333333333333
 40
0.3333333333333333
 40
0.3333333333333333
 40
1.0
 40
1.0
 40
1.0
 40
1.0
 10
-2.69877
 20
0.33153
 30
0.0
 10
-2.69877
 20
0.33153
 30
0.0
 10
-2.59717
 20
0.33153
 30
0.0
 10
-2.59717
 20
0.33153
 30
0.0
 10
-2.59717
 20
0.33153
 30
0.0
 10
-2.59717
 20
0.33153
 30
0.0
 10
-2.64797
 20
0.00133
 30
0.0
 10
-2.64797
 20
0.00133
 30
0.0
  0
SPLINE
  5
89
330
1F
100
AcDbEntity
  8
0
370
     9
100
AcDbSpline
210
0.0
220
0.0
230
1.0
 70
    24
 71
     3
 72
     8
 73
     4
 74
     0
 42
0.0000000001
 43
0.0000000001
 40
0.0
 40
0.0
 40
0.0
 40
0.0
 40
1.0
 40
1.0
 40
1.0
 40
1.0
 10
-3.86936
 20
3.968
 30
0.0
 10
-3.86936
 20
3.968
 30
0.0
 10
-2.54797
 20
3.968
 30
0.0
 10
-2.54797
 20
3.968
 30
0.0
  0
SPLINE
  5
8A
330
1F
100
AcDbEntity
  8
0
370
     9
100
AcDbSpline
210
0.0
220
0.0
230
1.0
 70
    24
 71
     3
 72
     8
 73
     4
 74
     0
 42
0.0000000001
 43
0.0000000001
 40
0.0
 40
0.0
 40
0.0
 40
0.0
 40
1.0
 40
1.0
 40
1.0
 40
1.0
 10
-5.4527
 20
0.00133
 30
0.0
 10
-5.4527
 20
0.00133
 30
0.0
 10
-2.54797
 20
0.00133
 30
0.0
 10
-2.54797
 20
0.00133
 30
0.0
  0
SPLINE
  5
8B
330
1F
100
AcDbEntity
  8
0
370
     9
100
AcDbSpline
210
0.0
220
0.0
230
1.0
 70
    24
 71
     3
 72
     8
 73
     4
 74
     0
 42
0.0000000001
 43
0.0000000001
 40
0.0
 40
0.0
 40
0.0
 40
0.0
 40
1.0
 40
1.0
 40
1.0
 40
1.0
 10
-2.64797
 20
3.968
 30
0.0
 10
-2.64797
 20
3.968
 30
0.0
 10
-2.64797
 20
0.00133
 30
0.0
 10
-2.64797
 20
0.00133
 30
0.0
  0
SPLINE
  5
8C
330
1F
100
AcDbEntity
  8
0
100
AcDbSpline
210
0.0
220
0.0
230
1.0
 70
    11
 71
     3
 72
    40
 73
    36
 74
     0
 42
0.0000000001
 43
0.0000000001
 40
0.0
 40
0.0
 40
0.0
 40
0.0
 40
0.1
 40
0.1
 40
0.1
 40
0.1
 40
0.2
 40
0.2
 40
0.2
 40
0.2
 40
0.3
 40
0.3
 40
0.3
 40
0.3
 40
0.4
 40
0.4
 40
0.4
 40
0.4
 40
0.5
 40
0.5
 40
0.5
 40
0.5
 40
0.6
 40
0.6
 40
0.6
 40
0.6
 40
0.7
 40
0.7
 40
0.7
 40
0.7
 40
0.8
 40
0.8
 40
0.8
 40
0.8
 40
1.0
 40
1.0
 40
1.0
 40
1.0
 10
-2.78227
 20
1.512
 30
0.0
 10
-2.78227
 20
1.512
 30
0.0
 10
-2.78227
 20
1.48126
 30
0.0
 10
-2.78227
 20
1.48126
 30
0.0
 10
-2.78227
 20
1.48126
 30
0.0
 10
-2.78227
 20
1.48126
 30
0.0
 10
-2.97827
 20
1.48126
 30
0.0
 10
-2.97827
 20
1.48126
 30
0.0
 10
-2.97827
 20
1.48126
 30
0.0
 10
-2.97121
 20
1.47385
 30
0.0
 10
-2.96415
 20
1.46417
 30
0.0
 10
-2.95709
 20
1.45215
 30
0.0
 10
-2.95709
 20
1.45215
 30
0.0
 10
-2.95004
 20
1.44008
 30
0.0
 10
-2.94473
 20
1.42929
 30
0.0
 10
-2.94123
 20
1.41972
 30
0.0
 10
-2.94123
 20
1.41972
 30
0.0
 10
-2.94123
 20
1.41972
 30
0.0
 10
-2.97092
 20
1.41972
 30
0.0
 10
-2.97092
 20
1.41972
 30
0.0
 10
-2.97092
 20
1.41972
 30
0.0
 10
-2.97903
 20
1.43693
 30
0.0
 10
-2.98883
 20
1.45198
 30
0.0
 10
-3.00032
 20
1.46487
 30
0.0
 10
-3.00032
 20
1.46487
 30
0.0
 10
-3.01187
 20
1.4777
 30
0.0
 10
-3.02301
 20
1.48686
 30
0.0
 10
-3.0338
 20
1.49223
 30
0.0
 10
-3.0338
 20
1.49223
 30
0.0
 10
-3.0338
 20
1.49223
 30
0.0
 10
-3.0338
 20
1.512
 30
0.0
 10
-3.0338
 20
1.512
 30
0.0
 10
-3.0338
 20
1.512
 30
0.0
 10
-3.0338
 20
1.512
 30
0.0
 10
-2.78227
 20
1.512
 30
0.0
 10
-2.78227
 20
1.512
 30
0.0
  0
SPLINE
  5
8D
330
1F
100
AcDbEntity
  8
0
100
AcDbSpline
210
0.0
220
0.0
230
1.0
 70
    11
 71
     3
 72
    40
 73
    36
 74
     0
 42
0.0000000001
 43
0.0000000001
 40
0.0
 40
0.0
 40
0.0
 40
0.0
 40
0.1
 40
0.1
 40
0.1
 40
0.1
 40
0.2
 40
0.2
 40
0.2
 40
0.2
 40
0.3
 40
0.3
 40
0.3
 40
0.3
 40
0.4
 40
0.4
 40
0.4
 40
0.4
 40
0.5
 40
0.5
 40
0.5
 40
0.5
 40
0.6
 40
0.6
 40
0.6
 40
0.6
 40
0.7
 40
0.7
 40
0.7
 40
0.7
 40
0.8
 40
0.8
 40
0.8
 40
0.8
 40
1.0
 40
1.0
 40
1.0
 40
1.0
 10
-2.78227
 20
1.6807
 30
0.0
 10
-2.78227
 20
1.6807
 30
0.0
 10
-2.78227
 20
1.64996
 30
0.0
 10
-2.78227
 20
1.64996
 30
0.0
 10
-2.78227
 20
1.64996
 30
0.0
 10
-2.78227
 20
1.64996
 30
0.0
 10
-2.97827
 20
1.64996
 30
0.0
 10
-2.97827
 20
1.64996
 30
0.0
 10
-2.97827
 20
1.64996
 30
0.0
 10
-2.97121
 20
1.64255
 30
0.0
 10
-2.96415
 20
1.63287
 30
0.0
 10
-2.95709
 20
1.62085
 30
0.0
 10
-2.95709
 20
1.62085
 30
0.0
 10
-2.95004
 20
1.60878
 30
0.0
 10
-2.94473
 20
1.59799
 30
0.0
 10
-2.94123
 20
1.58842
 30
0.0
 10
-2.94123
 20
1.58842
 30
0.0
 10
-2.94123
 20
1.58842
 30
0.0
 10
-2.97092
 20
1.58842
 30
0.0
 10
-2.97092
 20
1.58842
 30
0.0
 10
-2.97092
 20
1.58842
 30
0.0
 10
-2.97903
 20
1.60563
 30
0.0
 10
-2.98883
 20
1.62068
 30
0.0
 10
-3.00032
 20
1.63357
 30
0.0
 10
-3.00032
 20
1.63357
 30
0.0
 10
-3.01187
 20
1.6464
 30
0.0
 10
-3.02301
 20
1.65556
 30
0.0
 10
-3.0338
 20
1.66093
 30
0.0
 10
-3.0338
 20
1.66093
 30
0.0
 10
-3.0338
 20
1.66093
 30
0.0
 10
-3.0338
 20
1.6807
 30
0.0
 10
-3.0338
 20
1.6807
 30
0.0
 10
-3.0338
 20
1.6807
 30
0.0
 10
-3.0338
 20
1.6807
 30
0.0
 10
-2.78227
 20
1.6807
 30
0.0
 10
-2.78227
 20
1.6807
 30
0.0
  0
SPLINE
  5
8E
330
1F
100
AcDbEntity
  8
0
100
AcDbSpline
210
0.0
220
0.0
230
1.0
 70
    11
 71
     3
 72
    92
 73
    88
 74
     0
 42
0.0000000001
 43
0.0000000001
 40
0.0
 40
0.0
 40
0.0
 40
0.0
 40
0.0434782608695652
 40
0.0434782608695652
 40
0.0434782608695652
 40
0.0434782608695652
 40
0.0869565217391304
 40
0.0869565217391304
 40
0.0869565217391304
 40
0.0869565217391304
 40
0.1304347826086956
 40
0.1304347826086956
 40
0.1304347826086956
 40
0.1304347826086956
 40
0.1739130434782609
 40
0.1739130434782609
 40
0.1739130434782609
 40
0.1739130434782609
 40
0.2173913043478261
 40
0.2173913043478261
 40
0.2173913043478261
 40
0.2173913043478261
 40
0.2608695652173913
 40
0.2608695652173913
 40
0.2608695652173913
 40
0.2608695652173913
 40
0.3043478260869565
 40
0.3043478260869565
 40
0.3043478260869565
 40
0.3043478260869565
 40
0.3478260869565217
 40
0.3478260869565217
 40
0.3478260869565217
 40
0.3478260869565217
 40
0.391304347826087
 40
0.391304347826087
 40
0.391304347826087
 40
0.391304347826087
 40
0.4347826086956522
 40
0.4347826086956522
 40
0.4347826086956522
 40
0.4347826086956522
 40
0.4782608695652174
 40
0.4782608695652174
 40
0.4782608695652174
 40
0.4782608695652174
 40
0.5217391304347826
 40
0.5217391304347826
 40
0.5217391304347826
 40
0.5217391304347826
 40
0.5652173913043478
 40
0.5652173913043478
 40
0.5652173913043478
 40
0.5652173913043478
 40
0.6086956521739131
 40
0.6086956521739131
 40
0.6086956521739131
 40
0.6086956521739131
 40
0.6521739130434783
 40
0.6521739130434783
 40
0.6521739130434783
 40
0.6521739130434783
 40
0.6956521739130435
 40
0.6956521739130435
 40
0.6956521739130435
 40
0.6956521739130435
 40
0.7391304347826086
 40
0.7391304347826086
 40
0.7391304347826086
 40
0.7391304347826086
 40
0.782608695652174
 40
0.782608695652174
 40
0.782608695652174
 40
0.782608695652174
 40
0.8260869565217391
 40
0.8260869565217391
 40
0.8260869565217391
 40
0.8260869565217391
 40
0.8695652173913043
 40
0.8695652173913043
 40
0.8695652173913043
 40
0.8695652173913043
 40
0.9130434782608695
 40
0.9130434782608695
 40
0.9130434782608695
 40
0.9130434782608695
 40
1.0
 40
1.0
 40
1.0
 40
1.0
 10
-2.84019
 20
1.76412
 30
0.0
 10
-2.84019
 20
1.76412
 30
0.0
 10
-2.84294
 20
1.7937
 30
0.0
 10
-2.84294
 20
1.7937
 30
0.0
 10
-2.84294
 20
1.7937
 30
0.0
 10
-2.82905
 20
1.79621
 30
0.0
 10
-2.81896
 20
1.80099
 30
0.0
 10
-2.81266
 20
1.80805
 30
0.0
 10
-2.81266
 20
1.80805
 30
0.0
 10
-2.80642
 20
1.81511
 30
0.0
 10
-2.80327
 20
1.82415
 30
0.0
 10
-2.80327
 20
1.83523
 30
0.0
 10
-2.80327
 20
1.83523
 30
0.0
 10
-2.80327
 20
1.84468
 30
0.0
 10
-2.80543
 20
1.85296
 30
0.0
 10
-2.8098
 20
1.86008
 30
0.0
 10
-2.8098
 20
1.86008
 30
0.0
 10
-2.81412
 20
1.8672
 30
0.0
 10
-2.81989
 20
1.87303
 30
0.0
 10
-2.82713
 20
1.87758
 30
0.0
 10
-2.82713
 20
1.87758
 30
0.0
 10
-2.83436
 20
1.88219
 30
0.0
 10
-2.84416
 20
1.88598
 30
0.0
 10
-2.85641
 20
1.88907
 30
0.0
 10
-2.85641
 20
1.88907
 30
0.0
 10
-2.86872
 20
1.89211
 30
0.0
 10
-2.88126
 20
1.89368
 30
0.0
 10
-2.89404
 20
1.89368
 30
0.0
 10
-2.89404
 20
1.89368
 30
0.0
 10
-2.89538
 20
1.89368
 30
0.0
 10
-2.89748
 20
1.89362
 30
0.0
 10
-2.90016
 20
1.89351
 30
0.0
 10
-2.90016
 20
1.89351
 30
0.0
 10
-2.89042
 20
1.88732
 30
0.0
 10
-2.88243
 20
1.87892
 30
0.0
 10
-2.87636
 20
1.86831
 30
0.0
 10
-2.87636
 20
1.86831
 30
0.0
 10
-2.87024
 20
1.85763
 30
0.0
 10
-2.8672
 20
1.84608
 30
0.0
 10
-2.8672
 20
1.83371
 30
0.0
 10
-2.8672
 20
1.83371
 30
0.0
 10
-2.8672
 20
1.81295
 30
0.0
 10
-2.87473
 20
1.79539
 30
0.0
 10
-2.88978
 20
1.78104
 30
0.0
 10
-2.88978
 20
1.78104
 30
0.0
 10
-2.90483
 20
1.76669
 30
0.0
 10
-2.9246
 20
1.75951
 30
0.0
 10
-2.94922
 20
1.75951
 30
0.0
 10
-2.94922
 20
1.75951
 30
0.0
 10
-2.97465
 20
1.75951
 30
0.0
 10
-2.99507
 20
1.76698
 30
0.0
 10
-3.01059
 20
1.78197
 30
0.0
 10
-3.01059
 20
1.78197
 30
0.0
 10
-3.0261
 20
1.79696
 30
0.0
 10
-3.0338
 20
1.81575
 30
0.0
 10
-3.0338
 20
1.83832
 30
0.0
 10
-3.0338
 20
1.83832
 30
0.0
 10
-3.0338
 20
1.8546
 30
0.0
 10
-3.02943
 20
1.86947
 30
0.0
 10
-3.02068
 20
1.88301
 30
0.0
 10
-3.02068
 20
1.88301
 30
0.0
 10
-3.01193
 20
1.89648
 30
0.0
 10
-2.99939
 20
1.90675
 30
0.0
 10
-2.98317
 20
1.91375
 30
0.0
 10
-2.98317
 20
1.91375
 30
0.0
 10
-2.96695
 20
1.92075
 30
0.0
 10
-2.94344
 20
1.92425
 30
0.0
 10
-2.91264
 20
1.92425
 30
0.0
 10
-2.91264
 20
1.92425
 30
0.0
 10
-2.88068
 20
1.92425
 30
0.0
 10
-2.85519
 20
1.92081
 30
0.0
 10
-2.83617
 20
1.91386
 30
0.0
 10
-2.83617
 20
1.91386
 30
0.0
 10
-2.81721
 20
1.90686
 30
0.0
 10
-2.8028
 20
1.89654
 30
0.0
 10
-2.79289
 20
1.88283
 30
0.0
 10
-2.79289
 20
1.88283
 30
0.0
 10
-2.78297
 20
1.86906
 30
0.0
 10
-2.77801
 20
1.85302
 30
0.0
 10
-2.77801
 20
1.83453
 30
0.0
 10
-2.77801
 20
1.83453
 30
0.0
 10
-2.77801
 20
1.81493
 30
0.0
 10
-2.78344
 20
1.79895
 30
0.0
 10
-2.79434
 20
1.78652
 30
0.0
 10
-2.79434
 20
1.78652
 30
0.0
 10
-2.80519
 20
1.7741
 30
0.0
 10
-2.82048
 20
1.76663
 30
0.0
 10
-2.84019
 20
1.76412
 30
0.0
  0
SPLINE
  5
8F
330
1F
100
AcDbEntity
  8
0
100
AcDbSpline
210
0.0
220
0.0
230
1.0
 70
    11
 71
     3
 72
    36
 73
    32
 74
     0
 42
0.0000000001
 43
0.0000000001
 40
0.0
 40
0.0
 40
0.0
 40
0.0
 40
0.1111111111111111
 40
0.1111111111111111
 40
0.1111111111111111
 40
0.1111111111111111
 40
0.2222222222222222
 40
0.2222222222222222
 40
0.2222222222222222
 40
0.2222222222222222
 40
0.3333333333333333
 40
0.3333333333333333
 40
0.3333333333333333
 40
0.3333333333333333
 40
0.4444444444444444
 40
0.4444444444444444
 40
0.4444444444444444
 40
0.4444444444444444
 40
0.5555555555555556
 40
0.5555555555555556
 40
0.5555555555555556
 40
0.5555555555555556
 40
0.6666666666666666
 40
0.6666666666666666
 40
0.6666666666666666
 40
0.6666666666666666
 40
0.7777777777777778
 40
0.7777777777777778
 40
0.7777777777777778
 40
0.7777777777777778
 40
1.0
 40
1.0
 40
1.0
 40
1.0
 10
-2.95079
 20
1.89006
 30
0.0
 10
-2.96841
 20
1.89006
 30
0.0
 10
-2.98247
 20
1.8854
 30
0.0
 10
-2.99279
 20
1.87601
 30
0.0
 10
-2.99279
 20
1.87601
 30
0.0
 10
-3.00318
 20
1.86656
 30
0.0
 10
-3.00837
 20
1.8553
 30
0.0
 10
-3.00837
 20
1.84206
 30
0.0
 10
-3.00837
 20
1.84206
 30
0.0
 10
-3.00837
 20
1.82841
 30
0.0
 10
-3.00277
 20
1.81651
 30
0.0
 10
-2.99163
 20
1.80636
 30
0.0
 10
-2.99163
 20
1.80636
 30
0.0
 10
-2.98043
 20
1.79621
 30
0.0
 10
-2.96596
 20
1.79113
 30
0.0
 10
-2.94823
 20
1.79113
 30
0.0
 10
-2.94823
 20
1.79113
 30
0.0
 10
-2.93224
 20
1.79113
 30
0.0
 10
-2.91929
 20
1.79597
 30
0.0
 10
-2.90932
 20
1.8056
 30
0.0
 10
-2.90932
 20
1.8056
 30
0.0
 10
-2.89934
 20
1.81522
 30
0.0
 10
-2.89439
 20
1.82706
 30
0.0
 10
-2.89439
 20
1.84118
 30
0.0
 10
-2.89439
 20
1.84118
 30
0.0
 10
-2.89439
 20
1.85547
 30
0.0
 10
-2.89934
 20
1.86714
 30
0.0
 10
-2.90932
 20
1.8763
 30
0.0
 10
-2.90932
 20
1.8763
 30
0.0
 10
-2.91929
 20
1.88551
 30
0.0
 10
-2.93312
 20
1.89006
 30
0.0
 10
-2.95079
 20
1.89006
 30
0.0
  0
SPLINE
  5
90
330
1F
100
AcDbEntity
  8
0
370
    15
100
AcDbSpline
210
0.0
220
0.0
230
1.0
 70
     8
 71
     3
 72
     8
 73
     4
 74
     0
 42
0.0000000001
 43
0.0000000001
 40
0.0
 40
0.0
 40
0.0
 40
0.0
 40
1.0
 40
1.0
 40
1.0
 40
1.0
 10
5.0096
 20
4.718
 30
0.0
 10
4.64951
 20
4.89778
 30
0.0
 10
4.25985
 20
5.01086
 30
0.0
 10
3.85946
 20
5.05177
 30
0.0
  0
SPLINE
  5
91
330
1F
100
AcDbEntity
  8
0
370
    15
100
AcDbSpline
210
0.0
220
0.0
230
1.0
 70
     8
 71
     3
 72
     8
 73
     4
 74
     0
 42
0.0000000001
 43
0.0000000001
 40
0.0
 40
0.0
 40
0.0
 40
0.0
 40
1.0
 40
1.0
 40
1.0
 40
1.0
 10
2.99307
 20
5.05177
 30
0.0
 10
2.59268
 20
5.01086
 30
0.0
 10
2.20302
 20
4.89778
 30
0.0
 10
1.84293
 20
4.718
 30
0.0
  0
SPLINE
  5
92
330
1F
100
AcDbEntity
  8
0
370
    15
100
AcDbSpline
210
0.0
220
0.0
230
1.0
 70
    24
 71
     3
 72
     8
 73
     4
 74
     0
 42
0.0000000001
 43
0.0000000001
 40
0.0
 40
0.0
 40
0.0
 40
0.0
 40
1.0
 40
1.0
 40
1.0
 40
1.0
 10
5.0096
 20
4.668
 30
0.0
 10
5.0096
 20
4.668
 30
0.0
 10
5.0096
 20
4.718
 30
0.0
 10
5.0096
 20
4.718
 30
0.0
  0
SPLINE
  5
93
330
1F
100
AcDbEntity
  8
0
370
    15
100
AcDbSpline
210
0.0
220
0.0
230
1.0
 70
    24
 71
     3
 72
     8
 73
     4
 74
     0
 42
0.0000000001
 43
0.0000000001
 40
0.0
 40
0.0
 40
0.0
 40
0.0
 40
1.0
 40
1.0
 40
1.0
 40
1.0
 10
1.84293
 20
4.718
 30
0.0
 10
1.84293
 20
4.718
 30
0.0
 10
1.84293
 20
4.668
 30
0.0
 10
1.84293
 20
4.668
 30
0.0
  0
SPLINE
  5
94
330
1F
100
AcDbEntity
  8
0
370
    15
100
AcDbSpline
210
0.0
220
0.0
230
1.0
 70
     8
 71
     3
 72
     8
 73
     4
 74
     0
 42
0.0000000001
 43
0.0000000001
 40
0.0
 40
0.0
 40
0.0
 40
0.0
 40
1.0
 40
1.0
 40
1.0
 40
1.0
 10
3.7846
 20
5.13467
 30
0.0
 10
3.7846
 20
5.09192
 30
0.0
 10
3.81694
 20
5.05611
 30
0.0
 10
3.85946
 20
5.05177
 30
0.0
  0
SPLINE
  5
95
330
1F
100
AcDbEntity
  8
0
370
    15
100
AcDbSpline
210
0.0
220
0.0
230
1.0
 70
     8
 71
     3
 72
     8
 73
     4
 74
     0
 42
0.0000000001
 43
0.0000000001
 40
0.0
 40
0.0
 40
0.0
 40
0.0
 40
1.0
 40
1.0
 40
1.0
 40
1.0
 10
2.99307
 20
5.05177
 30
0.0
 10
3.03559
 20
5.05611
 30
0.0
 10
3.06793
 20
5.09192
 30
0.0
 10
3.06793
 20
5.13467
 30
0.0
  0
SPLINE
  5
96
330
1F
100
AcDbEntity
  8
0
370
    15
100
AcDbSpline
210
0.0
220
0.0
230
1.0
 70
    24
 71
     3
 72
     8
 73
     4
 74
     0
 42
0.0000000001
 43
0.0000000001
 40
0.0
 40
0.0
 40
0.0
 40
0.0
 40
1.0
 40
1.0
 40
1.0
 40
1.0
 10
3.7846
 20
5.13467
 30
0.0
 10
3.7846
 20
5.13467
 30
0.0
 10
3.7846
 20
7.668
 30
0.0
 10
3.7846
 20
7.668
 30
0.0
  0
SPLINE
  5
97
330
1F
100
AcDbEntity
  8
0
370
    15
100
AcDbSpline
210
0.0
220
0.0
230
1.0
 70
    24
 71
     3
 72
     8
 73
     4
 74
     0
 42
0.0000000001
 43
0.0000000001
 40
0.0
 40
0.0
 40
0.0
 40
0.0
 40
1.0
 40
1.0
 40
1.0
 40
1.0
 10
3.06793
 20
7.668
 30
0.0
 10
3.06793
 20
7.668
 30
0.0
 10
3.06793
 20
5.13467
 30
0.0
 10
3.06793
 20
5.13467
 30
0.0
  0
SPLINE
  5
98
330
1F
100
AcDbEntity
  8
0
370
    15
100
AcDbSpline
210
0.0
220
0.0
230
1.0
 70
    24
 71
     3
 72
     8
 73
     4
 74
     0
 42
0.0000000001
 43
0.0000000001
 40
0.0
 40
0.0
 40
0.0
 40
0.0
 40
1.0
 40
1.0
 40
1.0
 40
1.0
 10
4.89293
 20
3.69967
 30
0.0
 10
4.89293
 20
3.69967
 30
0.0
 10
4.89293
 20
3.70133
 30
0.0
 10
4.89293
 20
3.70133
 30
0.0
  0
SPLINE
  5
99
330
1F
100
AcDbEntity
  8
0
370
    15
100
AcDbSpline
210
0.0
220
0.0
230
1.0
 70
    24
 71
     3
 72
     8
 73
     4
 74
     0
 42
0.0000000001
 43
0.0000000001
 40
0.0
 40
0.0
 40
0.0
 40
0.0
 40
1.0
 40
1.0
 40
1.0
 40
1.0
 10
1.9596
 20
3.70133
 30
0.0
 10
1.9596
 20
3.70133
 30
0.0
 10
1.9596
 20
3.69967
 30
0.0
 10
1.9596
 20
3.69967
 30
0.0
  0
SPLINE
  5
9A
330
1F
100
AcDbEntity
  8
0
370
    15
100
AcDbSpline
210
0.0
220
0.0
230
1.0
 70
    24
 71
     3
 72
     8
 73
     4
 74
     0
 42
0.0000000001
 43
0.0000000001
 40
0.0
 40
0.0
 40
0.0
 40
0.0
 40
1.0
 40
1.0
 40
1.0
 40
1.0
 10
3.72627
 20
12.43467
 30
0.0
 10
3.72627
 20
12.43467
 30
0.0
 10
3.72627
 20
12.50133
 30
0.0
 10
3.72627
 20
12.50133
 30
0.0
  0
SPLINE
  5
9B
330
1F
100
AcDbEntity
  8
0
370
    15
100
AcDbSpline
210
0.0
220
0.0
230
1.0
 70
    24
 71
     3
 72
     8
 73
     4
 74
     0
 42
0.0000000001
 43
0.0000000001
 40
0.0
 40
0.0
 40
0.0
 40
0.0
 40
1.0
 40
1.0
 40
1.0
 40
1.0
 10
3.12627
 20
12.50133
 30
0.0
 10
3.12627
 20
12.50133
 30
0.0
 10
3.12627
 20
12.43467
 30
0.0
 10
3.12627
 20
12.43467
 30
0.0
  0
SPLINE
  5
9C
330
1F
100
AcDbEntity
  8
0
370
    15
100
AcDbSpline
210
0.0
220
0.0
230
1.0
 70
    24
 71
     3
 72
     8
 73
     4
 74
     0
 42
0.0000000001
 43
0.0000000001
 40
0.0
 40
0.0
 40
0.0
 40
0.0
 40
1.0
 40
1.0
 40
1.0
 40
1.0
 10
3.69293
 20
7.668
 30
0.0
 10
3.69293
 20
7.668
 30
0.0
 10
3.69293
 20
12.43467
 30
0.0
 10
3.69293
 20
12.43467
 30
0.0
  0
SPLINE
  5
9D
330
1F
100
AcDbEntity
  8
0
370
    15
100
AcDbSpline
210
0.0
220
0.0
230
1.0
 70
    24
 71
     3
 72
     8
 73
     4
 74
     0
 42
0.0000000001
 43
0.0000000001
 40
0.0
 40
0.0
 40
0.0
 40
0.0
 40
1.0
 40
1.0
 40
1.0
 40
1.0
 10
3.1596
 20
12.43467
 30
0.0
 10
3.1596
 20
12.43467
 30
0.0
 10
3.1596
 20
7.668
 30
0.0
 10
3.1596
 20
7.668
 30
0.0
  0
SPLINE
  5
9E
330
1F
100
AcDbEntity
  8
0
370
    15
100
AcDbSpline
210
0.0
220
0.0
230
1.0
 70
     8
 71
     3
 72
    12
 73
     8
 74
     0
 42
0.0000000001
 43
0.0000000001
 40
0.0
 40
0.0
 40
0.0
 40
0.0
 40
0.3333333333333333
 40
0.3333333333333333
 40
0.3333333333333333
 40
0.3333333333333333
 40
1.0
 40
1.0
 40
1.0
 40
1.0
 10
5.02506
 20
4.6335
 30
0.0
 10
5.02538
 20
4.64254
 30
0.0
 10
5.02201
 20
4.65132
 30
0.0
 10
5.01573
 20
4.65782
 30
0.0
 10
5.01573
 20
4.65782
 30
0.0
 10
5.00944
 20
4.66433
 30
0.0
 10
5.00079
 20
4.668
 30
0.0
 10
4.99175
 20
4.668
 30
0.0
  0
SPLINE
  5
9F
330
1F
100
AcDbEntity
  8
0
370
    15
100
AcDbSpline
210
0.0
220
0.0
230
1.0
 70
     8
 71
     3
 72
    12
 73
     8
 74
     0
 42
0.0000000001
 43
0.0000000001
 40
0.0
 40
0.0
 40
0.0
 40
0.0
 40
0.3333333333333333
 40
0.3333333333333333
 40
0.3333333333333333
 40
0.3333333333333333
 40
1.0
 40
1.0
 40
1.0
 40
1.0
 10
1.86078
 20
4.668
 30
0.0
 10
1.85174
 20
4.668
 30
0.0
 10
1.84309
 20
4.66433
 30
0.0
 10
1.83681
 20
4.65782
 30
0.0
 10
1.83681
 20
4.65782
 30
0.0
 10
1.83052
 20
4.65132
 30
0.0
 10
1.82715
 20
4.64254
 30
0.0
 10
1.82747
 20
4.6335
 30
0.0
  0
SPLINE
  5
A0
330
1F
100
AcDbEntity
  8
0
370
    15
100
AcDbSpline
210
0.0
220
0.0
230
1.0
 70
    24
 71
     3
 72
     8
 73
     4
 74
     0
 42
0.0000000001
 43
0.0000000001
 40
0.0
 40
0.0
 40
0.0
 40
0.0
 40
1.0
 40
1.0
 40
1.0
 40
1.0
 10
1.82747
 20
4.6335
 30
0.0
 10
1.82747
 20
4.6335
 30
0.0
 10
1.8416
 20
4.22885
 30
0.0
 10
1.8416
 20
4.22885
 30
0.0
  0
SPLINE
  5
A1
330
1F
100
AcDbEntity
  8
0
370
    15
100
AcDbSpline
210
0.0
220
0.0
230
1.0
 70
    24
 71
     3
 72
     8
 73
     4
 74
     0
 42
0.0000000001
 43
0.0000000001
 40
0.0
 40
0.0
 40
0.0
 40
0.0
 40
1.0
 40
1.0
 40
1.0
 40
1.0
 10
5.01093
 20
4.22885
 30
0.0
 10
5.01093
 20
4.22885
 30
0.0
 10
5.02506
 20
4.6335
 30
0.0
 10
5.02506
 20
4.6335
 30
0.0
  0
SPLINE
  5
A2
330
1F
100
AcDbEntity
  8
0
370
    15
100
AcDbSpline
210
0.0
220
0.0
230
1.0
 70
     8
 71
     3
 72
     8
 73
     4
 74
     0
 42
0.0000000001
 43
0.0000000001
 40
0.0
 40
0.0
 40
0.0
 40
0.0
 40
1.0
 40
1.0
 40
1.0
 40
1.0
 10
1.8416
 20
4.22885
 30
0.0
 10
1.84386
 20
4.16402
 30
0.0
 10
1.88354
 20
4.1064
 30
0.0
 10
1.94328
 20
4.08115
 30
0.0
  0
SPLINE
  5
A3
330
1F
100
AcDbEntity
  8
0
370
    15
100
AcDbSpline
210
0.0
220
0.0
230
1.0
 70
     8
 71
     3
 72
     8
 73
     4
 74
     0
 42
0.0000000001
 43
0.0000000001
 40
0.0
 40
0.0
 40
0.0
 40
0.0
 40
1.0
 40
1.0
 40
1.0
 40
1.0
 10
4.90925
 20
4.08115
 30
0.0
 10
4.969
 20
4.1064
 30
0.0
 10
5.00867
 20
4.16402
 30
0.0
 10
5.01093
 20
4.22885
 30
0.0
  0
SPLINE
  5
A4
330
1F
100
AcDbEntity
  8
0
370
    15
100
AcDbSpline
210
0.0
220
0.0
230
1.0
 70
     8
 71
     3
 72
     8
 73
     4
 74
     0
 42
0.0000000001
 43
0.0000000001
 40
0.0
 40
0.0
 40
0.0
 40
0.0
 40
1.0
 40
1.0
 40
1.0
 40
1.0
 10
4.90925
 20
4.08115
 30
0.0
 10
4.85258
 20
4.0572
 30
0.0
 10
4.80365
 20
4.01804
 30
0.0
 10
4.76787
 20
3.968
 30
0.0
  0
SPLINE
  5
A5
330
1F
100
AcDbEntity
  8
0
370
    15
100
AcDbSpline
210
0.0
220
0.0
230
1.0
 70
     8
 71
     3
 72
     8
 73
     4
 74
     0
 42
0.0000000001
 43
0.0000000001
 40
0.0
 40
0.0
 40
0.0
 40
0.0
 40
1.0
 40
1.0
 40
1.0
 40
1.0
 10
2.08466
 20
3.968
 30
0.0
 10
2.04888
 20
4.01804
 30
0.0
 10
1.99995
 20
4.0572
 30
0.0
 10
1.94328
 20
4.08115
 30
0.0
  0
SPLINE
  5
A6
330
1F
100
AcDbEntity
  8
0
370
    15
100
AcDbSpline
210
0.0
220
0.0
230
1.0
 70
    24
 71
     3
 72
     8
 73
     4
 74
     0
 42
0.0000000001
 43
0.0000000001
 40
0.0
 40
0.0
 40
0.0
 40
0.0
 40
1.0
 40
1.0
 40
1.0
 40
1.0
 10
2.15034
 20
3.69967
 30
0.0
 10
2.15034
 20
3.69967
 30
0.0
 10
2.26066
 20
1.11819
 30
0.0
 10
2.26066
 20
1.11819
 30
0.0
  0
SPLINE
  5
A7
330
1F
100
AcDbEntity
  8
0
370
    15
100
AcDbSpline
210
0.0
220
0.0
230
1.0
 70
    24
 71
     3
 72
     8
 73
     4
 74
     0
 42
0.0000000001
 43
0.0000000001
 40
0.0
 40
0.0
 40
0.0
 40
0.0
 40
1.0
 40
1.0
 40
1.0
 40
1.0
 10
4.59187
 20
1.11819
 30
0.0
 10
4.59187
 20
1.11819
 30
0.0
 10
4.70219
 20
3.69967
 30
0.0
 10
4.70219
 20
3.69967
 30
0.0
  0
SPLINE
  5
A8
330
1F
100
AcDbEntity
  8
0
370
    15
100
AcDbSpline
210
0.0
220
0.0
230
1.0
 70
     8
 71
     3
 72
    12
 73
     8
 74
     0
 42
0.0000000001
 43
0.0000000001
 40
0.0
 40
0.0
 40
0.0
 40
0.0
 40
0.3333333333333333
 40
0.3333333333333333
 40
0.3333333333333333
 40
0.3333333333333333
 40
1.0
 40
1.0
 40
1.0
 40
1.0
 10
2.26066
 20
1.11819
 30
0.0
 10
2.28735
 20
0.4938
 30
0.0
 10
2.80131
 20
0.00133
 30
0.0
 10
3.42627
 20
0.00133
 30
0.0
 10
3.42627
 20
0.00133
 30
0.0
 10
4.05122
 20
0.00133
 30
0.0
 10
4.56518
 20
0.4938
 30
0.0
 10
4.59187
 20
1.11819
 30
0.0
  0
SPLINE
  5
A9
330
1F
100
AcDbEntity
  8
0
370
    15
100
AcDbSpline
210
0.0
220
0.0
230
1.0
 70
     8
 71
     3
 72
     8
 73
     4
 74
     0
 42
0.0000000001
 43
0.0000000001
 40
0.0
 40
0.0
 40
0.0
 40
0.0
 40
1.0
 40
1.0
 40
1.0
 40
1.0
 10
5.0135
 20
3.71293
 30
0.0
 10
5.0388
 20
3.79211
 30
0.0
 10
5.0388
 20
3.87722
 30
0.0
 10
5.0135
 20
3.9564
 30
0.0
  0
SPLINE
  5
AA
330
1F
100
AcDbEntity
  8
0
370
    15
100
AcDbSpline
210
0.0
220
0.0
230
1.0
 70
     8
 71
     3
 72
     8
 73
     4
 74
     0
 42
0.0000000001
 43
0.0000000001
 40
0.0
 40
0.0
 40
0.0
 40
0.0
 40
1.0
 40
1.0
 40
1.0
 40
1.0
 10
4.99762
 20
3.70133
 30
0.0
 10
5.00487
 20
3.70133
 30
0.0
 10
5.01129
 20
3.70602
 30
0.0
 10
5.0135
 20
3.71293
 30
0.0
  0
SPLINE
  5
AB
330
1F
100
AcDbEntity
  8
0
370
    15
100
AcDbSpline
210
0.0
220
0.0
230
1.0
 70
     8
 71
     3
 72
     8
 73
     4
 74
     0
 42
0.0000000001
 43
0.0000000001
 40
0.0
 40
0.0
 40
0.0
 40
0.0
 40
1.0
 40
1.0
 40
1.0
 40
1.0
 10
5.0135
 20
3.95641
 30
0.0
 10
5.01129
 20
3.96331
 30
0.0
 10
5.00487
 20
3.968
 30
0.0
 10
4.99762
 20
3.968
 30
0.0
  0
SPLINE
  5
AC
330
1F
100
AcDbEntity
  8
0
370
    15
100
AcDbSpline
210
0.0
220
0.0
230
1.0
 70
    24
 71
     3
 72
     8
 73
     4
 74
     0
 42
0.0000000001
 43
0.0000000001
 40
0.0
 40
0.0
 40
0.0
 40
0.0
 40
1.0
 40
1.0
 40
1.0
 40
1.0
 10
1.6823
 20
2.60133
 30
0.0
 10
1.6823
 20
2.60133
 30
0.0
 10
1.6823
 20
3.66319
 30
0.0
 10
1.6823
 20
3.66319
 30
0.0
  0
SPLINE
  5
AD
330
1F
100
AcDbEntity
  8
0
370
    15
100
AcDbSpline
210
0.0
220
0.0
230
1.0
 70
    24
 71
     3
 72
     8
 73
     4
 74
     0
 42
0.0000000001
 43
0.0000000001
 40
0.0
 40
0.0
 40
0.0
 40
0.0
 40
1.0
 40
1.0
 40
1.0
 40
1.0
 10
5.0096
 20
4.718
 30
0.0
 10
5.0096
 20
4.718
 30
0.0
 10
1.84293
 20
4.718
 30
0.0
 10
1.84293
 20
4.718
 30
0.0
  0
SPLINE
  5
AE
330
1F
100
AcDbEntity
  8
0
370
    15
100
AcDbSpline
210
0.0
220
0.0
230
1.0
 70
    24
 71
     3
 72
     8
 73
     4
 74
     0
 42
0.0000000001
 43
0.0000000001
 40
0.0
 40
0.0
 40
0.0
 40
0.0
 40
1.0
 40
1.0
 40
1.0
 40
1.0
 10
5.0096
 20
4.668
 30
0.0
 10
5.0096
 20
4.668
 30
0.0
 10
1.84293
 20
4.668
 30
0.0
 10
1.84293
 20
4.668
 30
0.0
  0
SPLINE
  5
AF
330
1F
100
AcDbEntity
  8
0
370
    15
100
AcDbSpline
210
0.0
220
0.0
230
1.0
 70
    24
 71
     3
 72
     8
 73
     4
 74
     0
 42
0.0000000001
 43
0.0000000001
 40
0.0
 40
0.0
 40
0.0
 40
0.0
 40
1.0
 40
1.0
 40
1.0
 40
1.0
 10
3.7846
 20
7.668
 30
0.0
 10
3.7846
 20
7.668
 30
0.0
 10
3.06793
 20
7.668
 30
0.0
 10
3.06793
 20
7.668
 30
0.0
  0
SPLINE
  5
B0
330
1F
100
AcDbEntity
  8
0
370
    15
100
AcDbSpline
210
0.0
220
0.0
230
1.0
 70
    24
 71
     3
 72
     8
 73
     4
 74
     0
 42
0.0000000001
 43
0.0000000001
 40
0.0
 40
0.0
 40
0.0
 40
0.0
 40
1.0
 40
1.0
 40
1.0
 40
1.0
 10
4.89293
 20
3.69967
 30
0.0
 10
4.89293
 20
3.69967
 30
0.0
 10
1.9596
 20
3.69967
 30
0.0
 10
1.9596
 20
3.69967
 30
0.0
  0
SPLINE
  5
B1
330
1F
100
AcDbEntity
  8
0
370
    15
100
AcDbSpline
210
0.0
220
0.0
230
1.0
 70
    24
 71
     3
 72
     8
 73
     4
 74
     0
 42
0.0000000001
 43
0.0000000001
 40
0.0
 40
0.0
 40
0.0
 40
0.0
 40
1.0
 40
1.0
 40
1.0
 40
1.0
 10
3.72627
 20
12.43467
 30
0.0
 10
3.72627
 20
12.43467
 30
0.0
 10
3.12627
 20
12.43467
 30
0.0
 10
3.12627
 20
12.43467
 30
0.0
  0
SPLINE
  5
B2
330
1F
100
AcDbEntity
  8
0
370
    15
100
AcDbSpline
210
0.0
220
0.0
230
1.0
 70
    24
 71
     3
 72
     8
 73
     4
 74
     0
 42
0.0000000001
 43
0.0000000001
 40
0.0
 40
0.0
 40
0.0
 40
0.0
 40
1.0
 40
1.0
 40
1.0
 40
1.0
 10
3.72627
 20
12.50133
 30
0.0
 10
3.72627
 20
12.50133
 30
0.0
 10
3.12627
 20
12.50133
 30
0.0
 10
3.12627
 20
12.50133
 30
0.0
  0
SPLINE
  5
B3
330
1F
100
AcDbEntity
  8
0
370
    15
100
AcDbSpline
210
0.0
220
0.0
230
1.0
 70
     8
 71
     3
 72
     8
 73
     4
 74
     0
 42
0.0000000001
 43
0.0000000001
 40
0.0
 40
0.0
 40
0.0
 40
0.0
 40
1.0
 40
1.0
 40
1.0
 40
1.0
 10
2.33107
 20
3.95641
 30
0.0
 10
2.31358
 20
3.87619
 30
0.0
 10
2.31358
 20
3.79314
 30
0.0
 10
2.33107
 20
3.71293
 30
0.0
  0
SPLINE
  5
B4
330
1F
100
AcDbEntity
  8
0
370
    15
100
AcDbSpline
210
0.0
220
0.0
230
1.0
 70
    24
 71
     3
 72
     8
 73
     4
 74
     0
 42
0.0000000001
 43
0.0000000001
 40
0.0
 40
0.0
 40
0.0
 40
0.0
 40
1.0
 40
1.0
 40
1.0
 40
1.0
 10
4.99762
 20
3.70133
 30
0.0
 10
4.99762
 20
3.70133
 30
0.0
 10
2.34203
 20
3.70133
 30
0.0
 10
2.34203
 20
3.70133
 30
0.0
  0
SPLINE
  5
B5
330
1F
100
AcDbEntity
  8
0
370
    15
100
AcDbSpline
210
0.0
220
0.0
230
1.0
 70
     8
 71
     3
 72
     8
 73
     4
 74
     0
 42
0.0000000001
 43
0.0000000001
 40
0.0
 40
0.0
 40
0.0
 40
0.0
 40
1.0
 40
1.0
 40
1.0
 40
1.0
 10
2.33107
 20
3.71293
 30
0.0
 10
2.33162
 20
3.707
 30
0.0
 10
2.33614
 20
3.70222
 30
0.0
 10
2.34203
 20
3.70133
 30
0.0
  0
SPLINE
  5
B6
330
1F
100
AcDbEntity
  8
0
370
    15
100
AcDbSpline
210
0.0
220
0.0
230
1.0
 70
     8
 71
     3
 72
     8
 73
     4
 74
     0
 42
0.0000000001
 43
0.0000000001
 40
0.0
 40
0.0
 40
0.0
 40
0.0
 40
1.0
 40
1.0
 40
1.0
 40
1.0
 10
2.34203
 20
3.968
 30
0.0
 10
2.33614
 20
3.96712
 30
0.0
 10
2.33162
 20
3.96233
 30
0.0
 10
2.33107
 20
3.95641
 30
0.0
  0
SPLINE
  5
B7
330
1F
100
AcDbEntity
  8
0
370
    15
100
AcDbSpline
210
0.0
220
0.0
230
1.0
 70
    24
 71
     3
 72
     8
 73
     4
 74
     0
 42
0.0000000001
 43
0.0000000001
 40
0.0
 40
0.0
 40
0.0
 40
0.0
 40
1.0
 40
1.0
 40
1.0
 40
1.0
 10
2.34203
 20
3.968
 30
0.0
 10
2.34203
 20
3.968
 30
0.0
 10
4.99762
 20
3.968
 30
0.0
 10
4.99762
 20
3.968
 30
0.0
  0
SPLINE
  5
B8
330
1F
100
AcDbEntity
  8
0
370
    15
100
AcDbSpline
210
0.0
220
0.0
230
1.0
 70
    24
 71
     3
 72
     8
 73
     4
 74
     0
 42
0.0000000001
 43
0.0000000001
 40
0.0
 40
0.0
 40
0.0
 40
0.0
 40
1.0
 40
1.0
 40
1.0
 40
1.0
 10
2.21877
 20
3.71293
 30
0.0
 10
2.21877
 20
3.71293
 30
0.0
 10
2.33107
 20
3.71293
 30
0.0
 10
2.33107
 20
3.71293
 30
0.0
  0
SPLINE
  5
B9
330
1F
100
AcDbEntity
  8
0
370
    15
100
AcDbSpline
210
0.0
220
0.0
230
1.0
 70
    24
 71
     3
 72
     8
 73
     4
 74
     0
 42
0.0000000001
 43
0.0000000001
 40
0.0
 40
0.0
 40
0.0
 40
0.0
 40
1.0
 40
1.0
 40
1.0
 40
1.0
 10
2.21877
 20
3.95641
 30
0.0
 10
2.21877
 20
3.95641
 30
0.0
 10
2.21877
 20
3.71293
 30
0.0
 10
2.21877
 20
3.71293
 30
0.0
  0
SPLINE
  5
BA
330
1F
100
AcDbEntity
  8
0
370
    15
100
AcDbSpline
210
0.0
220
0.0
230
1.0
 70
    24
 71
     3
 72
     8
 73
     4
 74
     0
 42
0.0000000001
 43
0.0000000001
 40
0.0
 40
0.0
 40
0.0
 40
0.0
 40
1.0
 40
1.0
 40
1.0
 40
1.0
 10
2.33107
 20
3.95641
 30
0.0
 10
2.33107
 20
3.95641
 30
0.0
 10
2.21877
 20
3.95641
 30
0.0
 10
2.21877
 20
3.95641
 30
0.0
  0
SPLINE
  5
BB
330
1F
100
AcDbEntity
  8
0
370
    15
100
AcDbSpline
210
0.0
220
0.0
230
1.0
 70
    24
 71
     3
 72
     8
 73
     4
 74
     0
 42
0.0000000001
 43
0.0000000001
 40
0.0
 40
0.0
 40
0.0
 40
0.0
 40
1.0
 40
1.0
 40
1.0
 40
1.0
 10
2.21877
 20
3.70133
 30
0.0
 10
2.21877
 20
3.70133
 30
0.0
 10
2.21877
 20
3.71293
 30
0.0
 10
2.21877
 20
3.71293
 30
0.0
  0
SPLINE
  5
BC
330
1F
100
AcDbEntity
  8
0
370
    15
100
AcDbSpline
210
0.0
220
0.0
230
1.0
 70
    24
 71
     3
 72
     8
 73
     4
 74
     0
 42
0.0000000001
 43
0.0000000001
 40
0.0
 40
0.0
 40
0.0
 40
0.0
 40
1.0
 40
1.0
 40
1.0
 40
1.0
 10
2.34203
 20
3.70133
 30
0.0
 10
2.34203
 20
3.70133
 30
0.0
 10
2.21877
 20
3.70133
 30
0.0
 10
2.21877
 20
3.70133
 30
0.0
  0
SPLINE
  5
BD
330
1F
100
AcDbEntity
  8
0
370
    15
100
AcDbSpline
210
0.0
220
0.0
230
1.0
 70
    24
 71
     3
 72
     8
 73
     4
 74
     0
 42
0.0000000001
 43
0.0000000001
 40
0.0
 40
0.0
 40
0.0
 40
0.0
 40
1.0
 40
1.0
 40
1.0
 40
1.0
 10
2.21877
 20
3.95641
 30
0.0
 10
2.21877
 20
3.95641
 30
0.0
 10
2.21877
 20
3.968
 30
0.0
 10
2.21877
 20
3.968
 30
0.0
  0
SPLINE
  5
BE
330
1F
100
AcDbEntity
  8
0
370
    15
100
AcDbSpline
210
0.0
220
0.0
230
1.0
 70
    24
 71
     3
 72
     8
 73
     4
 74
     0
 42
0.0000000001
 43
0.0000000001
 40
0.0
 40
0.0
 40
0.0
 40
0.0
 40
1.0
 40
1.0
 40
1.0
 40
1.0
 10
2.21877
 20
3.968
 30
0.0
 10
2.21877
 20
3.968
 30
0.0
 10
2.34203
 20
3.968
 30
0.0
 10
2.34203
 20
3.968
 30
0.0
  0
SPLINE
  5
BF
330
1F
100
AcDbEntity
  8
0
370
    15
100
AcDbSpline
210
0.0
220
0.0
230
1.0
 70
    24
 71
     3
 72
     8
 73
     4
 74
     0
 42
0.0000000001
 43
0.0000000001
 40
0.0
 40
0.0
 40
0.0
 40
0.0
 40
1.0
 40
1.0
 40
1.0
 40
1.0
 10
1.64851
 20
2.60133
 30
0.0
 10
1.64851
 20
2.60133
 30
0.0
 10
1.64851
 20
3.60133
 30
0.0
 10
1.64851
 20
3.60133
 30
0.0
  0
SPLINE
  5
C0
330
1F
100
AcDbEntity
  8
0
370
    15
100
AcDbSpline
210
0.0
220
0.0
230
1.0
 70
    24
 71
     3
 72
     8
 73
     4
 74
     0
 42
0.0000000001
 43
0.0000000001
 40
0.0
 40
0.0
 40
0.0
 40
0.0
 40
1.0
 40
1.0
 40
1.0
 40
1.0
 10
1.40453
 20
3.60133
 30
0.0
 10
1.40453
 20
3.60133
 30
0.0
 10
1.40453
 20
2.60133
 30
0.0
 10
1.40453
 20
2.60133
 30
0.0
  0
SPLINE
  5
C1
330
1F
100
AcDbEntity
  8
0
370
    15
100
AcDbSpline
210
0.0
220
0.0
230
1.0
 70
    24
 71
     3
 72
     8
 73
     4
 74
     0
 42
0.0000000001
 43
0.0000000001
 40
0.0
 40
0.0
 40
0.0
 40
0.0
 40
1.0
 40
1.0
 40
1.0
 40
1.0
 10
1.40453
 20
3.60133
 30
0.0
 10
1.40453
 20
3.60133
 30
0.0
 10
1.64851
 20
3.60133
 30
0.0
 10
1.64851
 20
3.60133
 30
0.0
  0
SPLINE
  5
C2
330
1F
100
AcDbEntity
  8
0
370
    15
100
AcDbSpline
210
0.0
220
0.0
230
1.0
 70
    24
 71
     3
 72
     8
 73
     4
 74
     0
 42
0.0000000001
 43
0.0000000001
 40
0.0
 40
0.0
 40
0.0
 40
0.0
 40
1.0
 40
1.0
 40
1.0
 40
1.0
 10
1.40453
 20
2.60133
 30
0.0
 10
1.40453
 20
2.60133
 30
0.0
 10
1.64851
 20
2.60133
 30
0.0
 10
1.64851
 20
2.60133
 30
0.0
  0
SPLINE
  5
C3
330
1F
100
AcDbEntity
  8
0
370
    15
100
AcDbSpline
210
0.0
220
0.0
230
1.0
 70
     8
 71
     3
 72
     8
 73
     4
 74
     0
 42
0.0000000001
 43
0.0000000001
 40
0.0
 40
0.0
 40
0.0
 40
0.0
 40
1.0
 40
1.0
 40
1.0
 40
1.0
 10
1.7596
 20
3.71293
 30
0.0
 10
1.70188
 20
3.71293
 30
0.0
 10
1.65368
 20
3.66891
 30
0.0
 10
1.64846
 20
3.61142
 30
0.0
  0
SPLINE
  5
C4
330
1F
100
AcDbEntity
  8
0
370
    15
100
AcDbSpline
210
0.0
220
0.0
230
1.0
 70
    24
 71
     3
 72
     8
 73
     4
 74
     0
 42
0.0000000001
 43
0.0000000001
 40
0.0
 40
0.0
 40
0.0
 40
0.0
 40
1.0
 40
1.0
 40
1.0
 40
1.0
 10
1.64851
 20
3.60133
 30
0.0
 10
1.64851
 20
3.60133
 30
0.0
 10
1.64846
 20
3.61142
 30
0.0
 10
1.64846
 20
3.61142
 30
0.0
  0
SPLINE
  5
C5
330
1F
100
AcDbEntity
  8
0
370
    15
100
AcDbSpline
210
0.0
220
0.0
230
1.0
 70
     8
 71
     3
 72
    12
 73
     8
 74
     0
 42
0.0000000001
 43
0.0000000001
 40
0.0
 40
0.0
 40
0.0
 40
0.0
 40
0.3333333333333333
 40
0.3333333333333333
 40
0.3333333333333333
 40
0.3333333333333333
 40
1.0
 40
1.0
 40
1.0
 40
1.0
 10
1.7596
 20
3.95641
 30
0.0
 10
1.66543
 20
3.95641
 30
0.0
 10
1.57511
 20
3.919
 30
0.0
 10
1.50852
 20
3.85241
 30
0.0
 10
1.50852
 20
3.85241
 30
0.0
 10
1.44194
 20
3.78582
 30
0.0
 10
1.40453
 20
3.6955
 30
0.0
 10
1.40453
 20
3.60133
 30
0.0
  0
SPLINE
  5
C6
330
1F
100
AcDbEntity
  8
0
370
    15
100
AcDbSpline
210
0.0
220
0.0
230
1.0
 70
    24
 71
     3
 72
     8
 73
     4
 74
     0
 42
0.0000000001
 43
0.0000000001
 40
0.0
 40
0.0
 40
0.0
 40
0.0
 40
1.0
 40
1.0
 40
1.0
 40
1.0
 10
1.7596
 20
3.95641
 30
0.0
 10
1.7596
 20
3.95641
 30
0.0
 10
1.7596
 20
3.71293
 30
0.0
 10
1.7596
 20
3.71293
 30
0.0
  0
SPLINE
  5
C7
330
1F
100
AcDbEntity
  8
0
370
    15
100
AcDbSpline
210
0.0
220
0.0
230
1.0
 70
    24
 71
     3
 72
     8
 73
     4
 74
     0
 42
0.0000000001
 43
0.0000000001
 40
0.0
 40
0.0
 40
0.0
 40
0.0
 40
1.0
 40
1.0
 40
1.0
 40
1.0
 10
1.7596
 20
3.71293
 30
0.0
 10
1.7596
 20
3.71293
 30
0.0
 10
2.21877
 20
3.71293
 30
0.0
 10
2.21877
 20
3.71293
 30
0.0
  0
SPLINE
  5
C8
330
1F
100
AcDbEntity
  8
0
370
    15
100
AcDbSpline
210
0.0
220
0.0
230
1.0
 70
    24
 71
     3
 72
     8
 73
     4
 74
     0
 42
0.0000000001
 43
0.0000000001
 40
0.0
 40
0.0
 40
0.0
 40
0.0
 40
1.0
 40
1.0
 40
1.0
 40
1.0
 10
2.21877
 20
3.95641
 30
0.0
 10
2.21877
 20
3.95641
 30
0.0
 10
1.7596
 20
3.95641
 30
0.0
 10
1.7596
 20
3.95641
 30
0.0
  0
SPLINE
  5
C9
330
1F
100
AcDbEntity
  8
0
370
    15
100
AcDbSpline
210
0.0
220
0.0
230
1.0
 70
     8
 71
     3
 72
     8
 73
     4
 74
     0
 42
0.0000000001
 43
0.0000000001
 40
0.0
 40
0.0
 40
0.0
 40
0.0
 40
1.0
 40
1.0
 40
1.0
 40
1.0
 10
1.7596
 20
3.70133
 30
0.0
 10
1.70821
 20
3.70133
 30
0.0
 10
1.66518
 20
3.66238
 30
0.0
 10
1.66009
 20
3.61124
 30
0.0
  0
SPLINE
  5
CA
330
1F
100
AcDbEntity
  8
0
370
    15
100
AcDbSpline
210
0.0
220
0.0
230
1.0
 70
    24
 71
     3
 72
     8
 73
     4
 74
     0
 42
0.0000000001
 43
0.0000000001
 40
0.0
 40
0.0
 40
0.0
 40
0.0
 40
1.0
 40
1.0
 40
1.0
 40
1.0
 10
1.66009
 20
3.61124
 30
0.0
 10
1.66009
 20
3.61124
 30
0.0
 10
1.66006
 20
3.6111
 30
0.0
 10
1.66006
 20
3.6111
 30
0.0
  0
SPLINE
  5
CB
330
1F
100
AcDbEntity
  8
0
370
    15
100
AcDbSpline
210
0.0
220
0.0
230
1.0
 70
     8
 71
     3
 72
    24
 73
    20
 74
     0
 42
0.0000000001
 43
0.0000000001
 40
0.0
 40
0.0
 40
0.0
 40
0.0
 40
0.1666666666666667
 40
0.1666666666666667
 40
0.1666666666666667
 40
0.1666666666666667
 40
0.3333333333333333
 40
0.3333333333333333
 40
0.3333333333333333
 40
0.3333333333333333
 40
0.5
 40
0.5
 40
0.5
 40
0.5
 40
0.6666666666666666
 40
0.6666666666666666
 40
0.6666666666666666
 40
0.6666666666666666
 40
1.0
 40
1.0
 40
1.0
 40
1.0
 10
1.66006
 20
3.6111
 30
0.0
 10
1.6598
 20
3.61109
 30
0.0
 10
1.65954
 20
3.61107
 30
0.0
 10
1.6589
 20
3.61108
 30
0.0
 10
1.6589
 20
3.61108
 30
0.0
 10
1.65826
 20
3.61109
 30
0.0
 10
1.65724
 20
3.61111
 30
0.0
 10
1.65599
 20
3.61115
 30
0.0
 10
1.65599
 20
3.61115
 30
0.0
 10
1.65475
 20
3.61119
 30
0.0
 10
1.65329
 20
3.61124
 30
0.0
 10
1.65167
 20
3.6113
 30
0.0
 10
1.65167
 20
3.6113
 30
0.0
 10
1.65079
 20
3.61133
 30
0.0
 10
1.64986
 20
3.61137
 30
0.0
 10
1.64891
 20
3.61141
 30
0.0
 10
1.64891
 20
3.61141
 30
0.0
 10
1.64876
 20
3.61141
 30
0.0
 10
1.64861
 20
3.61142
 30
0.0
 10
1.64846
 20
3.61142
 30
0.0
  0
SPLINE
  5
CC
330
1F
100
AcDbEntity
  8
0
370
    15
100
AcDbSpline
210
0.0
220
0.0
230
1.0
 70
    24
 71
     3
 72
     8
 73
     4
 74
     0
 42
0.0000000001
 43
0.0000000001
 40
0.0
 40
0.0
 40
0.0
 40
0.0
 40
1.0
 40
1.0
 40
1.0
 40
1.0
 10
1.7596
 20
3.70133
 30
0.0
 10
1.7596
 20
3.70133
 30
0.0
 10
1.7596
 20
3.71293
 30
0.0
 10
1.7596
 20
3.71293
 30
0.0
  0
SPLINE
  5
CD
330
1F
100
AcDbEntity
  8
0
370
    15
100
AcDbSpline
210
0.0
220
0.0
230
1.0
 70
     8
 71
     3
 72
    12
 73
     8
 74
     0
 42
0.0000000001
 43
0.0000000001
 40
0.0
 40
0.0
 40
0.0
 40
0.0
 40
0.3333333333333333
 40
0.3333333333333333
 40
0.3333333333333333
 40
0.3333333333333333
 40
1.0
 40
1.0
 40
1.0
 40
1.0
 10
1.66006
 20
3.6111
 30
0.0
 10
1.66006
 20
3.61105
 30
0.0
 10
1.66006
 20
3.61101
 30
0.0
 10
1.66006
 20
3.61097
 30
0.0
 10
1.66006
 20
3.61097
 30
0.0
 10
1.66007
 20
3.60776
 30
0.0
 10
1.66007
 20
3.60454
 30
0.0
 10
1.66007
 20
3.60133
 30
0.0
  0
SPLINE
  5
CE
330
1F
100
AcDbEntity
  8
0
370
    15
100
AcDbSpline
210
0.0
220
0.0
230
1.0
 70
    24
 71
     3
 72
    20
 73
    16
 74
     0
 42
0.0000000001
 43
0.0000000001
 40
0.0
 40
0.0
 40
0.0
 40
0.0
 40
0.2
 40
0.2
 40
0.2
 40
0.2
 40
0.4
 40
0.4
 40
0.4
 40
0.4
 40
0.6
 40
0.6
 40
0.6
 40
0.6
 40
1.0
 40
1.0
 40
1.0
 40
1.0
 10
1.64851
 20
3.60133
 30
0.0
 10
1.65008
 20
3.60133
 30
0.0
 10
1.65165
 20
3.60133
 30
0.0
 10
1.65304
 20
3.60133
 30
0.0
 10
1.65304
 20
3.60133
 30
0.0
 10
1.65443
 20
3.60133
 30
0.0
 10
1.65565
 20
3.60133
 30
0.0
 10
1.65668
 20
3.60133
 30
0.0
 10
1.65668
 20
3.60133
 30
0.0
 10
1.65771
 20
3.60133
 30
0.0
 10
1.65856
 20
3.60133
 30
0.0
 10
1.6591
 20
3.60133
 30
0.0
 10
1.6591
 20
3.60133
 30
0.0
 10
1.65963
 20
3.60133
 30
0.0
 10
1.65985
 20
3.60133
 30
0.0
 10
1.66007
 20
3.60133
 30
0.0
  0
SPLINE
  5
CF
330
1F
100
AcDbEntity
  8
0
370
    15
100
AcDbSpline
210
0.0
220
0.0
230
1.0
 70
    24
 71
     3
 72
     8
 73
     4
 74
     0
 42
0.0000000001
 43
0.0000000001
 40
0.0
 40
0.0
 40
0.0
 40
0.0
 40
1.0
 40
1.0
 40
1.0
 40
1.0
 10
1.39293
 20
2.60133
 30
0.0
 10
1.39293
 20
2.60133
 30
0.0
 10
1.39293
 20
3.60133
 30
0.0
 10
1.39293
 20
3.60133
 30
0.0
  0
SPLINE
  5
D0
330
1F
100
AcDbEntity
  8
0
370
    15
100
AcDbSpline
210
0.0
220
0.0
230
1.0
 70
    24
 71
     3
 72
     8
 73
     4
 74
     0
 42
0.0000000001
 43
0.0000000001
 40
0.0
 40
0.0
 40
0.0
 40
0.0
 40
1.0
 40
1.0
 40
1.0
 40
1.0
 10
1.40453
 20
3.60133
 30
0.0
 10
1.40453
 20
3.60133
 30
0.0
 10
1.39293
 20
3.60133
 30
0.0
 10
1.39293
 20
3.60133
 30
0.0
  0
SPLINE
  5
D1
330
1F
100
AcDbEntity
  8
0
370
    15
100
AcDbSpline
210
0.0
220
0.0
230
1.0
 70
    24
 71
     3
 72
     8
 73
     4
 74
     0
 42
0.0000000001
 43
0.0000000001
 40
0.0
 40
0.0
 40
0.0
 40
0.0
 40
1.0
 40
1.0
 40
1.0
 40
1.0
 10
1.40453
 20
2.60133
 30
0.0
 10
1.40453
 20
2.60133
 30
0.0
 10
1.39293
 20
2.60133
 30
0.0
 10
1.39293
 20
2.60133
 30
0.0
  0
SPLINE
  5
D2
330
1F
100
AcDbEntity
  8
0
370
    15
100
AcDbSpline
210
0.0
220
0.0
230
1.0
 70
     8
 71
     3
 72
    12
 73
     8
 74
     0
 42
0.0000000001
 43
0.0000000001
 40
0.0
 40
0.0
 40
0.0
 40
0.0
 40
0.3333333333333333
 40
0.3333333333333333
 40
0.3333333333333333
 40
0.3333333333333333
 40
1.0
 40
1.0
 40
1.0
 40
1.0
 10
1.7596
 20
3.968
 30
0.0
 10
1.66235
 20
3.968
 30
0.0
 10
1.56909
 20
3.92937
 30
0.0
 10
1.50033
 20
3.86061
 30
0.0
 10
1.50033
 20
3.86061
 30
0.0
 10
1.43156
 20
3.79184
 30
0.0
 10
1.39293
 20
3.69858
 30
0.0
 10
1.39293
 20
3.60133
 30
0.0
  0
SPLINE
  5
D3
330
1F
100
AcDbEntity
  8
0
370
    15
100
AcDbSpline
210
0.0
220
0.0
230
1.0
 70
    24
 71
     3
 72
     8
 73
     4
 74
     0
 42
0.0000000001
 43
0.0000000001
 40
0.0
 40
0.0
 40
0.0
 40
0.0
 40
1.0
 40
1.0
 40
1.0
 40
1.0
 10
1.7596
 20
3.95641
 30
0.0
 10
1.7596
 20
3.95641
 30
0.0
 10
1.7596
 20
3.968
 30
0.0
 10
1.7596
 20
3.968
 30
0.0
  0
SPLINE
  5
D4
330
1F
100
AcDbEntity
  8
0
370
    15
100
AcDbSpline
210
0.0
220
0.0
230
1.0
 70
    24
 71
     3
 72
     8
 73
     4
 74
     0
 42
0.0000000001
 43
0.0000000001
 40
0.0
 40
0.0
 40
0.0
 40
0.0
 40
1.0
 40
1.0
 40
1.0
 40
1.0
 10
1.7596
 20
3.968
 30
0.0
 10
1.7596
 20
3.968
 30
0.0
 10
2.21877
 20
3.968
 30
0.0
 10
2.21877
 20
3.968
 30
0.0
  0
SPLINE
  5
D5
330
1F
100
AcDbEntity
  8
0
370
    15
100
AcDbSpline
210
0.0
220
0.0
230
1.0
 70
    24
 71
     3
 72
     8
 73
     4
 74
     0
 42
0.0000000001
 43
0.0000000001
 40
0.0
 40
0.0
 40
0.0
 40
0.0
 40
1.0
 40
1.0
 40
1.0
 40
1.0
 10
2.21877
 20
3.70133
 30
0.0
 10
2.21877
 20
3.70133
 30
0.0
 10
1.7596
 20
3.70133
 30
0.0
 10
1.7596
 20
3.70133
 30
0.0
  0
SPLINE
  5
D6
330
1F
100
AcDbEntity
  8
0
370
    15
100
AcDbSpline
210
0.0
220
0.0
230
1.0
 70
    24
 71
     3
 72
     8
 73
     4
 74
     0
 42
0.0000000001
 43
0.0000000001
 40
0.0
 40
0.0
 40
0.0
 40
0.0
 40
1.0
 40
1.0
 40
1.0
 40
1.0
 10
1.66007
 20
3.60133
 30
0.0
 10
1.66007
 20
3.60133
 30
0.0
 10
1.66007
 20
2.60133
 30
0.0
 10
1.66007
 20
2.60133
 30
0.0
  0
SPLINE
  5
D7
330
1F
100
AcDbEntity
  8
0
370
    15
100
AcDbSpline
210
0.0
220
0.0
230
1.0
 70
    24
 71
     3
 72
     8
 73
     4
 74
     0
 42
0.0000000001
 43
0.0000000001
 40
0.0
 40
0.0
 40
0.0
 40
0.0
 40
1.0
 40
1.0
 40
1.0
 40
1.0
 10
1.66007
 20
2.60133
 30
0.0
 10
1.66007
 20
2.60133
 30
0.0
 10
1.64851
 20
2.60133
 30
0.0
 10
1.64851
 20
2.60133
 30
0.0
  0
SPLINE
  5
D8
330
1F
100
AcDbEntity
  8
0
370
    15
100
AcDbSpline
210
0.0
220
0.0
230
1.0
 70
    24
 71
     3
 72
     8
 73
     4
 74
     0
 42
0.0000000001
 43
0.0000000001
 40
0.0
 40
0.0
 40
0.0
 40
0.0
 40
1.0
 40
1.0
 40
1.0
 40
1.0
 10
1.6823
 20
2.60133
 30
0.0
 10
1.6823
 20
2.60133
 30
0.0
 10
1.66007
 20
2.60133
 30
0.0
 10
1.66007
 20
2.60133
 30
0.0
  0
SPLINE
  5
D9
330
1F
100
AcDbEntity
  8
0
370
    15
100
AcDbSpline
210
0.0
220
0.0
230
1.0
 70
    24
 71
     3
 72
     8
 73
     4
 74
     0
 42
0.0000000001
 43
0.0000000001
 40
0.0
 40
0.0
 40
0.0
 40
0.0
 40
1.0
 40
1.0
 40
1.0
 40
1.0
 10
1.41689
 20
3.7317
 30
0.0
 10
1.41689
 20
3.7317
 30
0.0
 10
1.4091
 20
3.73467
 30
0.0
 10
1.4091
 20
3.73467
 30
0.0
  0
SPLINE
  5
DA
330
1F
100
AcDbEntity
  8
0
370
    15
100
AcDbSpline
210
0.0
220
0.0
230
1.0
 70
     8
 71
     3
 72
    24
 73
    20
 74
     0
 42
0.0000000001
 43
0.0000000001
 40
0.0
 40
0.0
 40
0.0
 40
0.0
 40
0.1666666666666667
 40
0.1666666666666667
 40
0.1666666666666667
 40
0.1666666666666667
 40
0.3333333333333333
 40
0.3333333333333333
 40
0.3333333333333333
 40
0.3333333333333333
 40
0.5
 40
0.5
 40
0.5
 40
0.5
 40
0.6666666666666666
 40
0.6666666666666666
 40
0.6666666666666666
 40
0.6666666666666666
 40
1.0
 40
1.0
 40
1.0
 40
1.0
 10
1.4091
 20
3.73467
 30
0.0
 10
1.41484
 20
3.74724
 30
0.0
 10
1.42059
 20
3.75982
 30
0.0
 10
1.42689
 20
3.77129
 30
0.0
 10
1.42689
 20
3.77129
 30
0.0
 10
1.43289
 20
3.7822
 30
0.0
 10
1.43941
 20
3.79212
 30
0.0
 10
1.44557
 20
3.80079
 30
0.0
 10
1.44557
 20
3.80079
 30
0.0
 10
1.45063
 20
3.8079
 30
0.0
 10
1.45545
 20
3.81418
 30
0.0
 10
1.45978
 20
3.8195
 30
0.0
 10
1.45978
 20
3.8195
 30
0.0
 10
1.46363
 20
3.82424
 30
0.0
 10
1.4671
 20
3.82822
 30
0.0
 10
1.46921
 20
3.83062
 30
0.0
 10
1.46921
 20
3.83062
 30
0.0
 10
1.47132
 20
3.83301
 30
0.0
 10
1.47209
 20
3.83384
 30
0.0
 10
1.47285
 20
3.83467
 30
0.0
  0
SPLINE
  5
DB
330
1F
100
AcDbEntity
  8
0
370
    15
100
AcDbSpline
210
0.0
220
0.0
230
1.0
 70
     8
 71
     3
 72
     8
 73
     4
 74
     0
 42
0.0000000001
 43
0.0000000001
 40
0.0
 40
0.0
 40
0.0
 40
0.0
 40
1.0
 40
1.0
 40
1.0
 40
1.0
 10
1.47285
 20
3.83467
 30
0.0
 10
1.47531
 20
3.83467
 30
0.0
 10
1.47764
 20
3.83575
 30
0.0
 10
1.47923
 20
3.83763
 30
0.0
  0
SPLINE
  5
DC
330
1F
100
AcDbEntity
  8
0
370
    15
100
AcDbSpline
210
0.0
220
0.0
230
1.0
 70
    24
 71
     3
 72
     8
 73
     4
 74
     0
 42
0.0000000001
 43
0.0000000001
 40
0.0
 40
0.0
 40
0.0
 40
0.0
 40
1.0
 40
1.0
 40
1.0
 40
1.0
 10
1.3846
 20
2.60133
 30
0.0
 10
1.3846
 20
2.60133
 30
0.0
 10
1.3846
 20
3.60133
 30
0.0
 10
1.3846
 20
3.60133
 30
0.0
  0
SPLINE
  5
DD
330
1F
100
AcDbEntity
  8
0
370
    15
100
AcDbSpline
210
0.0
220
0.0
230
1.0
 70
    24
 71
     3
 72
     8
 73
     4
 74
     0
 42
0.0000000001
 43
0.0000000001
 40
0.0
 40
0.0
 40
0.0
 40
0.0
 40
1.0
 40
1.0
 40
1.0
 40
1.0
 10
1.39293
 20
3.60133
 30
0.0
 10
1.39293
 20
3.60133
 30
0.0
 10
1.3846
 20
3.60133
 30
0.0
 10
1.3846
 20
3.60133
 30
0.0
  0
SPLINE
  5
DE
330
1F
100
AcDbEntity
  8
0
370
    15
100
AcDbSpline
210
0.0
220
0.0
230
1.0
 70
    24
 71
     3
 72
     8
 73
     4
 74
     0
 42
0.0000000001
 43
0.0000000001
 40
0.0
 40
0.0
 40
0.0
 40
0.0
 40
1.0
 40
1.0
 40
1.0
 40
1.0
 10
1.39293
 20
2.60133
 30
0.0
 10
1.39293
 20
2.60133
 30
0.0
 10
1.3846
 20
2.60133
 30
0.0
 10
1.3846
 20
2.60133
 30
0.0
  0
SPLINE
  5
DF
330
1F
100
AcDbEntity
  8
0
370
    15
100
AcDbSpline
210
0.0
220
0.0
230
1.0
 70
     8
 71
     3
 72
     8
 73
     4
 74
     0
 42
0.0000000001
 43
0.0000000001
 40
0.0
 40
0.0
 40
0.0
 40
0.0
 40
1.0
 40
1.0
 40
1.0
 40
1.0
 10
1.4091
 20
3.73467
 30
0.0
 10
1.3929
 20
3.69208
 30
0.0
 10
1.3846
 20
3.6469
 30
0.0
 10
1.3846
 20
3.60133
 30
0.0
  0
SPLINE
  5
E0
330
1F
100
AcDbEntity
  8
0
370
    15
100
AcDbSpline
210
0.0
220
0.0
230
1.0
 70
    24
 71
     3
 72
     8
 73
     4
 74
     0
 42
0.0000000001
 43
0.0000000001
 40
0.0
 40
0.0
 40
0.0
 40
0.0
 40
1.0
 40
1.0
 40
1.0
 40
1.0
 10
1.4091
 20
3.73467
 30
0.0
 10
1.4091
 20
3.73467
 30
0.0
 10
1.32627
 20
3.73467
 30
0.0
 10
1.32627
 20
3.73467
 30
0.0
  0
SPLINE
  5
E1
330
1F
100
AcDbEntity
  8
0
370
    15
100
AcDbSpline
210
0.0
220
0.0
230
1.0
 70
    24
 71
     3
 72
     8
 73
     4
 74
     0
 42
0.0000000001
 43
0.0000000001
 40
0.0
 40
0.0
 40
0.0
 40
0.0
 40
1.0
 40
1.0
 40
1.0
 40
1.0
 10
1.32627
 20
2.60133
 30
0.0
 10
1.32627
 20
2.60133
 30
0.0
 10
1.32627
 20
3.73467
 30
0.0
 10
1.32627
 20
3.73467
 30
0.0
  0
SPLINE
  5
E2
330
1F
100
AcDbEntity
  8
0
370
    15
100
AcDbSpline
210
0.0
220
0.0
230
1.0
 70
    24
 71
     3
 72
     8
 73
     4
 74
     0
 42
0.0000000001
 43
0.0000000001
 40
0.0
 40
0.0
 40
0.0
 40
0.0
 40
1.0
 40
1.0
 40
1.0
 40
1.0
 10
1.32627
 20
2.60133
 30
0.0
 10
1.32627
 20
2.60133
 30
0.0
 10
1.3846
 20
2.60133
 30
0.0
 10
1.3846
 20
2.60133
 30
0.0
  0
SPLINE
  5
E3
330
1F
100
AcDbEntity
  8
0
370
    15
100
AcDbSpline
210
0.0
220
0.0
230
1.0
 70
    24
 71
     3
 72
     8
 73
     4
 74
     0
 42
0.0000000001
 43
0.0000000001
 40
0.0
 40
0.0
 40
0.0
 40
0.0
 40
1.0
 40
1.0
 40
1.0
 40
1.0
 10
1.32627
 20
3.83467
 30
0.0
 10
1.32627
 20
3.83467
 30
0.0
 10
1.47285
 20
3.83467
 30
0.0
 10
1.47285
 20
3.83467
 30
0.0
  0
SPLINE
  5
E4
330
1F
100
AcDbEntity
  8
0
370
    15
100
AcDbSpline
210
0.0
220
0.0
230
1.0
 70
    24
 71
     3
 72
     8
 73
     4
 74
     0
 42
0.0000000001
 43
0.0000000001
 40
0.0
 40
0.0
 40
0.0
 40
0.0
 40
1.0
 40
1.0
 40
1.0
 40
1.0
 10
1.32627
 20
3.73467
 30
0.0
 10
1.32627
 20
3.73467
 30
0.0
 10
1.32627
 20
3.83467
 30
0.0
 10
1.32627
 20
3.83467
 30
0.0
  0
SPLINE
  5
E5
330
1F
100
AcDbEntity
  8
0
370
    15
100
AcDbSpline
210
0.0
220
0.0
230
1.0
 70
     8
 71
     3
 72
    16
 73
    12
 74
     0
 42
0.0000000001
 43
0.0000000001
 40
0.0
 40
0.0
 40
0.0
 40
0.0
 40
0.25
 40
0.25
 40
0.25
 40
0.25
 40
0.5
 40
0.5
 40
0.5
 40
0.5
 40
1.0
 40
1.0
 40
1.0
 40
1.0
 10
1.41689
 20
3.7317
 30
0.0
 10
1.42221
 20
3.74434
 30
0.0
 10
1.42753
 20
3.75698
 30
0.0
 10
1.43361
 20
3.76918
 30
0.0
 10
1.43361
 20
3.76918
 30
0.0
 10
1.4397
 20
3.7814
 30
0.0
 10
1.44655
 20
3.79317
 30
0.0
 10
1.45211
 20
3.80108
 30
0.0
 10
1.45211
 20
3.80108
 30
0.0
 10
1.45244
 20
3.80153
 30
0.0
 10
1.45275
 20
3.80198
 30
0.0
 10
1.45307
 20
3.80242
 30
0.0
  0
SPLINE
  5
E6
330
1F
100
AcDbEntity
  8
0
370
    15
100
AcDbSpline
210
0.0
220
0.0
230
1.0
 70
    24
 71
     3
 72
     8
 73
     4
 74
     0
 42
0.0000000001
 43
0.0000000001
 40
0.0
 40
0.0
 40
0.0
 40
0.0
 40
1.0
 40
1.0
 40
1.0
 40
1.0
 10
1.31627
 20
3.63542
 30
0.0
 10
1.31627
 20
3.63542
 30
0.0
 10
1.31627
 20
2.60133
 30
0.0
 10
1.31627
 20
2.60133
 30
0.0
  0
SPLINE
  5
E7
330
1F
100
AcDbEntity
  8
0
370
    15
100
AcDbSpline
210
0.0
220
0.0
230
1.0
 70
    24
 71
     3
 72
     8
 73
     4
 74
     0
 42
0.0000000001
 43
0.0000000001
 40
0.0
 40
0.0
 40
0.0
 40
0.0
 40
1.0
 40
1.0
 40
1.0
 40
1.0
 10
1.31627
 20
3.63542
 30
0.0
 10
1.31627
 20
3.63542
 30
0.0
 10
1.32627
 20
3.63533
 30
0.0
 10
1.32627
 20
3.63533
 30
0.0
  0
SPLINE
  5
E8
330
1F
100
AcDbEntity
  8
0
370
    15
100
AcDbSpline
210
0.0
220
0.0
230
1.0
 70
    24
 71
     3
 72
     8
 73
     4
 74
     0
 42
0.0000000001
 43
0.0000000001
 40
0.0
 40
0.0
 40
0.0
 40
0.0
 40
1.0
 40
1.0
 40
1.0
 40
1.0
 10
1.31627
 20
2.60133
 30
0.0
 10
1.31627
 20
2.60133
 30
0.0
 10
1.32627
 20
2.60133
 30
0.0
 10
1.32627
 20
2.60133
 30
0.0
  0
SPLINE
  5
E9
330
1F
100
AcDbEntity
  8
0
 62
     8
370
    15
100
AcDbSpline
210
0.0
220
0.0
230
1.0
 70
    24
 71
     3
 72
     8
 73
     4
 74
     0
 42
0.0000000001
 43
0.0000000001
 40
0.0
 40
0.0
 40
0.0
 40
0.0
 40
1.0
 40
1.0
 40
1.0
 40
1.0
 10
3.85946
 20
5.05177
 30
0.0
 10
3.85946
 20
5.05177
 30
0.0
 10
2.99307
 20
5.05177
 30
0.0
 10
2.99307
 20
5.05177
 30
0.0
  0
SPLINE
  5
EA
330
1F
100
AcDbEntity
  8
0
 62
     8
370
    15
100
AcDbSpline
210
0.0
220
0.0
230
1.0
 70
    24
 71
     3
 72
     8
 73
     4
 74
     0
 42
0.0000000001
 43
0.0000000001
 40
0.0
 40
0.0
 40
0.0
 40
0.0
 40
1.0
 40
1.0
 40
1.0
 40
1.0
 10
3.7846
 20
5.13467
 30
0.0
 10
3.7846
 20
5.13467
 30
0.0
 10
3.06793
 20
5.13467
 30
0.0
 10
3.06793
 20
5.13467
 30
0.0
  0
SPLINE
  5
EB
330
1F
100
AcDbEntity
  8
0
 62
     8
370
    15
100
AcDbSpline
210
0.0
220
0.0
230
1.0
 70
    24
 71
     3
 72
     8
 73
     4
 74
     0
 42
0.0000000001
 43
0.0000000001
 40
0.0
 40
0.0
 40
0.0
 40
0.0
 40
1.0
 40
1.0
 40
1.0
 40
1.0
 10
3.49322
 20
4.6335
 30
0.0
 10
3.49322
 20
4.6335
 30
0.0
 10
1.82747
 20
4.6335
 30
0.0
 10
1.82747
 20
4.6335
 30
0.0
  0
SPLINE
  5
EC
330
1F
100
AcDbEntity
  8
0
 62
     8
370
    15
100
AcDbSpline
210
0.0
220
0.0
230
1.0
 70
    24
 71
     3
 72
     8
 73
     4
 74
     0
 42
0.0000000001
 43
0.0000000001
 40
0.0
 40
0.0
 40
0.0
 40
0.0
 40
1.0
 40
1.0
 40
1.0
 40
1.0
 10
5.02506
 20
4.6335
 30
0.0
 10
5.02506
 20
4.6335
 30
0.0
 10
3.49322
 20
4.6335
 30
0.0
 10
3.49322
 20
4.6335
 30
0.0
  0
SPLINE
  5
ED
330
1F
100
AcDbEntity
  8
0
 62
     8
370
    15
100
AcDbSpline
210
0.0
220
0.0
230
1.0
 70
    24
 71
     3
 72
     8
 73
     4
 74
     0
 42
0.0000000001
 43
0.0000000001
 40
0.0
 40
0.0
 40
0.0
 40
0.0
 40
1.0
 40
1.0
 40
1.0
 40
1.0
 10
3.49263
 20
4.22885
 30
0.0
 10
3.49263
 20
4.22885
 30
0.0
 10
5.01093
 20
4.22885
 30
0.0
 10
5.01093
 20
4.22885
 30
0.0
  0
SPLINE
  5
EE
330
1F
100
AcDbEntity
  8
0
 62
     8
370
    15
100
AcDbSpline
210
0.0
220
0.0
230
1.0
 70
    24
 71
     3
 72
     8
 73
     4
 74
     0
 42
0.0000000001
 43
0.0000000001
 40
0.0
 40
0.0
 40
0.0
 40
0.0
 40
1.0
 40
1.0
 40
1.0
 40
1.0
 10
1.8416
 20
4.22885
 30
0.0
 10
1.8416
 20
4.22885
 30
0.0
 10
3.49263
 20
4.22885
 30
0.0
 10
3.49263
 20
4.22885
 30
0.0
  0
SPLINE
  5
EF
330
1F
100
AcDbEntity
  8
0
 62
     8
370
    15
100
AcDbSpline
210
0.0
220
0.0
230
1.0
 70
    24
 71
     3
 72
     8
 73
     4
 74
     0
 42
0.0000000001
 43
0.0000000001
 40
0.0
 40
0.0
 40
0.0
 40
0.0
 40
1.0
 40
1.0
 40
1.0
 40
1.0
 10
1.94328
 20
4.08115
 30
0.0
 10
1.94328
 20
4.08115
 30
0.0
 10
4.90925
 20
4.08115
 30
0.0
 10
4.90925
 20
4.08115
 30
0.0
  0
SPLINE
  5
F0
330
1F
100
AcDbEntity
  8
0
 62
     8
370
    15
100
AcDbSpline
210
0.0
220
0.0
230
1.0
 70
    24
 71
     3
 72
     8
 73
     4
 74
     0
 42
0.0000000001
 43
0.0000000001
 40
0.0
 40
0.0
 40
0.0
 40
0.0
 40
1.0
 40
1.0
 40
1.0
 40
1.0
 10
3.47508
 20
1.11819
 30
0.0
 10
3.47508
 20
1.11819
 30
0.0
 10
2.26066
 20
1.11819
 30
0.0
 10
2.26066
 20
1.11819
 30
0.0
  0
SPLINE
  5
F1
330
1F
100
AcDbEntity
  8
0
 62
     8
370
    15
100
AcDbSpline
210
0.0
220
0.0
230
1.0
 70
    24
 71
     3
 72
     8
 73
     4
 74
     0
 42
0.0000000001
 43
0.0000000001
 40
0.0
 40
0.0
 40
0.0
 40
0.0
 40
1.0
 40
1.0
 40
1.0
 40
1.0
 10
4.59187
 20
1.11819
 30
0.0
 10
4.59187
 20
1.11819
 30
0.0
 10
3.47508
 20
1.11819
 30
0.0
 10
3.47508
 20
1.11819
 30
0.0
  0
SPLINE
  5
F2
330
1F
100
AcDbEntity
  8
0
 62
     8
370
    15
100
AcDbSpline
210
0.0
220
0.0
230
1.0
 70
    24
 71
     3
 72
     8
 73
     4
 74
     0
 42
0.0000000001
 43
0.0000000001
 40
0.0
 40
0.0
 40
0.0
 40
0.0
 40
1.0
 40
1.0
 40
1.0
 40
1.0
 10
2.33107
 20
3.71293
 30
0.0
 10
2.33107
 20
3.71293
 30
0.0
 10
5.0135
 20
3.71293
 30
0.0
 10
5.0135
 20
3.71293
 30
0.0
  0
SPLINE
  5
F3
330
1F
100
AcDbEntity
  8
0
 62
     8
370
    15
100
AcDbSpline
210
0.0
220
0.0
230
1.0
 70
    24
 71
     3
 72
     8
 73
     4
 74
     0
 42
0.0000000001
 43
0.0000000001
 40
0.0
 40
0.0
 40
0.0
 40
0.0
 40
1.0
 40
1.0
 40
1.0
 40
1.0
 10
5.0135
 20
3.95641
 30
0.0
 10
5.0135
 20
3.95641
 30
0.0
 10
2.33107
 20
3.95641
 30
0.0
 10
2.33107
 20
3.95641
 30
0.0
  0
SPLINE
  5
F4
330
1F
100
AcDbEntity
  8
0
100
AcDbSpline
210
0.0
220
0.0
230
1.0
 70
    27
 71
     3
 72
    12
 73
     8
 74
     0
 42
0.0000000001
 43
0.0000000001
 40
0.0
 40
0.0
 40
0.0
 40
0.0
 40
0.3333333333333333
 40
0.3333333333333333
 40
0.3333333333333333
 40
0.3333333333333333
 40
1.0
 40
1.0
 40
1.0
 40
1.0
 10
1.32627
 20
-0.99867
 30
0.0
 10
1.32627
 20
-0.99867
 30
0.0
 10
1.65647
 20
-0.94787
 30
0.0
 10
1.65647
 20
-0.94787
 30
0.0
 10
1.65647
 20
-0.94787
 30
0.0
 10
1.65647
 20
-0.94787
 30
0.0
 10
1.32627
 20
-0.99867
 30
0.0
 10
1.32627
 20
-0.99867
 30
0.0
  0
SPLINE
  5
F5
330
1F
100
AcDbEntity
  8
0
100
AcDbSpline
210
0.0
220
0.0
230
1.0
 70
     8
 71
     3
 72
    12
 73
     8
 74
     0
 42
0.0000000001
 43
0.0000000001
 40
0.0
 40
0.0
 40
0.0
 40
0.0
 40
0.3333333333333333
 40
0.3333333333333333
 40
0.3333333333333333
 40
0.3333333333333333
 40
1.0
 40
1.0
 40
1.0
 40
1.0
 10
1.65647
 20
-0.94787
 30
0.0
 10
1.65647
 20
-0.94787
 30
0.0
 10
1.65647
 20
-1.04947
 30
0.0
 10
1.65647
 20
-1.04947
 30
0.0
 10
1.65647
 20
-1.04947
 30
0.0
 10
1.65647
 20
-1.04947
 30
0.0
 10
1.32627
 20
-0.99867
 30
0.0
 10
1.32627
 20
-0.99867
 30
0.0
  0
SPLINE
  5
F6
330
1F
100
AcDbEntity
  8
0
370
     9
100
AcDbSpline
210
0.0
220
0.0
230
1.0
 70
    24
 71
     3
 72
     8
 73
     4
 74
     0
 42
0.0000000001
 43
0.0000000001
 40
0.0
 40
0.0
 40
0.0
 40
0.0
 40
1.0
 40
1.0
 40
1.0
 40
1.0
 10
1.32627
 20
-0.99867
 30
0.0
 10
1.32627
 20
-0.99867
 30
0.0
 10
1.65647
 20
-0.94787
 30
0.0
 10
1.65647
 20
-0.94787
 30
0.0
  0
SPLINE
  5
F7
330
1F
100
AcDbEntity
  8
0
370
     9
100
AcDbSpline
210
0.0
220
0.0
230
1.0
 70
     8
 71
     3
 72
    12
 73
     8
 74
     0
 42
0.0000000001
 43
0.0000000001
 40
0.0
 40
0.0
 40
0.0
 40
0.0
 40
0.3333333333333333
 40
0.3333333333333333
 40
0.3333333333333333
 40
0.3333333333333333
 40
1.0
 40
1.0
 40
1.0
 40
1.0
 10
1.65647
 20
-0.94787
 30
0.0
 10
1.65647
 20
-0.94787
 30
0.0
 10
1.65647
 20
-1.04947
 30
0.0
 10
1.65647
 20
-1.04947
 30
0.0
 10
1.65647
 20
-1.04947
 30
0.0
 10
1.65647
 20
-1.04947
 30
0.0
 10
1.32627
 20
-0.99867
 30
0.0
 10
1.32627
 20
-0.99867
 30
0.0
  0
SPLINE
  5
F8
330
1F
100
AcDbEntity
  8
0
100
AcDbSpline
210
0.0
220
0.0
230
1.0
 70
    27
 71
     3
 72
    12
 73
     8
 74
     0
 42
0.0000000001
 43
0.0000000001
 40
0.0
 40
0.0
 40
0.0
 40
0.0
 40
0.3333333333333333
 40
0.3333333333333333
 40
0.3333333333333333
 40
0.3333333333333333
 40
1.0
 40
1.0
 40
1.0
 40
1.0
 10
5.03248
 20
-0.99867
 30
0.0
 10
5.03248
 20
-0.99867
 30
0.0
 10
4.70228
 20
-1.04947
 30
0.0
 10
4.70228
 20
-1.04947
 30
0.0
 10
4.70228
 20
-1.04947
 30
0.0
 10
4.70228
 20
-1.04947
 30
0.0
 10
5.03248
 20
-0.99867
 30
0.0
 10
5.03248
 20
-0.99867
 30
0.0
  0
SPLINE
  5
F9
330
1F
100
AcDbEntity
  8
0
100
AcDbSpline
210
0.0
220
0.0
230
1.0
 70
     8
 71
     3
 72
    12
 73
     8
 74
     0
 42
0.0000000001
 43
0.0000000001
 40
0.0
 40
0.0
 40
0.0
 40
0.0
 40
0.3333333333333333
 40
0.3333333333333333
 40
0.3333333333333333
 40
0.3333333333333333
 40
1.0
 40
1.0
 40
1.0
 40
1.0
 10
4.70228
 20
-1.04947
 30
0.0
 10
4.70228
 20
-1.04947
 30
0.0
 10
4.70228
 20
-0.94787
 30
0.0
 10
4.70228
 20
-0.94787
 30
0.0
 10
4.70228
 20
-0.94787
 30
0.0
 10
4.70228
 20
-0.94787
 30
0.0
 10
5.03248
 20
-0.99867
 30
0.0
 10
5.03248
 20
-0.99867
 30
0.0
  0
SPLINE
  5
FA
330
1F
100
AcDbEntity
  8
0
370
     9
100
AcDbSpline
210
0.0
220
0.0
230
1.0
 70
    24
 71
     3
 72
     8
 73
     4
 74
     0
 42
0.0000000001
 43
0.0000000001
 40
0.0
 40
0.0
 40
0.0
 40
0.0
 40
1.0
 40
1.0
 40
1.0
 40
1.0
 10
5.03248
 20
-0.99867
 30
0.0
 10
5.03248
 20
-0.99867
 30
0.0
 10
4.70228
 20
-1.04947
 30
0.0
 10
4.70228
 20
-1.04947
 30
0.0
  0
SPLINE
  5
FB
330
1F
100
AcDbEntity
  8
0
370
     9
100
AcDbSpline
210
0.0
220
0.0
230
1.0
 70
     8
 71
     3
 72
    12
 73
     8
 74
     0
 42
0.0000000001
 43
0.0000000001
 40
0.0
 40
0.0
 40
0.0
 40
0.0
 40
0.3333333333333333
 40
0.3333333333333333
 40
0.3333333333333333
 40
0.3333333333333333
 40
1.0
 40
1.0
 40
1.0
 40
1.0
 10
4.70228
 20
-1.04947
 30
0.0
 10
4.70228
 20
-1.04947
 30
0.0
 10
4.70228
 20
-0.94787
 30
0.0
 10
4.70228
 20
-0.94787
 30
0.0
 10
4.70228
 20
-0.94787
 30
0.0
 10
4.70228
 20
-0.94787
 30
0.0
 10
5.03248
 20
-0.99867
 30
0.0
 10
5.03248
 20
-0.99867
 30
0.0
  0
SPLINE
  5
FC
330
1F
100
AcDbEntity
  8
0
370
     9
100
AcDbSpline
210
0.0
220
0.0
230
1.0
 70
    24
 71
     3
 72
     8
 73
     4
 74
     0
 42
0.0000000001
 43
0.0000000001
 40
0.0
 40
0.0
 40
0.0
 40
0.0
 40
1.0
 40
1.0
 40
1.0
 40
1.0
 10
1.32627
 20
2.50133
 30
0.0
 10
1.32627
 20
2.50133
 30
0.0
 10
1.32627
 20
-1.09867
 30
0.0
 10
1.32627
 20
-1.09867
 30
0.0
  0
SPLINE
  5
FD
330
1F
100
AcDbEntity
  8
0
370
     9
100
AcDbSpline
210
0.0
220
0.0
230
1.0
 70
    24
 71
     3
 72
     8
 73
     4
 74
     0
 42
0.0000000001
 43
0.0000000001
 40
0.0
 40
0.0
 40
0.0
 40
0.0
 40
1.0
 40
1.0
 40
1.0
 40
1.0
 10
5.03248
 20
3.73467
 30
0.0
 10
5.03248
 20
3.73467
 30
0.0
 10
5.03248
 20
-1.09867
 30
0.0
 10
5.03248
 20
-1.09867
 30
0.0
  0
SPLINE
  5
FE
330
1F
100
AcDbEntity
  8
0
370
     9
100
AcDbSpline
210
0.0
220
0.0
230
1.0
 70
    24
 71
     3
 72
     8
 73
     4
 74
     0
 42
0.0000000001
 43
0.0000000001
 40
0.0
 40
0.0
 40
0.0
 40
0.0
 40
1.0
 40
1.0
 40
1.0
 40
1.0
 10
1.32627
 20
-0.99867
 30
0.0
 10
1.32627
 20
-0.99867
 30
0.0
 10
5.03248
 20
-0.99867
 30
0.0
 10
5.03248
 20
-0.99867
 30
0.0
  0
SPLINE
  5
FF
330
1F
100
AcDbEntity
  8
0
100
AcDbSpline
210
0.0
220
0.0
230
1.0
 70
    11
 71
     3
 72
    40
 73
    36
 74
     0
 42
0.0000000001
 43
0.0000000001
 40
0.0
 40
0.0
 40
0.0
 40
0.0
 40
0.1
 40
0.1
 40
0.1
 40
0.1
 40
0.2
 40
0.2
 40
0.2
 40
0.2
 40
0.3
 40
0.3
 40
0.3
 40
0.3
 40
0.4
 40
0.4
 40
0.4
 40
0.4
 40
0.5
 40
0.5
 40
0.5
 40
0.5
 40
0.6
 40
0.6
 40
0.6
 40
0.6
 40
0.7
 40
0.7
 40
0.7
 40
0.7
 40
0.8
 40
0.8
 40
0.8
 40
0.8
 40
1.0
 40
1.0
 40
1.0
 40
1.0
 10
3.0984
 20
-0.86436
 30
0.0
 10
3.0984
 20
-0.86436
 30
0.0
 10
3.06766
 20
-0.86436
 30
0.0
 10
3.06766
 20
-0.86436
 30
0.0
 10
3.06766
 20
-0.86436
 30
0.0
 10
3.06766
 20
-0.86436
 30
0.0
 10
3.06766
 20
-0.66836
 30
0.0
 10
3.06766
 20
-0.66836
 30
0.0
 10
3.06766
 20
-0.66836
 30
0.0
 10
3.06025
 20
-0.67542
 30
0.0
 10
3.05057
 20
-0.68248
 30
0.0
 10
3.03855
 20
-0.68954
 30
0.0
 10
3.03855
 20
-0.68954
 30
0.0
 10
3.02648
 20
-0.69659
 30
0.0
 10
3.01569
 20
-0.7019
 30
0.0
 10
3.00612
 20
-0.7054
 30
0.0
 10
3.00612
 20
-0.7054
 30
0.0
 10
3.00612
 20
-0.7054
 30
0.0
 10
3.00612
 20
-0.67571
 30
0.0
 10
3.00612
 20
-0.67571
 30
0.0
 10
3.00612
 20
-0.67571
 30
0.0
 10
3.02333
 20
-0.6676
 30
0.0
 10
3.03838
 20
-0.6578
 30
0.0
 10
3.05127
 20
-0.64631
 30
0.0
 10
3.05127
 20
-0.64631
 30
0.0
 10
3.0641
 20
-0.63476
 30
0.0
 10
3.07326
 20
-0.62362
 30
0.0
 10
3.07863
 20
-0.61277
 30
0.0
 10
3.07863
 20
-0.61277
 30
0.0
 10
3.07863
 20
-0.61277
 30
0.0
 10
3.0984
 20
-0.61277
 30
0.0
 10
3.0984
 20
-0.61277
 30
0.0
 10
3.0984
 20
-0.61277
 30
0.0
 10
3.0984
 20
-0.61277
 30
0.0
 10
3.0984
 20
-0.86436
 30
0.0
 10
3.0984
 20
-0.86436
 30
0.0
  0
SPLINE
  5
100
330
1F
100
AcDbEntity
  8
0
100
AcDbSpline
210
0.0
220
0.0
230
1.0
 70
    11
 71
     3
 72
    40
 73
    36
 74
     0
 42
0.0000000001
 43
0.0000000001
 40
0.0
 40
0.0
 40
0.0
 40
0.0
 40
0.1
 40
0.1
 40
0.1
 40
0.1
 40
0.2
 40
0.2
 40
0.2
 40
0.2
 40
0.3
 40
0.3
 40
0.3
 40
0.3
 40
0.4
 40
0.4
 40
0.4
 40
0.4
 40
0.5
 40
0.5
 40
0.5
 40
0.5
 40
0.6
 40
0.6
 40
0.6
 40
0.6
 40
0.7
 40
0.7
 40
0.7
 40
0.7
 40
0.8
 40
0.8
 40
0.8
 40
0.8
 40
1.0
 40
1.0
 40
1.0
 40
1.0
 10
3.2671
 20
-0.86436
 30
0.0
 10
3.2671
 20
-0.86436
 30
0.0
 10
3.23636
 20
-0.86436
 30
0.0
 10
3.23636
 20
-0.86436
 30
0.0
 10
3.23636
 20
-0.86436
 30
0.0
 10
3.23636
 20
-0.86436
 30
0.0
 10
3.23636
 20
-0.66836
 30
0.0
 10
3.23636
 20
-0.66836
 30
0.0
 10
3.23636
 20
-0.66836
 30
0.0
 10
3.22895
 20
-0.67542
 30
0.0
 10
3.21927
 20
-0.68248
 30
0.0
 10
3.20725
 20
-0.68954
 30
0.0
 10
3.20725
 20
-0.68954
 30
0.0
 10
3.19518
 20
-0.69659
 30
0.0
 10
3.18439
 20
-0.7019
 30
0.0
 10
3.17482
 20
-0.7054
 30
0.0
 10
3.17482
 20
-0.7054
 30
0.0
 10
3.17482
 20
-0.7054
 30
0.0
 10
3.17482
 20
-0.67571
 30
0.0
 10
3.17482
 20
-0.67571
 30
0.0
 10
3.17482
 20
-0.67571
 30
0.0
 10
3.19203
 20
-0.6676
 30
0.0
 10
3.20708
 20
-0.6578
 30
0.0
 10
3.21997
 20
-0.64631
 30
0.0
 10
3.21997
 20
-0.64631
 30
0.0
 10
3.2328
 20
-0.63476
 30
0.0
 10
3.24196
 20
-0.62362
 30
0.0
 10
3.24733
 20
-0.61277
 30
0.0
 10
3.24733
 20
-0.61277
 30
0.0
 10
3.24733
 20
-0.61277
 30
0.0
 10
3.2671
 20
-0.61277
 30
0.0
 10
3.2671
 20
-0.61277
 30
0.0
 10
3.2671
 20
-0.61277
 30
0.0
 10
3.2671
 20
-0.61277
 30
0.0
 10
3.2671
 20
-0.86436
 30
0.0
 10
3.2671
 20
-0.86436
 30
0.0
  0
SPLINE
  5
101
330
1F
100
AcDbEntity
  8
0
100
AcDbSpline
210
0.0
220
0.0
230
1.0
 70
    11
 71
     3
 72
    40
 73
    36
 74
     0
 42
0.0000000001
 43
0.0000000001
 40
0.0
 40
0.0
 40
0.0
 40
0.0
 40
0.1
 40
0.1
 40
0.1
 40
0.1
 40
0.2
 40
0.2
 40
0.2
 40
0.2
 40
0.3
 40
0.3
 40
0.3
 40
0.3
 40
0.4
 40
0.4
 40
0.4
 40
0.4
 40
0.5
 40
0.5
 40
0.5
 40
0.5
 40
0.6
 40
0.6
 40
0.6
 40
0.6
 40
0.7
 40
0.7
 40
0.7
 40
0.7
 40
0.8
 40
0.8
 40
0.8
 40
0.8
 40
1.0
 40
1.0
 40
1.0
 40
1.0
 10
3.4358
 20
-0.86436
 30
0.0
 10
3.4358
 20
-0.86436
 30
0.0
 10
3.40506
 20
-0.86436
 30
0.0
 10
3.40506
 20
-0.86436
 30
0.0
 10
3.40506
 20
-0.86436
 30
0.0
 10
3.40506
 20
-0.86436
 30
0.0
 10
3.40506
 20
-0.66836
 30
0.0
 10
3.40506
 20
-0.66836
 30
0.0
 10
3.40506
 20
-0.66836
 30
0.0
 10
3.39765
 20
-0.67542
 30
0.0
 10
3.38797
 20
-0.68248
 30
0.0
 10
3.37595
 20
-0.68954
 30
0.0
 10
3.37595
 20
-0.68954
 30
0.0
 10
3.36388
 20
-0.69659
 30
0.0
 10
3.35309
 20
-0.7019
 30
0.0
 10
3.34352
 20
-0.7054
 30
0.0
 10
3.34352
 20
-0.7054
 30
0.0
 10
3.34352
 20
-0.7054
 30
0.0
 10
3.34352
 20
-0.67571
 30
0.0
 10
3.34352
 20
-0.67571
 30
0.0
 10
3.34352
 20
-0.67571
 30
0.0
 10
3.36073
 20
-0.6676
 30
0.0
 10
3.37578
 20
-0.6578
 30
0.0
 10
3.38867
 20
-0.64631
 30
0.0
 10
3.38867
 20
-0.64631
 30
0.0
 10
3.4015
 20
-0.63476
 30
0.0
 10
3.41066
 20
-0.62362
 30
0.0
 10
3.41603
 20
-0.61277
 30
0.0
 10
3.41603
 20
-0.61277
 30
0.0
 10
3.41603
 20
-0.61277
 30
0.0
 10
3.4358
 20
-0.61277
 30
0.0
 10
3.4358
 20
-0.61277
 30
0.0
 10
3.4358
 20
-0.61277
 30
0.0
 10
3.4358
 20
-0.61277
 30
0.0
 10
3.4358
 20
-0.86436
 30
0.0
 10
3.4358
 20
-0.86436
 30
0.0
  0
SPLINE
  5
102
330
1F
100
AcDbEntity
  8
0
370
    15
100
AcDbSpline
210
0.0
220
0.0
230
1.0
 70
     8
 71
     3
 72
    20
 73
    16
 74
     0
 42
0.0000000001
 43
0.0000000001
 40
0.0
 40
0.0
 40
0.0
 40
0.0
 40
0.2
 40
0.2
 40
0.2
 40
0.2
 40
0.4
 40
0.4
 40
0.4
 40
0.4
 40
0.6
 40
0.6
 40
0.6
 40
0.6
 40
1.0
 40
1.0
 40
1.0
 40
1.0
 10
-3.95388
 20
-7.37679
 30
0.0
 10
-3.95388
 20
-6.49379
 30
0.0
 10
-4.66969
 20
-5.77797
 30
0.0
 10
-5.55269
 20
-5.77797
 30
0.0
 10
-5.55269
 20
-5.77797
 30
0.0
 10
-6.43569
 20
-5.77797
 30
0.0
 10
-7.15151
 20
-6.49378
 30
0.0
 10
-7.15151
 20
-7.37678
 30
0.0
 10
-7.15151
 20
-7.37678
 30
0.0
 10
-7.15151
 20
-8.25978
 30
0.0
 10
-6.4357
 20
-8.9756
 30
0.0
 10
-5.5527
 20
-8.9756
 30
0.0
 10
-5.5527
 20
-8.9756
 30
0.0
 10
-4.6697
 20
-8.97561
 30
0.0
 10
-3.95388
 20
-8.2598
 30
0.0
 10
-3.95388
 20
-7.3768
 30
0.0
  0
SPLINE
  5
103
330
1F
100
AcDbEntity
  8
0
370
    15
100
AcDbSpline
210
0.0
220
0.0
230
1.0
 70
    24
 71
     3
 72
     8
 73
     4
 74
     0
 42
0.0000000001
 43
0.0000000001
 40
0.0
 40
0.0
 40
0.0
 40
0.0
 40
1.0
 40
1.0
 40
1.0
 40
1.0
 10
-6.67557
 20
-5.47679
 30
0.0
 10
-6.67557
 20
-5.47679
 30
0.0
 10
-6.67557
 20
-5.71012
 30
0.0
 10
-6.67557
 20
-5.71012
 30
0.0
  0
SPLINE
  5
104
330
1F
100
AcDbEntity
  8
0
370
    15
100
AcDbSpline
210
0.0
220
0.0
230
1.0
 70
    24
 71
     3
 72
     8
 73
     4
 74
     0
 42
0.0000000001
 43
0.0000000001
 40
0.0
 40
0.0
 40
0.0
 40
0.0
 40
1.0
 40
1.0
 40
1.0
 40
1.0
 10
-4.42982
 20
-5.71012
 30
0.0
 10
-4.42982
 20
-5.71012
 30
0.0
 10
-4.42982
 20
-5.47679
 30
0.0
 10
-4.42982
 20
-5.47679
 30
0.0
  0
SPLINE
  5
105
330
1F
100
AcDbEntity
  8
0
370
    15
100
AcDbSpline
210
0.0
220
0.0
230
1.0
 70
    24
 71
     3
 72
     8
 73
     4
 74
     0
 42
0.0000000001
 43
0.0000000001
 40
0.0
 40
0.0
 40
0.0
 40
0.0
 40
1.0
 40
1.0
 40
1.0
 40
1.0
 10
-6.67557
 20
-5.71012
 30
0.0
 10
-6.67557
 20
-5.71012
 30
0.0
 10
-6.67557
 20
-6.16929
 30
0.0
 10
-6.67557
 20
-6.16929
 30
0.0
  0
SPLINE
  5
106
330
1F
100
AcDbEntity
  8
0
370
    15
100
AcDbSpline
210
0.0
220
0.0
230
1.0
 70
    24
 71
     3
 72
     8
 73
     4
 74
     0
 42
0.0000000001
 43
0.0000000001
 40
0.0
 40
0.0
 40
0.0
 40
0.0
 40
1.0
 40
1.0
 40
1.0
 40
1.0
 10
-4.42982
 20
-6.16929
 30
0.0
 10
-4.42982
 20
-6.16929
 30
0.0
 10
-4.42982
 20
-5.71012
 30
0.0
 10
-4.42982
 20
-5.71012
 30
0.0
  0
SPLINE
  5
107
330
1F
100
AcDbEntity
  8
0
370
    15
100
AcDbSpline
210
0.0
220
0.0
230
1.0
 70
     8
 71
     3
 72
     8
 73
     4
 74
     0
 42
0.0000000001
 43
0.0000000001
 40
0.0
 40
0.0
 40
0.0
 40
0.0
 40
1.0
 40
1.0
 40
1.0
 40
1.0
 10
-6.71529
 20
-6.2685
 30
0.0
 10
-6.68979
 20
-6.24176
 30
0.0
 10
-6.67557
 20
-6.20623
 30
0.0
 10
-6.67557
 20
-6.16929
 30
0.0
  0
SPLINE
  5
108
330
1F
100
AcDbEntity
  8
0
370
    15
100
AcDbSpline
210
0.0
220
0.0
230
1.0
 70
     8
 71
     3
 72
     8
 73
     4
 74
     0
 42
0.0000000001
 43
0.0000000001
 40
0.0
 40
0.0
 40
0.0
 40
0.0
 40
1.0
 40
1.0
 40
1.0
 40
1.0
 10
-4.42982
 20
-6.16929
 30
0.0
 10
-4.42982
 20
-6.20623
 30
0.0
 10
-4.4156
 20
-6.24176
 30
0.0
 10
-4.39011
 20
-6.2685
 30
0.0
  0
SPLINE
  5
109
330
1F
100
AcDbEntity
  8
0
370
    15
100
AcDbSpline
210
0.0
220
0.0
230
1.0
 70
     8
 71
     3
 72
    12
 73
     8
 74
     0
 42
0.0000000001
 43
0.0000000001
 40
0.0
 40
0.0
 40
0.0
 40
0.0
 40
0.3333333333333333
 40
0.3333333333333333
 40
0.3333333333333333
 40
0.3333333333333333
 40
1.0
 40
1.0
 40
1.0
 40
1.0
 10
-6.71529
 20
-6.2685
 30
0.0
 10
-7.15873
 20
-6.73367
 30
0.0
 10
-7.2822
 20
-7.41839
 30
0.0
 10
-7.02919
 20
-8.00915
 30
0.0
 10
-7.02919
 20
-8.00915
 30
0.0
 10
-6.77617
 20
-8.59992
 30
0.0
 10
-6.19536
 20
-8.983
 30
0.0
 10
-5.5527
 20
-8.983
 30
0.0
  0
SPLINE
  5
10A
330
1F
100
AcDbEntity
  8
0
370
    15
100
AcDbSpline
210
0.0
220
0.0
230
1.0
 70
     8
 71
     3
 72
    12
 73
     8
 74
     0
 42
0.0000000001
 43
0.0000000001
 40
0.0
 40
0.0
 40
0.0
 40
0.0
 40
0.3333333333333333
 40
0.3333333333333333
 40
0.3333333333333333
 40
0.3333333333333333
 40
1.0
 40
1.0
 40
1.0
 40
1.0
 10
-5.5527
 20
-8.983
 30
0.0
 10
-4.91003
 20
-8.983
 30
0.0
 10
-4.32923
 20
-8.59992
 30
0.0
 10
-4.07621
 20
-8.00916
 30
0.0
 10
-4.07621
 20
-8.00916
 30
0.0
 10
-3.82319
 20
-7.41839
 30
0.0
 10
-3.94666
 20
-6.73368
 30
0.0
 10
-4.3901
 20
-6.26851
 30
0.0
  0
SPLINE
  5
10B
330
1F
100
AcDbEntity
  8
0
370
    15
100
AcDbSpline
210
0.0
220
0.0
230
1.0
 70
    11
 71
     3
 72
    20
 73
    16
 74
     0
 42
0.0000000001
 43
0.0000000001
 40
0.0
 40
0.0
 40
0.0
 40
0.0
 40
0.2
 40
0.2
 40
0.2
 40
0.2
 40
0.4
 40
0.4
 40
0.4
 40
0.4
 40
0.6
 40
0.6
 40
0.6
 40
0.6
 40
1.0
 40
1.0
 40
1.0
 40
1.0
 10
-5.19436
 20
-7.37679
 30
0.0
 10
-5.19436
 20
-7.17889
 30
0.0
 10
-5.35479
 20
-7.01846
 30
0.0
 10
-5.55269
 20
-7.01846
 30
0.0
 10
-5.55269
 20
-7.01846
 30
0.0
 10
-5.7506
 20
-7.01845
 30
0.0
 10
-5.91103
 20
-7.17889
 30
0.0
 10
-5.91103
 20
-7.37679
 30
0.0
 10
-5.91103
 20
-7.37679
 30
0.0
 10
-5.91103
 20
-7.57469
 30
0.0
 10
-5.7506
 20
-7.73512
 30
0.0
 10
-5.5527
 20
-7.73512
 30
0.0
 10
-5.5527
 20
-7.73512
 30
0.0
 10
-5.35479
 20
-7.73512
 30
0.0
 10
-5.19436
 20
-7.57469
 30
0.0
 10
-5.19436
 20
-7.37679
 30
0.0
  0
SPLINE
  5
10C
330
1F
100
AcDbEntity
  8
0
370
    15
100
AcDbSpline
210
0.0
220
0.0
230
1.0
 70
    11
 71
     3
 72
    20
 73
    16
 74
     0
 42
0.0000000001
 43
0.0000000001
 40
0.0
 40
0.0
 40
0.0
 40
0.0
 40
0.2
 40
0.2
 40
0.2
 40
0.2
 40
0.4
 40
0.4
 40
0.4
 40
0.4
 40
0.6
 40
0.6
 40
0.6
 40
0.6
 40
1.0
 40
1.0
 40
1.0
 40
1.0
 10
-5.1195
 20
-7.37679
 30
0.0
 10
-5.1195
 20
-7.13754
 30
0.0
 10
-5.31345
 20
-6.94359
 30
0.0
 10
-5.55269
 20
-6.94359
 30
0.0
 10
-5.55269
 20
-6.94359
 30
0.0
 10
-5.79194
 20
-6.94359
 30
0.0
 10
-5.98589
 20
-7.13754
 30
0.0
 10
-5.98589
 20
-7.37679
 30
0.0
 10
-5.98589
 20
-7.37679
 30
0.0
 10
-5.98589
 20
-7.61603
 30
0.0
 10
-5.79194
 20
-7.80998
 30
0.0
 10
-5.5527
 20
-7.80998
 30
0.0
 10
-5.5527
 20
-7.80998
 30
0.0
 10
-5.31345
 20
-7.80999
 30
0.0
 10
-5.1195
 20
-7.61604
 30
0.0
 10
-5.1195
 20
-7.37679
 30
0.0
  0
SPLINE
  5
10D
330
1F
100
AcDbEntity
  8
0
370
    15
100
AcDbSpline
210
0.0
220
0.0
230
1.0
 70
     8
 71
     3
 72
    20
 73
    16
 74
     0
 42
0.0000000001
 43
0.0000000001
 40
0.0
 40
0.0
 40
0.0
 40
0.0
 40
0.2
 40
0.2
 40
0.2
 40
0.2
 40
0.4
 40
0.4
 40
0.4
 40
0.4
 40
0.6
 40
0.6
 40
0.6
 40
0.6
 40
1.0
 40
1.0
 40
1.0
 40
1.0
 10
-3.96936
 20
-7.37679
 30
0.0
 10
-3.96936
 20
-6.50234
 30
0.0
 10
-4.67824
 20
-5.79346
 30
0.0
 10
-5.55269
 20
-5.79346
 30
0.0
 10
-5.55269
 20
-5.79346
 30
0.0
 10
-6.42714
 20
-5.79345
 30
0.0
 10
-7.13603
 20
-6.50233
 30
0.0
 10
-7.13603
 20
-7.37678
 30
0.0
 10
-7.13603
 20
-7.37678
 30
0.0
 10
-7.13603
 20
-8.25123
 30
0.0
 10
-6.42715
 20
-8.96012
 30
0.0
 10
-5.5527
 20
-8.96012
 30
0.0
 10
-5.5527
 20
-8.96012
 30
0.0
 10
-4.67825
 20
-8.96013
 30
0.0
 10
-3.96937
 20
-8.25125
 30
0.0
 10
-3.96936
 20
-7.3768
 30
0.0
  0
SPLINE
  5
10E
330
1F
100
AcDbEntity
  8
0
370
    15
100
AcDbSpline
210
0.0
220
0.0
230
1.0
 70
    11
 71
     3
 72
    20
 73
    16
 74
     0
 42
0.0000000001
 43
0.0000000001
 40
0.0
 40
0.0
 40
0.0
 40
0.0
 40
0.2
 40
0.2
 40
0.2
 40
0.2
 40
0.4
 40
0.4
 40
0.4
 40
0.4
 40
0.6
 40
0.6
 40
0.6
 40
0.6
 40
1.0
 40
1.0
 40
1.0
 40
1.0
 10
-5.2527
 20
-7.37679
 30
0.0
 10
-5.2527
 20
-7.2111
 30
0.0
 10
-5.38701
 20
-7.07679
 30
0.0
 10
-5.55269
 20
-7.07679
 30
0.0
 10
-5.55269
 20
-7.07679
 30
0.0
 10
-5.71838
 20
-7.07679
 30
0.0
 10
-5.85269
 20
-7.2111
 30
0.0
 10
-5.8527
 20
-7.37679
 30
0.0
 10
-5.8527
 20
-7.37679
 30
0.0
 10
-5.8527
 20
-7.54247
 30
0.0
 10
-5.71838
 20
-7.67679
 30
0.0
 10
-5.5527
 20
-7.67679
 30
0.0
 10
-5.5527
 20
-7.67679
 30
0.0
 10
-5.38701
 20
-7.67679
 30
0.0
 10
-5.2527
 20
-7.54248
 30
0.0
 10
-5.2527
 20
-7.37679
 30
0.0
  0
SPLINE
  5
10F
330
1F
100
AcDbEntity
  8
0
370
    15
100
AcDbSpline
210
0.0
220
0.0
230
1.0
 70
    24
 71
     3
 72
     8
 73
     4
 74
     0
 42
0.0000000001
 43
0.0000000001
 40
0.0
 40
0.0
 40
0.0
 40
0.0
 40
1.0
 40
1.0
 40
1.0
 40
1.0
 10
-6.6566
 20
-5.71012
 30
0.0
 10
-6.6566
 20
-5.71012
 30
0.0
 10
-6.6566
 20
-5.35505
 30
0.0
 10
-6.6566
 20
-5.35505
 30
0.0
  0
SPLINE
  5
110
330
1F
100
AcDbEntity
  8
0
370
    15
100
AcDbSpline
210
0.0
220
0.0
230
1.0
 70
     8
 71
     3
 72
     8
 73
     4
 74
     0
 42
0.0000000001
 43
0.0000000001
 40
0.0
 40
0.0
 40
0.0
 40
0.0
 40
1.0
 40
1.0
 40
1.0
 40
1.0
 10
-6.64072
 20
-5.34346
 30
0.0
 10
-6.64797
 20
-5.34346
 30
0.0
 10
-6.65439
 20
-5.34814
 30
0.0
 10
-6.6566
 20
-5.35505
 30
0.0
  0
SPLINE
  5
111
330
1F
100
AcDbEntity
  8
0
370
    15
100
AcDbSpline
210
0.0
220
0.0
230
1.0
 70
    24
 71
     3
 72
     8
 73
     4
 74
     0
 42
0.0000000001
 43
0.0000000001
 40
0.0
 40
0.0
 40
0.0
 40
0.0
 40
1.0
 40
1.0
 40
1.0
 40
1.0
 10
-6.64072
 20
-5.34346
 30
0.0
 10
-6.64072
 20
-5.34346
 30
0.0
 10
-6.64072
 20
-5.71012
 30
0.0
 10
-6.64072
 20
-5.71012
 30
0.0
  0
SPLINE
  5
112
330
1F
100
AcDbEntity
  8
0
370
    15
100
AcDbSpline
210
0.0
220
0.0
230
1.0
 70
    24
 71
     3
 72
     8
 73
     4
 74
     0
 42
0.0000000001
 43
0.0000000001
 40
0.0
 40
0.0
 40
0.0
 40
0.0
 40
1.0
 40
1.0
 40
1.0
 40
1.0
 10
-6.6566
 20
-5.71012
 30
0.0
 10
-6.6566
 20
-5.71012
 30
0.0
 10
-6.64072
 20
-5.71012
 30
0.0
 10
-6.64072
 20
-5.71012
 30
0.0
  0
SPLINE
  5
113
330
1F
100
AcDbEntity
  8
0
370
    15
100
AcDbSpline
210
0.0
220
0.0
230
1.0
 70
    24
 71
     3
 72
     8
 73
     4
 74
     0
 42
0.0000000001
 43
0.0000000001
 40
0.0
 40
0.0
 40
0.0
 40
0.0
 40
1.0
 40
1.0
 40
1.0
 40
1.0
 10
-4.44879
 20
-5.35505
 30
0.0
 10
-4.44879
 20
-5.35505
 30
0.0
 10
-4.44879
 20
-5.71012
 30
0.0
 10
-4.44879
 20
-5.71012
 30
0.0
  0
SPLINE
  5
114
330
1F
100
AcDbEntity
  8
0
370
    15
100
AcDbSpline
210
0.0
220
0.0
230
1.0
 70
    24
 71
     3
 72
     8
 73
     4
 74
     0
 42
0.0000000001
 43
0.0000000001
 40
0.0
 40
0.0
 40
0.0
 40
0.0
 40
1.0
 40
1.0
 40
1.0
 40
1.0
 10
-4.44879
 20
-5.71012
 30
0.0
 10
-4.44879
 20
-5.71012
 30
0.0
 10
-4.46467
 20
-5.71012
 30
0.0
 10
-4.46467
 20
-5.71012
 30
0.0
  0
SPLINE
  5
115
330
1F
100
AcDbEntity
  8
0
370
    15
100
AcDbSpline
210
0.0
220
0.0
230
1.0
 70
    24
 71
     3
 72
     8
 73
     4
 74
     0
 42
0.0000000001
 43
0.0000000001
 40
0.0
 40
0.0
 40
0.0
 40
0.0
 40
1.0
 40
1.0
 40
1.0
 40
1.0
 10
-4.46467
 20
-5.71012
 30
0.0
 10
-4.46467
 20
-5.71012
 30
0.0
 10
-4.46467
 20
-5.34346
 30
0.0
 10
-4.46467
 20
-5.34346
 30
0.0
  0
SPLINE
  5
116
330
1F
100
AcDbEntity
  8
0
370
    15
100
AcDbSpline
210
0.0
220
0.0
230
1.0
 70
     8
 71
     3
 72
     8
 73
     4
 74
     0
 42
0.0000000001
 43
0.0000000001
 40
0.0
 40
0.0
 40
0.0
 40
0.0
 40
1.0
 40
1.0
 40
1.0
 40
1.0
 10
-4.44879
 20
-5.35505
 30
0.0
 10
-4.451
 20
-5.34814
 30
0.0
 10
-4.45742
 20
-5.34346
 30
0.0
 10
-4.46467
 20
-5.34346
 30
0.0
  0
SPLINE
  5
117
330
1F
100
AcDbEntity
  8
0
370
    15
100
AcDbSpline
210
0.0
220
0.0
230
1.0
 70
    24
 71
     3
 72
     8
 73
     4
 74
     0
 42
0.0000000001
 43
0.0000000001
 40
0.0
 40
0.0
 40
0.0
 40
0.0
 40
1.0
 40
1.0
 40
1.0
 40
1.0
 10
-6.6277
 20
-5.36741
 30
0.0
 10
-6.6277
 20
-5.36741
 30
0.0
 10
-6.6277
 20
-5.34346
 30
0.0
 10
-6.6277
 20
-5.34346
 30
0.0
  0
SPLINE
  5
118
330
1F
100
AcDbEntity
  8
0
370
    15
100
AcDbSpline
210
0.0
220
0.0
230
1.0
 70
     8
 71
     3
 72
    24
 73
    20
 74
     0
 42
0.0000000001
 43
0.0000000001
 40
0.0
 40
0.0
 40
0.0
 40
0.0
 40
0.1666666666666667
 40
0.1666666666666667
 40
0.1666666666666667
 40
0.1666666666666667
 40
0.3333333333333333
 40
0.3333333333333333
 40
0.3333333333333333
 40
0.3333333333333333
 40
0.5
 40
0.5
 40
0.5
 40
0.5
 40
0.6666666666666666
 40
0.6666666666666666
 40
0.6666666666666666
 40
0.6666666666666666
 40
1.0
 40
1.0
 40
1.0
 40
1.0
 10
-6.51936
 20
-5.42975
 30
0.0
 10
-6.52975
 20
-5.42901
 30
0.0
 10
-6.54013
 20
-5.42827
 30
0.0
 10
-6.54988
 20
-5.42619
 30
0.0
 10
-6.54988
 20
-5.42619
 30
0.0
 10
-6.55954
 20
-5.42413
 30
0.0
 10
-6.56857
 20
-5.42076
 30
0.0
 10
-6.57672
 20
-5.41696
 30
0.0
 10
-6.57672
 20
-5.41696
 30
0.0
 10
-6.58575
 20
-5.41276
 30
0.0
 10
-6.5937
 20
-5.40804
 30
0.0
 10
-6.60063
 20
-5.40307
 30
0.0
 10
-6.60063
 20
-5.40307
 30
0.0
 10
-6.60902
 20
-5.39706
 30
0.0
 10
-6.61592
 20
-5.39068
 30
0.0
 10
-6.62017
 20
-5.38481
 30
0.0
 10
-6.62017
 20
-5.38481
 30
0.0
 10
-6.62463
 20
-5.37864
 30
0.0
 10
-6.62616
 20
-5.37303
 30
0.0
 10
-6.6277
 20
-5.36741
 30
0.0
  0
SPLINE
  5
119
330
1F
100
AcDbEntity
  8
0
370
    15
100
AcDbSpline
210
0.0
220
0.0
230
1.0
 70
    24
 71
     3
 72
     8
 73
     4
 74
     0
 42
0.0000000001
 43
0.0000000001
 40
0.0
 40
0.0
 40
0.0
 40
0.0
 40
1.0
 40
1.0
 40
1.0
 40
1.0
 10
-4.58603
 20
-5.42975
 30
0.0
 10
-4.58603
 20
-5.42975
 30
0.0
 10
-6.51936
 20
-5.42975
 30
0.0
 10
-6.51936
 20
-5.42975
 30
0.0
  0
SPLINE
  5
11A
330
1F
100
AcDbEntity
  8
0
370
    15
100
AcDbSpline
210
0.0
220
0.0
230
1.0
 70
     8
 71
     3
 72
    24
 73
    20
 74
     0
 42
0.0000000001
 43
0.0000000001
 40
0.0
 40
0.0
 40
0.0
 40
0.0
 40
0.1666666666666667
 40
0.1666666666666667
 40
0.1666666666666667
 40
0.1666666666666667
 40
0.3333333333333333
 40
0.3333333333333333
 40
0.3333333333333333
 40
0.3333333333333333
 40
0.5
 40
0.5
 40
0.5
 40
0.5
 40
0.6666666666666666
 40
0.6666666666666666
 40
0.6666666666666666
 40
0.6666666666666666
 40
1.0
 40
1.0
 40
1.0
 40
1.0
 10
-4.4777
 20
-5.36741
 30
0.0
 10
-4.47913
 20
-5.37281
 30
0.0
 10
-4.48056
 20
-5.37821
 30
0.0
 10
-4.4847
 20
-5.38413
 30
0.0
 10
-4.4847
 20
-5.38413
 30
0.0
 10
-4.48885
 20
-5.39006
 30
0.0
 10
-4.49571
 20
-5.39651
 30
0.0
 10
-4.50416
 20
-5.40264
 30
0.0
 10
-4.50416
 20
-5.40264
 30
0.0
 10
-4.51323
 20
-5.40922
 30
0.0
 10
-4.52413
 20
-5.41543
 30
0.0
 10
-4.5368
 20
-5.42039
 30
0.0
 10
-4.5368
 20
-5.42039
 30
0.0
 10
-4.54564
 20
-5.42385
 30
0.0
 10
-4.55534
 20
-5.42671
 30
0.0
 10
-4.56548
 20
-5.42814
 30
0.0
 10
-4.56548
 20
-5.42814
 30
0.0
 10
-4.5722
 20
-5.42909
 30
0.0
 10
-4.57912
 20
-5.42942
 30
0.0
 10
-4.58603
 20
-5.42975
 30
0.0
  0
SPLINE
  5
11B
330
1F
100
AcDbEntity
  8
0
370
    15
100
AcDbSpline
210
0.0
220
0.0
230
1.0
 70
    24
 71
     3
 72
     8
 73
     4
 74
     0
 42
0.0000000001
 43
0.0000000001
 40
0.0
 40
0.0
 40
0.0
 40
0.0
 40
1.0
 40
1.0
 40
1.0
 40
1.0
 10
-4.4777
 20
-5.34346
 30
0.0
 10
-4.4777
 20
-5.34346
 30
0.0
 10
-4.4777
 20
-5.36741
 30
0.0
 10
-4.4777
 20
-5.36741
 30
0.0
  0
SPLINE
  5
11C
330
1F
100
AcDbEntity
  8
0
370
    15
100
AcDbSpline
210
0.0
220
0.0
230
1.0
 70
    24
 71
     3
 72
     8
 73
     4
 74
     0
 42
0.0000000001
 43
0.0000000001
 40
0.0
 40
0.0
 40
0.0
 40
0.0
 40
1.0
 40
1.0
 40
1.0
 40
1.0
 10
-4.46467
 20
-5.34346
 30
0.0
 10
-4.46467
 20
-5.34346
 30
0.0
 10
-4.4777
 20
-5.34346
 30
0.0
 10
-4.4777
 20
-5.34346
 30
0.0
  0
SPLINE
  5
11D
330
1F
100
AcDbEntity
  8
0
370
    15
100
AcDbSpline
210
0.0
220
0.0
230
1.0
 70
    24
 71
     3
 72
     8
 73
     4
 74
     0
 42
0.0000000001
 43
0.0000000001
 40
0.0
 40
0.0
 40
0.0
 40
0.0
 40
1.0
 40
1.0
 40
1.0
 40
1.0
 10
-4.46467
 20
-5.71012
 30
0.0
 10
-4.46467
 20
-5.71012
 30
0.0
 10
-6.64072
 20
-5.71012
 30
0.0
 10
-6.64072
 20
-5.71012
 30
0.0
  0
SPLINE
  5
11E
330
1F
100
AcDbEntity
  8
0
370
    15
100
AcDbSpline
210
0.0
220
0.0
230
1.0
 70
    24
 71
     3
 72
     8
 73
     4
 74
     0
 42
0.0000000001
 43
0.0000000001
 40
0.0
 40
0.0
 40
0.0
 40
0.0
 40
1.0
 40
1.0
 40
1.0
 40
1.0
 10
-6.6277
 20
-5.34346
 30
0.0
 10
-6.6277
 20
-5.34346
 30
0.0
 10
-6.64072
 20
-5.34346
 30
0.0
 10
-6.64072
 20
-5.34346
 30
0.0
  0
SPLINE
  5
11F
330
1F
100
AcDbEntity
  8
0
370
    15
100
AcDbSpline
210
0.0
220
0.0
230
1.0
 70
    24
 71
     3
 72
     8
 73
     4
 74
     0
 42
0.0000000001
 43
0.0000000001
 40
0.0
 40
0.0
 40
0.0
 40
0.0
 40
1.0
 40
1.0
 40
1.0
 40
1.0
 10
-6.6566
 20
-6.16929
 30
0.0
 10
-6.6566
 20
-6.16929
 30
0.0
 10
-6.6566
 20
-5.71012
 30
0.0
 10
-6.6566
 20
-5.71012
 30
0.0
  0
SPLINE
  5
120
330
1F
100
AcDbEntity
  8
0
370
    15
100
AcDbSpline
210
0.0
220
0.0
230
1.0
 70
    24
 71
     3
 72
     8
 73
     4
 74
     0
 42
0.0000000001
 43
0.0000000001
 40
0.0
 40
0.0
 40
0.0
 40
0.0
 40
1.0
 40
1.0
 40
1.0
 40
1.0
 10
-6.64072
 20
-5.71012
 30
0.0
 10
-6.64072
 20
-5.71012
 30
0.0
 10
-6.64072
 20
-6.16929
 30
0.0
 10
-6.64072
 20
-6.16929
 30
0.0
  0
SPLINE
  5
121
330
1F
100
AcDbEntity
  8
0
370
    15
100
AcDbSpline
210
0.0
220
0.0
230
1.0
 70
    24
 71
     3
 72
     8
 73
     4
 74
     0
 42
0.0000000001
 43
0.0000000001
 40
0.0
 40
0.0
 40
0.0
 40
0.0
 40
1.0
 40
1.0
 40
1.0
 40
1.0
 10
-6.6566
 20
-6.16929
 30
0.0
 10
-6.6566
 20
-6.16929
 30
0.0
 10
-6.64072
 20
-6.16929
 30
0.0
 10
-6.64072
 20
-6.16929
 30
0.0
  0
SPLINE
  5
122
330
1F
100
AcDbEntity
  8
0
370
    15
100
AcDbSpline
210
0.0
220
0.0
230
1.0
 70
    24
 71
     3
 72
     8
 73
     4
 74
     0
 42
0.0000000001
 43
0.0000000001
 40
0.0
 40
0.0
 40
0.0
 40
0.0
 40
1.0
 40
1.0
 40
1.0
 40
1.0
 10
-4.46467
 20
-6.16929
 30
0.0
 10
-4.46467
 20
-6.16929
 30
0.0
 10
-4.46467
 20
-5.71012
 30
0.0
 10
-4.46467
 20
-5.71012
 30
0.0
  0
SPLINE
  5
123
330
1F
100
AcDbEntity
  8
0
370
    15
100
AcDbSpline
210
0.0
220
0.0
230
1.0
 70
    24
 71
     3
 72
     8
 73
     4
 74
     0
 42
0.0000000001
 43
0.0000000001
 40
0.0
 40
0.0
 40
0.0
 40
0.0
 40
1.0
 40
1.0
 40
1.0
 40
1.0
 10
-4.44879
 20
-5.71012
 30
0.0
 10
-4.44879
 20
-5.71012
 30
0.0
 10
-4.44879
 20
-6.16929
 30
0.0
 10
-4.44879
 20
-6.16929
 30
0.0
  0
SPLINE
  5
124
330
1F
100
AcDbEntity
  8
0
370
    15
100
AcDbSpline
210
0.0
220
0.0
230
1.0
 70
    24
 71
     3
 72
     8
 73
     4
 74
     0
 42
0.0000000001
 43
0.0000000001
 40
0.0
 40
0.0
 40
0.0
 40
0.0
 40
1.0
 40
1.0
 40
1.0
 40
1.0
 10
-4.44879
 20
-6.16929
 30
0.0
 10
-4.44879
 20
-6.16929
 30
0.0
 10
-4.46467
 20
-6.16929
 30
0.0
 10
-4.46467
 20
-6.16929
 30
0.0
  0
SPLINE
  5
125
330
1F
100
AcDbEntity
  8
0
370
    15
100
AcDbSpline
210
0.0
220
0.0
230
1.0
 70
     8
 71
     3
 72
     8
 73
     4
 74
     0
 42
0.0000000001
 43
0.0000000001
 40
0.0
 40
0.0
 40
0.0
 40
0.0
 40
1.0
 40
1.0
 40
1.0
 40
1.0
 10
-6.6566
 20
-5.35505
 30
0.0
 10
-6.66917
 20
-5.39441
 30
0.0
 10
-6.67557
 20
-5.43547
 30
0.0
 10
-6.67557
 20
-5.47679
 30
0.0
  0
SPLINE
  5
126
330
1F
100
AcDbEntity
  8
0
370
    15
100
AcDbSpline
210
0.0
220
0.0
230
1.0
 70
     8
 71
     3
 72
     8
 73
     4
 74
     0
 42
0.0000000001
 43
0.0000000001
 40
0.0
 40
0.0
 40
0.0
 40
0.0
 40
1.0
 40
1.0
 40
1.0
 40
1.0
 10
-4.42982
 20
-5.47679
 30
0.0
 10
-4.42982
 20
-5.43547
 30
0.0
 10
-4.43622
 20
-5.39441
 30
0.0
 10
-4.44879
 20
-5.35505
 30
0.0
  0
SPLINE
  5
127
330
1F
100
AcDbEntity
  8
0
370
    15
100
AcDbSpline
210
0.0
220
0.0
230
1.0
 70
    24
 71
     3
 72
     8
 73
     4
 74
     0
 42
0.0000000001
 43
0.0000000001
 40
0.0
 40
0.0
 40
0.0
 40
0.0
 40
1.0
 40
1.0
 40
1.0
 40
1.0
 10
-4.58603
 20
-5.42975
 30
0.0
 10
-4.58603
 20
-5.42975
 30
0.0
 10
-4.58603
 20
-5.42338
 30
0.0
 10
-4.58603
 20
-5.42338
 30
0.0
  0
SPLINE
  5
128
330
1F
100
AcDbEntity
  8
0
370
    15
100
AcDbSpline
210
0.0
220
0.0
230
1.0
 70
     8
 71
     3
 72
    24
 73
    20
 74
     0
 42
0.0000000001
 43
0.0000000001
 40
0.0
 40
0.0
 40
0.0
 40
0.0
 40
0.1666666666666667
 40
0.1666666666666667
 40
0.1666666666666667
 40
0.1666666666666667
 40
0.3333333333333333
 40
0.3333333333333333
 40
0.3333333333333333
 40
0.3333333333333333
 40
0.5
 40
0.5
 40
0.5
 40
0.5
 40
0.6666666666666666
 40
0.6666666666666666
 40
0.6666666666666666
 40
0.6666666666666666
 40
1.0
 40
1.0
 40
1.0
 40
1.0
 10
-4.58603
 20
-5.42338
 30
0.0
 10
-4.57964
 20
-5.42304
 30
0.0
 10
-4.57325
 20
-5.4227
 30
0.0
 10
-4.56706
 20
-5.42173
 30
0.0
 10
-4.56706
 20
-5.42173
 30
0.0
 10
-4.55765
 20
-5.42026
 30
0.0
 10
-4.54869
 20
-5.41733
 30
0.0
 10
-4.54058
 20
-5.41381
 30
0.0
 10
-4.54058
 20
-5.41381
 30
0.0
 10
-4.52878
 20
-5.40869
 30
0.0
 10
-4.51877
 20
-5.40233
 30
0.0
 10
-4.51046
 20
-5.39565
 30
0.0
 10
-4.51046
 20
-5.39565
 30
0.0
 10
-4.50264
 20
-5.38936
 30
0.0
 10
-4.49632
 20
-5.38277
 30
0.0
 10
-4.4925
 20
-5.37672
 30
0.0
 10
-4.4925
 20
-5.37672
 30
0.0
 10
-4.48868
 20
-5.37067
 30
0.0
 10
-4.48735
 20
-5.36515
 30
0.0
 10
-4.48603
 20
-5.35963
 30
0.0
  0
SPLINE
  5
129
330
1F
100
AcDbEntity
  8
0
370
    15
100
AcDbSpline
210
0.0
220
0.0
230
1.0
 70
     8
 71
     3
 72
     8
 73
     4
 74
     0
 42
0.0000000001
 43
0.0000000001
 40
0.0
 40
0.0
 40
0.0
 40
0.0
 40
1.0
 40
1.0
 40
1.0
 40
1.0
 10
-4.48603
 20
-5.35963
 30
0.0
 10
-4.48587
 20
-5.36408
 30
0.0
 10
-4.48215
 20
-5.36756
 30
0.0
 10
-4.4777
 20
-5.36741
 30
0.0
  0
SPLINE
  5
12A
330
1F
100
AcDbEntity
  8
0
370
    15
100
AcDbSpline
210
0.0
220
0.0
230
1.0
 70
     8
 71
     3
 72
     8
 73
     4
 74
     0
 42
0.0000000001
 43
0.0000000001
 40
0.0
 40
0.0
 40
0.0
 40
0.0
 40
1.0
 40
1.0
 40
1.0
 40
1.0
 10
-6.6277
 20
-5.36741
 30
0.0
 10
-6.62325
 20
-5.36756
 30
0.0
 10
-6.61952
 20
-5.36408
 30
0.0
 10
-6.61936
 20
-5.35963
 30
0.0
  0
SPLINE
  5
12B
330
1F
100
AcDbEntity
  8
0
370
    15
100
AcDbSpline
210
0.0
220
0.0
230
1.0
 70
     8
 71
     3
 72
    24
 73
    20
 74
     0
 42
0.0000000001
 43
0.0000000001
 40
0.0
 40
0.0
 40
0.0
 40
0.0
 40
0.1666666666666667
 40
0.1666666666666667
 40
0.1666666666666667
 40
0.1666666666666667
 40
0.3333333333333333
 40
0.3333333333333333
 40
0.3333333333333333
 40
0.3333333333333333
 40
0.5
 40
0.5
 40
0.5
 40
0.5
 40
0.6666666666666666
 40
0.6666666666666666
 40
0.6666666666666666
 40
0.6666666666666666
 40
1.0
 40
1.0
 40
1.0
 40
1.0
 10
-6.61936
 20
-5.35963
 30
0.0
 10
-6.61794
 20
-5.36537
 30
0.0
 10
-6.61653
 20
-5.37111
 30
0.0
 10
-6.61241
 20
-5.37742
 30
0.0
 10
-6.61241
 20
-5.37742
 30
0.0
 10
-6.6085
 20
-5.38342
 30
0.0
 10
-6.60215
 20
-5.38993
 30
0.0
 10
-6.59438
 20
-5.39609
 30
0.0
 10
-6.59438
 20
-5.39609
 30
0.0
 10
-6.58801
 20
-5.40115
 30
0.0
 10
-6.58069
 20
-5.40597
 30
0.0
 10
-6.57231
 20
-5.4103
 30
0.0
 10
-6.57231
 20
-5.4103
 30
0.0
 10
-6.56483
 20
-5.41416
 30
0.0
 10
-6.55651
 20
-5.41762
 30
0.0
 10
-6.54753
 20
-5.41974
 30
0.0
 10
-6.54753
 20
-5.41974
 30
0.0
 10
-6.53858
 20
-5.42185
 30
0.0
 10
-6.52897
 20
-5.42261
 30
0.0
 10
-6.51936
 20
-5.42338
 30
0.0
  0
SPLINE
  5
12C
330
1F
100
AcDbEntity
  8
0
370
    15
100
AcDbSpline
210
0.0
220
0.0
230
1.0
 70
    24
 71
     3
 72
     8
 73
     4
 74
     0
 42
0.0000000001
 43
0.0000000001
 40
0.0
 40
0.0
 40
0.0
 40
0.0
 40
1.0
 40
1.0
 40
1.0
 40
1.0
 10
-6.51936
 20
-5.42975
 30
0.0
 10
-6.51936
 20
-5.42975
 30
0.0
 10
-6.51936
 20
-5.42338
 30
0.0
 10
-6.51936
 20
-5.42338
 30
0.0
  0
SPLINE
  5
12D
330
1F
100
AcDbEntity
  8
0
370
    15
100
AcDbSpline
210
0.0
220
0.0
230
1.0
 70
    24
 71
     3
 72
     8
 73
     4
 74
     0
 42
0.0000000001
 43
0.0000000001
 40
0.0
 40
0.0
 40
0.0
 40
0.0
 40
1.0
 40
1.0
 40
1.0
 40
1.0
 10
-6.51936
 20
-5.42338
 30
0.0
 10
-6.51936
 20
-5.42338
 30
0.0
 10
-4.58603
 20
-5.42338
 30
0.0
 10
-4.58603
 20
-5.42338
 30
0.0
  0
SPLINE
  5
12E
330
1F
100
AcDbEntity
  8
0
370
    15
100
AcDbSpline
210
0.0
220
0.0
230
1.0
 70
    24
 71
     3
 72
     8
 73
     4
 74
     0
 42
0.0000000001
 43
0.0000000001
 40
0.0
 40
0.0
 40
0.0
 40
0.0
 40
1.0
 40
1.0
 40
1.0
 40
1.0
 10
-4.48603
 20
-5.27679
 30
0.0
 10
-4.48603
 20
-5.27679
 30
0.0
 10
-4.48603
 20
-5.35963
 30
0.0
 10
-4.48603
 20
-5.35963
 30
0.0
  0
SPLINE
  5
12F
330
1F
100
AcDbEntity
  8
0
370
    15
100
AcDbSpline
210
0.0
220
0.0
230
1.0
 70
    24
 71
     3
 72
     8
 73
     4
 74
     0
 42
0.0000000001
 43
0.0000000001
 40
0.0
 40
0.0
 40
0.0
 40
0.0
 40
1.0
 40
1.0
 40
1.0
 40
1.0
 10
-4.58603
 20
-5.42338
 30
0.0
 10
-4.58603
 20
-5.42338
 30
0.0
 10
-4.58603
 20
-5.27679
 30
0.0
 10
-4.58603
 20
-5.27679
 30
0.0
  0
SPLINE
  5
130
330
1F
100
AcDbEntity
  8
0
370
    15
100
AcDbSpline
210
0.0
220
0.0
230
1.0
 70
    24
 71
     3
 72
     8
 73
     4
 74
     0
 42
0.0000000001
 43
0.0000000001
 40
0.0
 40
0.0
 40
0.0
 40
0.0
 40
1.0
 40
1.0
 40
1.0
 40
1.0
 10
-4.58603
 20
-5.27679
 30
0.0
 10
-4.58603
 20
-5.27679
 30
0.0
 10
-4.48603
 20
-5.27679
 30
0.0
 10
-4.48603
 20
-5.27679
 30
0.0
  0
SPLINE
  5
131
330
1F
100
AcDbEntity
  8
0
370
    15
100
AcDbSpline
210
0.0
220
0.0
230
1.0
 70
    24
 71
     3
 72
     8
 73
     4
 74
     0
 42
0.0000000001
 43
0.0000000001
 40
0.0
 40
0.0
 40
0.0
 40
0.0
 40
1.0
 40
1.0
 40
1.0
 40
1.0
 10
-6.51936
 20
-5.27679
 30
0.0
 10
-6.51936
 20
-5.27679
 30
0.0
 10
-6.51936
 20
-5.42338
 30
0.0
 10
-6.51936
 20
-5.42338
 30
0.0
  0
SPLINE
  5
132
330
1F
100
AcDbEntity
  8
0
370
    15
100
AcDbSpline
210
0.0
220
0.0
230
1.0
 70
    24
 71
     3
 72
     8
 73
     4
 74
     0
 42
0.0000000001
 43
0.0000000001
 40
0.0
 40
0.0
 40
0.0
 40
0.0
 40
1.0
 40
1.0
 40
1.0
 40
1.0
 10
-6.61936
 20
-5.35963
 30
0.0
 10
-6.61936
 20
-5.35963
 30
0.0
 10
-6.61936
 20
-5.27679
 30
0.0
 10
-6.61936
 20
-5.27679
 30
0.0
  0
SPLINE
  5
133
330
1F
100
AcDbEntity
  8
0
370
    15
100
AcDbSpline
210
0.0
220
0.0
230
1.0
 70
    24
 71
     3
 72
     8
 73
     4
 74
     0
 42
0.0000000001
 43
0.0000000001
 40
0.0
 40
0.0
 40
0.0
 40
0.0
 40
1.0
 40
1.0
 40
1.0
 40
1.0
 10
-6.61936
 20
-5.27679
 30
0.0
 10
-6.61936
 20
-5.27679
 30
0.0
 10
-6.51936
 20
-5.27679
 30
0.0
 10
-6.51936
 20
-5.27679
 30
0.0
  0
SPLINE
  5
134
330
1F
100
AcDbEntity
  8
0
370
    15
100
AcDbSpline
210
0.0
220
0.0
230
1.0
 70
    24
 71
     3
 72
     8
 73
     4
 74
     0
 42
0.0000000001
 43
0.0000000001
 40
0.0
 40
0.0
 40
0.0
 40
0.0
 40
1.0
 40
1.0
 40
1.0
 40
1.0
 10
-6.51936
 20
-5.27679
 30
0.0
 10
-6.51936
 20
-5.27679
 30
0.0
 10
-4.58603
 20
-5.27679
 30
0.0
 10
-4.58603
 20
-5.27679
 30
0.0
  0
SPLINE
  5
135
330
1F
100
AcDbEntity
  8
0
370
    15
100
AcDbSpline
210
0.0
220
0.0
230
1.0
 70
     8
 71
     3
 72
    12
 73
     8
 74
     0
 42
0.0000000001
 43
0.0000000001
 40
0.0
 40
0.0
 40
0.0
 40
0.0
 40
0.3333333333333333
 40
0.3333333333333333
 40
0.3333333333333333
 40
0.3333333333333333
 40
1.0
 40
1.0
 40
1.0
 40
1.0
 10
-4.48603
 20
-5.33512
 30
0.0
 10
-4.48603
 20
-5.33733
 30
0.0
 10
-4.48515
 20
-5.33945
 30
0.0
 10
-4.48359
 20
-5.34101
 30
0.0
 10
-4.48359
 20
-5.34101
 30
0.0
 10
-4.48202
 20
-5.34258
 30
0.0
 10
-4.47991
 20
-5.34346
 30
0.0
 10
-4.4777
 20
-5.34346
 30
0.0
  0
SPLINE
  5
136
330
1F
100
AcDbEntity
  8
0
370
    15
100
AcDbSpline
210
0.0
220
0.0
230
1.0
 70
     8
 71
     3
 72
     8
 73
     4
 74
     0
 42
0.0000000001
 43
0.0000000001
 40
0.0
 40
0.0
 40
0.0
 40
0.0
 40
1.0
 40
1.0
 40
1.0
 40
1.0
 10
-6.6277
 20
-5.34346
 30
0.0
 10
-6.62309
 20
-5.34346
 30
0.0
 10
-6.61936
 20
-5.33972
 30
0.0
 10
-6.61936
 20
-5.33512
 30
0.0
  0
SPLINE
  5
137
330
1F
100
AcDbEntity
  8
0
370
    15
100
AcDbSpline
210
0.0
220
0.0
230
1.0
 70
    24
 71
     3
 72
     8
 73
     4
 74
     0
 42
0.0000000001
 43
0.0000000001
 40
0.0
 40
0.0
 40
0.0
 40
0.0
 40
1.0
 40
1.0
 40
1.0
 40
1.0
 10
-4.70339
 20
-5.26679
 30
0.0
 10
-4.70339
 20
-5.26679
 30
0.0
 10
-6.402
 20
-5.26679
 30
0.0
 10
-6.402
 20
-5.26679
 30
0.0
  0
SPLINE
  5
138
330
1F
100
AcDbEntity
  8
0
370
    15
100
AcDbSpline
210
0.0
220
0.0
230
1.0
 70
    24
 71
     3
 72
     8
 73
     4
 74
     0
 42
0.0000000001
 43
0.0000000001
 40
0.0
 40
0.0
 40
0.0
 40
0.0
 40
1.0
 40
1.0
 40
1.0
 40
1.0
 10
-4.70339
 20
-5.27679
 30
0.0
 10
-4.70339
 20
-5.27679
 30
0.0
 10
-4.70339
 20
-5.26679
 30
0.0
 10
-4.70339
 20
-5.26679
 30
0.0
  0
SPLINE
  5
139
330
1F
100
AcDbEntity
  8
0
370
    15
100
AcDbSpline
210
0.0
220
0.0
230
1.0
 70
    24
 71
     3
 72
     8
 73
     4
 74
     0
 42
0.0000000001
 43
0.0000000001
 40
0.0
 40
0.0
 40
0.0
 40
0.0
 40
1.0
 40
1.0
 40
1.0
 40
1.0
 10
-6.402
 20
-5.26679
 30
0.0
 10
-6.402
 20
-5.26679
 30
0.0
 10
-6.402
 20
-5.27679
 30
0.0
 10
-6.402
 20
-5.27679
 30
0.0
  0
SPLINE
  5
13A
330
1F
100
AcDbEntity
  8
0
370
    15
100
AcDbSpline
210
0.0
220
0.0
230
1.0
 70
    24
 71
     3
 72
     8
 73
     4
 74
     0
 42
0.0000000001
 43
0.0000000001
 40
0.0
 40
0.0
 40
0.0
 40
0.0
 40
1.0
 40
1.0
 40
1.0
 40
1.0
 10
-4.70339
 20
-5.26679
 30
0.0
 10
-4.70339
 20
-5.26679
 30
0.0
 10
-4.69436
 20
-5.26679
 30
0.0
 10
-4.69436
 20
-5.26679
 30
0.0
  0
SPLINE
  5
13B
330
1F
100
AcDbEntity
  8
0
370
    15
100
AcDbSpline
210
0.0
220
0.0
230
1.0
 70
    24
 71
     3
 72
     8
 73
     4
 74
     0
 42
0.0000000001
 43
0.0000000001
 40
0.0
 40
0.0
 40
0.0
 40
0.0
 40
1.0
 40
1.0
 40
1.0
 40
1.0
 10
-4.69436
 20
-5.27679
 30
0.0
 10
-4.69436
 20
-5.27679
 30
0.0
 10
-4.69436
 20
-5.26679
 30
0.0
 10
-4.69436
 20
-5.26679
 30
0.0
  0
SPLINE
  5
13C
330
1F
100
AcDbEntity
  8
0
370
    15
100
AcDbSpline
210
0.0
220
0.0
230
1.0
 70
    24
 71
     3
 72
     8
 73
     4
 74
     0
 42
0.0000000001
 43
0.0000000001
 40
0.0
 40
0.0
 40
0.0
 40
0.0
 40
1.0
 40
1.0
 40
1.0
 40
1.0
 10
-6.402
 20
-5.26679
 30
0.0
 10
-6.402
 20
-5.26679
 30
0.0
 10
-6.41103
 20
-5.26679
 30
0.0
 10
-6.41103
 20
-5.26679
 30
0.0
  0
SPLINE
  5
13D
330
1F
100
AcDbEntity
  8
0
370
    15
100
AcDbSpline
210
0.0
220
0.0
230
1.0
 70
    24
 71
     3
 72
     8
 73
     4
 74
     0
 42
0.0000000001
 43
0.0000000001
 40
0.0
 40
0.0
 40
0.0
 40
0.0
 40
1.0
 40
1.0
 40
1.0
 40
1.0
 10
-6.41103
 20
-5.26679
 30
0.0
 10
-6.41103
 20
-5.26679
 30
0.0
 10
-6.41103
 20
-5.27679
 30
0.0
 10
-6.41103
 20
-5.27679
 30
0.0
  0
SPLINE
  5
13E
330
1F
100
AcDbEntity
  8
0
 62
     8
370
    15
100
AcDbSpline
210
0.0
220
0.0
230
1.0
 70
     8
 71
     3
 72
     8
 73
     4
 74
     0
 42
0.0000000001
 43
0.0000000001
 40
0.0
 40
0.0
 40
0.0
 40
0.0
 40
1.0
 40
1.0
 40
1.0
 40
1.0
 10
-4.46467
 20
-6.16929
 30
0.0
 10
-4.46467
 20
-6.18285
 30
0.0
 10
-4.46313
 20
-6.19637
 30
0.0
 10
-4.46007
 20
-6.20958
 30
0.0
  0
SPLINE
  5
13F
330
1F
100
AcDbEntity
  8
0
 62
     8
370
    15
100
AcDbSpline
210
0.0
220
0.0
230
1.0
 70
     8
 71
     3
 72
     8
 73
     4
 74
     0
 42
0.0000000001
 43
0.0000000001
 40
0.0
 40
0.0
 40
0.0
 40
0.0
 40
1.0
 40
1.0
 40
1.0
 40
1.0
 10
-6.64532
 20
-6.20958
 30
0.0
 10
-6.64226
 20
-6.19637
 30
0.0
 10
-6.64072
 20
-6.18285
 30
0.0
 10
-6.64072
 20
-6.16929
 30
0.0
  0
SPLINE
  5
140
330
1F
100
AcDbEntity
  8
0
 62
     8
370
    15
100
AcDbSpline
210
0.0
220
0.0
230
1.0
 70
     8
 71
     3
 72
     8
 73
     4
 74
     0
 42
0.0000000001
 43
0.0000000001
 40
0.0
 40
0.0
 40
0.0
 40
0.0
 40
1.0
 40
1.0
 40
1.0
 40
1.0
 10
-6.66942
 20
-6.23261
 30
0.0
 10
-6.66096
 20
-6.21257
 30
0.0
 10
-6.6566
 20
-6.19104
 30
0.0
 10
-6.6566
 20
-6.16929
 30
0.0
  0
SPLINE
  5
141
330
1F
100
AcDbEntity
  8
0
 62
     8
370
    15
100
AcDbSpline
210
0.0
220
0.0
230
1.0
 70
     8
 71
     3
 72
     8
 73
     4
 74
     0
 42
0.0000000001
 43
0.0000000001
 40
0.0
 40
0.0
 40
0.0
 40
0.0
 40
1.0
 40
1.0
 40
1.0
 40
1.0
 10
-4.44879
 20
-6.16929
 30
0.0
 10
-4.44879
 20
-6.19104
 30
0.0
 10
-4.44443
 20
-6.21257
 30
0.0
 10
-4.43597
 20
-6.23261
 30
0.0
  0
SPLINE
  5
142
330
1F
100
AcDbEntity
  8
0
 62
     8
370
    15
100
AcDbSpline
210
0.0
220
0.0
230
1.0
 70
    24
 71
     3
 72
     8
 73
     4
 74
     0
 42
0.0000000001
 43
0.0000000001
 40
0.0
 40
0.0
 40
0.0
 40
0.0
 40
1.0
 40
1.0
 40
1.0
 40
1.0
 10
-6.6566
 20
-5.71012
 30
0.0
 10
-6.6566
 20
-5.71012
 30
0.0
 10
-6.67557
 20
-5.71012
 30
0.0
 10
-6.67557
 20
-5.71012
 30
0.0
  0
SPLINE
  5
143
330
1F
100
AcDbEntity
  8
0
 62
     8
370
    15
100
AcDbSpline
210
0.0
220
0.0
230
1.0
 70
    24
 71
     3
 72
     8
 73
     4
 74
     0
 42
0.0000000001
 43
0.0000000001
 40
0.0
 40
0.0
 40
0.0
 40
0.0
 40
1.0
 40
1.0
 40
1.0
 40
1.0
 10
-4.44879
 20
-5.71012
 30
0.0
 10
-4.44879
 20
-5.71012
 30
0.0
 10
-4.42982
 20
-5.71012
 30
0.0
 10
-4.42982
 20
-5.71012
 30
0.0
  0
SPLINE
  5
144
330
1F
100
AcDbEntity
  8
0
 62
     8
370
    15
100
AcDbSpline
210
0.0
220
0.0
230
1.0
 70
    24
 71
     3
 72
     8
 73
     4
 74
     0
 42
0.0000000001
 43
0.0000000001
 40
0.0
 40
0.0
 40
0.0
 40
0.0
 40
1.0
 40
1.0
 40
1.0
 40
1.0
 10
-6.6566
 20
-6.16929
 30
0.0
 10
-6.6566
 20
-6.16929
 30
0.0
 10
-6.67557
 20
-6.16929
 30
0.0
 10
-6.67557
 20
-6.16929
 30
0.0
  0
SPLINE
  5
145
330
1F
100
AcDbEntity
  8
0
 62
     8
370
    15
100
AcDbSpline
210
0.0
220
0.0
230
1.0
 70
    24
 71
     3
 72
     8
 73
     4
 74
     0
 42
0.0000000001
 43
0.0000000001
 40
0.0
 40
0.0
 40
0.0
 40
0.0
 40
1.0
 40
1.0
 40
1.0
 40
1.0
 10
-4.44879
 20
-6.16929
 30
0.0
 10
-4.44879
 20
-6.16929
 30
0.0
 10
-4.42982
 20
-6.16929
 30
0.0
 10
-4.42982
 20
-6.16929
 30
0.0
  0
SPLINE
  5
146
330
1F
100
AcDbEntity
  8
0
 62
     8
370
    15
100
AcDbSpline
210
0.0
220
0.0
230
1.0
 70
    24
 71
     3
 72
     8
 73
     4
 74
     0
 42
0.0000000001
 43
0.0000000001
 40
0.0
 40
0.0
 40
0.0
 40
0.0
 40
1.0
 40
1.0
 40
1.0
 40
1.0
 10
-6.70993
 20
-6.27361
 30
0.0
 10
-6.70993
 20
-6.27361
 30
0.0
 10
-6.71529
 20
-6.2685
 30
0.0
 10
-6.71529
 20
-6.2685
 30
0.0
  0
SPLINE
  5
147
330
1F
100
AcDbEntity
  8
0
 62
     8
370
    15
100
AcDbSpline
210
0.0
220
0.0
230
1.0
 70
    24
 71
     3
 72
     8
 73
     4
 74
     0
 42
0.0000000001
 43
0.0000000001
 40
0.0
 40
0.0
 40
0.0
 40
0.0
 40
1.0
 40
1.0
 40
1.0
 40
1.0
 10
-4.39546
 20
-6.27361
 30
0.0
 10
-4.39546
 20
-6.27361
 30
0.0
 10
-4.39011
 20
-6.2685
 30
0.0
 10
-4.39011
 20
-6.2685
 30
0.0
  0
SPLINE
  5
148
330
1F
100
AcDbEntity
  8
0
100
AcDbSpline
210
0.0
220
0.0
230
1.0
 70
    27
 71
     3
 72
    12
 73
     8
 74
     0
 42
0.0000000001
 43
0.0000000001
 40
0.0
 40
0.0
 40
0.0
 40
0.0
 40
0.3333333333333333
 40
0.3333333333333333
 40
0.3333333333333333
 40
0.3333333333333333
 40
1.0
 40
1.0
 40
1.0
 40
1.0
 10
-3.94649
 20
-4.22201
 30
0.0
 10
-3.94649
 20
-4.22201
 30
0.0
 10
-4.27669
 20
-4.27281
 30
0.0
 10
-4.27669
 20
-4.27281
 30
0.0
 10
-4.27669
 20
-4.27281
 30
0.0
 10
-4.27669
 20
-4.27281
 30
0.0
 10
-3.94649
 20
-4.22201
 30
0.0
 10
-3.94649
 20
-4.22201
 30
0.0
  0
SPLINE
  5
149
330
1F
100
AcDbEntity
  8
0
100
AcDbSpline
210
0.0
220
0.0
230
1.0
 70
     8
 71
     3
 72
    12
 73
     8
 74
     0
 42
0.0000000001
 43
0.0000000001
 40
0.0
 40
0.0
 40
0.0
 40
0.0
 40
0.3333333333333333
 40
0.3333333333333333
 40
0.3333333333333333
 40
0.3333333333333333
 40
1.0
 40
1.0
 40
1.0
 40
1.0
 10
-4.27669
 20
-4.27281
 30
0.0
 10
-4.27669
 20
-4.27281
 30
0.0
 10
-4.27669
 20
-4.17121
 30
0.0
 10
-4.27669
 20
-4.17121
 30
0.0
 10
-4.27669
 20
-4.17121
 30
0.0
 10
-4.27669
 20
-4.17121
 30
0.0
 10
-3.94649
 20
-4.22201
 30
0.0
 10
-3.94649
 20
-4.22201
 30
0.0
  0
SPLINE
  5
14A
330
1F
100
AcDbEntity
  8
0
370
     9
100
AcDbSpline
210
0.0
220
0.0
230
1.0
 70
    24
 71
     3
 72
     8
 73
     4
 74
     0
 42
0.0000000001
 43
0.0000000001
 40
0.0
 40
0.0
 40
0.0
 40
0.0
 40
1.0
 40
1.0
 40
1.0
 40
1.0
 10
-3.94649
 20
-4.22201
 30
0.0
 10
-3.94649
 20
-4.22201
 30
0.0
 10
-4.27669
 20
-4.27281
 30
0.0
 10
-4.27669
 20
-4.27281
 30
0.0
  0
SPLINE
  5
14B
330
1F
100
AcDbEntity
  8
0
370
     9
100
AcDbSpline
210
0.0
220
0.0
230
1.0
 70
     8
 71
     3
 72
    12
 73
     8
 74
     0
 42
0.0000000001
 43
0.0000000001
 40
0.0
 40
0.0
 40
0.0
 40
0.0
 40
0.3333333333333333
 40
0.3333333333333333
 40
0.3333333333333333
 40
0.3333333333333333
 40
1.0
 40
1.0
 40
1.0
 40
1.0
 10
-4.27669
 20
-4.27281
 30
0.0
 10
-4.27669
 20
-4.27281
 30
0.0
 10
-4.27669
 20
-4.17121
 30
0.0
 10
-4.27669
 20
-4.17121
 30
0.0
 10
-4.27669
 20
-4.17121
 30
0.0
 10
-4.27669
 20
-4.17121
 30
0.0
 10
-3.94649
 20
-4.22201
 30
0.0
 10
-3.94649
 20
-4.22201
 30
0.0
  0
SPLINE
  5
14C
330
1F
100
AcDbEntity
  8
0
100
AcDbSpline
210
0.0
220
0.0
230
1.0
 70
    27
 71
     3
 72
    12
 73
     8
 74
     0
 42
0.0000000001
 43
0.0000000001
 40
0.0
 40
0.0
 40
0.0
 40
0.0
 40
0.3333333333333333
 40
0.3333333333333333
 40
0.3333333333333333
 40
0.3333333333333333
 40
1.0
 40
1.0
 40
1.0
 40
1.0
 10
-7.1589
 20
-4.22201
 30
0.0
 10
-7.1589
 20
-4.22201
 30
0.0
 10
-6.8287
 20
-4.17121
 30
0.0
 10
-6.8287
 20
-4.17121
 30
0.0
 10
-6.8287
 20
-4.17121
 30
0.0
 10
-6.8287
 20
-4.17121
 30
0.0
 10
-7.1589
 20
-4.22201
 30
0.0
 10
-7.1589
 20
-4.22201
 30
0.0
  0
SPLINE
  5
14D
330
1F
100
AcDbEntity
  8
0
100
AcDbSpline
210
0.0
220
0.0
230
1.0
 70
     8
 71
     3
 72
    12
 73
     8
 74
     0
 42
0.0000000001
 43
0.0000000001
 40
0.0
 40
0.0
 40
0.0
 40
0.0
 40
0.3333333333333333
 40
0.3333333333333333
 40
0.3333333333333333
 40
0.3333333333333333
 40
1.0
 40
1.0
 40
1.0
 40
1.0
 10
-6.8287
 20
-4.17121
 30
0.0
 10
-6.8287
 20
-4.17121
 30
0.0
 10
-6.8287
 20
-4.27281
 30
0.0
 10
-6.8287
 20
-4.27281
 30
0.0
 10
-6.8287
 20
-4.27281
 30
0.0
 10
-6.8287
 20
-4.27281
 30
0.0
 10
-7.1589
 20
-4.22201
 30
0.0
 10
-7.1589
 20
-4.22201
 30
0.0
  0
SPLINE
  5
14E
330
1F
100
AcDbEntity
  8
0
370
     9
100
AcDbSpline
210
0.0
220
0.0
230
1.0
 70
    24
 71
     3
 72
     8
 73
     4
 74
     0
 42
0.0000000001
 43
0.0000000001
 40
0.0
 40
0.0
 40
0.0
 40
0.0
 40
1.0
 40
1.0
 40
1.0
 40
1.0
 10
-7.1589
 20
-4.22201
 30
0.0
 10
-7.1589
 20
-4.22201
 30
0.0
 10
-6.8287
 20
-4.17121
 30
0.0
 10
-6.8287
 20
-4.17121
 30
0.0
  0
SPLINE
  5
14F
330
1F
100
AcDbEntity
  8
0
370
     9
100
AcDbSpline
210
0.0
220
0.0
230
1.0
 70
     8
 71
     3
 72
    12
 73
     8
 74
     0
 42
0.0000000001
 43
0.0000000001
 40
0.0
 40
0.0
 40
0.0
 40
0.0
 40
0.3333333333333333
 40
0.3333333333333333
 40
0.3333333333333333
 40
0.3333333333333333
 40
1.0
 40
1.0
 40
1.0
 40
1.0
 10
-6.8287
 20
-4.17121
 30
0.0
 10
-6.8287
 20
-4.17121
 30
0.0
 10
-6.8287
 20
-4.27281
 30
0.0
 10
-6.8287
 20
-4.27281
 30
0.0
 10
-6.8287
 20
-4.27281
 30
0.0
 10
-6.8287
 20
-4.27281
 30
0.0
 10
-7.1589
 20
-4.22201
 30
0.0
 10
-7.1589
 20
-4.22201
 30
0.0
  0
SPLINE
  5
150
330
1F
100
AcDbEntity
  8
0
370
     9
100
AcDbSpline
210
0.0
220
0.0
230
1.0
 70
    24
 71
     3
 72
     8
 73
     4
 74
     0
 42
0.0000000001
 43
0.0000000001
 40
0.0
 40
0.0
 40
0.0
 40
0.0
 40
1.0
 40
1.0
 40
1.0
 40
1.0
 10
-3.94649
 20
-7.27679
 30
0.0
 10
-3.94649
 20
-7.27679
 30
0.0
 10
-3.94649
 20
-4.12201
 30
0.0
 10
-3.94649
 20
-4.12201
 30
0.0
  0
SPLINE
  5
151
330
1F
100
AcDbEntity
  8
0
370
     9
100
AcDbSpline
210
0.0
220
0.0
230
1.0
 70
    24
 71
     3
 72
     8
 73
     4
 74
     0
 42
0.0000000001
 43
0.0000000001
 40
0.0
 40
0.0
 40
0.0
 40
0.0
 40
1.0
 40
1.0
 40
1.0
 40
1.0
 10
-7.1589
 20
-7.27679
 30
0.0
 10
-7.1589
 20
-7.27679
 30
0.0
 10
-7.1589
 20
-4.12201
 30
0.0
 10
-7.1589
 20
-4.12201
 30
0.0
  0
SPLINE
  5
152
330
1F
100
AcDbEntity
  8
0
370
     9
100
AcDbSpline
210
0.0
220
0.0
230
1.0
 70
    24
 71
     3
 72
     8
 73
     4
 74
     0
 42
0.0000000001
 43
0.0000000001
 40
0.0
 40
0.0
 40
0.0
 40
0.0
 40
1.0
 40
1.0
 40
1.0
 40
1.0
 10
-3.94649
 20
-4.22201
 30
0.0
 10
-3.94649
 20
-4.22201
 30
0.0
 10
-7.1589
 20
-4.22201
 30
0.0
 10
-7.1589
 20
-4.22201
 30
0.0
  0
SPLINE
  5
153
330
1F
100
AcDbEntity
  8
0
100
AcDbSpline
210
0.0
220
0.0
230
1.0
 70
    11
 71
     3
 72
    84
 73
    80
 74
     0
 42
0.0000000001
 43
0.0000000001
 40
0.0
 40
0.0
 40
0.0
 40
0.0
 40
0.0476190476190476
 40
0.0476190476190476
 40
0.0476190476190476
 40
0.0476190476190476
 40
0.0952380952380952
 40
0.0952380952380952
 40
0.0952380952380952
 40
0.0952380952380952
 40
0.1428571428571428
 40
0.1428571428571428
 40
0.1428571428571428
 40
0.1428571428571428
 40
0.1904761904761905
 40
0.1904761904761905
 40
0.1904761904761905
 40
0.1904761904761905
 40
0.2380952380952381
 40
0.2380952380952381
 40
0.2380952380952381
 40
0.2380952380952381
 40
0.2857142857142857
 40
0.2857142857142857
 40
0.2857142857142857
 40
0.2857142857142857
 40
0.3333333333333333
 40
0.3333333333333333
 40
0.3333333333333333
 40
0.3333333333333333
 40
0.3809523809523809
 40
0.3809523809523809
 40
0.3809523809523809
 40
0.3809523809523809
 40
0.4285714285714285
 40
0.4285714285714285
 40
0.4285714285714285
 40
0.4285714285714285
 40
0.4761904761904762
 40
0.4761904761904762
 40
0.4761904761904762
 40
0.4761904761904762
 40
0.5238095238095238
 40
0.5238095238095238
 40
0.5238095238095238
 40
0.5238095238095238
 40
0.5714285714285714
 40
0.5714285714285714
 40
0.5714285714285714
 40
0.5714285714285714
 40
0.6190476190476191
 40
0.6190476190476191
 40
0.6190476190476191
 40
0.6190476190476191
 40
0.6666666666666666
 40
0.6666666666666666
 40
0.6666666666666666
 40
0.6666666666666666
 40
0.7142857142857143
 40
0.7142857142857143
 40
0.7142857142857143
 40
0.7142857142857143
 40
0.7619047619047619
 40
0.7619047619047619
 40
0.7619047619047619
 40
0.7619047619047619
 40
0.8095238095238095
 40
0.8095238095238095
 40
0.8095238095238095
 40
0.8095238095238095
 40
0.8571428571428571
 40
0.8571428571428571
 40
0.8571428571428571
 40
0.8571428571428571
 40
0.9047619047619048
 40
0.9047619047619048
 40
0.9047619047619048
 40
0.9047619047619048
 40
1.0
 40
1.0
 40
1.0
 40
1.0
 10
-6.13699
 20
-3.86008
 30
0.0
 10
-6.13699
 20
-3.86008
 30
0.0
 10
-6.10829
 20
-3.82794
 30
0.0
 10
-6.10829
 20
-3.82794
 30
0.0
 10
-6.10829
 20
-3.82794
 30
0.0
 10
-6.10829
 20
-3.82794
 30
0.0
 10
-6.09138
 20
-3.84229
 30
0.0
 10
-6.09138
 20
-3.84229
 30
0.0
 10
-6.09138
 20
-3.84229
 30
0.0
 10
-6.09138
 20
-3.84229
 30
0.0
 10
-6.12142
 20
-3.87613
 30
0.0
 10
-6.12142
 20
-3.87613
 30
0.0
 10
-6.12142
 20
-3.87613
 30
0.0
 10
-6.11162
 20
-3.89071
 30
0.0
 10
-6.10503
 20
-3.90348
 30
0.0
 10
-6.10159
 20
-3.91439
 30
0.0
 10
-6.10159
 20
-3.91439
 30
0.0
 10
-6.09704
 20
-3.92874
 30
0.0
 10
-6.09476
 20
-3.94484
 30
0.0
 10
-6.09476
 20
-3.96258
 30
0.0
 10
-6.09476
 20
-3.96258
 30
0.0
 10
-6.09476
 20
-3.98824
 30
0.0
 10
-6.09995
 20
-4.01111
 30
0.0
 10
-6.11034
 20
-4.03112
 30
0.0
 10
-6.11034
 20
-4.03112
 30
0.0
 10
-6.12072
 20
-4.05118
 30
0.0
 10
-6.13524
 20
-4.06635
 30
0.0
 10
-6.15397
 20
-4.07662
 30
0.0
 10
-6.15397
 20
-4.07662
 30
0.0
 10
-6.17275
 20
-4.08683
 30
0.0
 10
-6.19264
 20
-4.09196
 30
0.0
 10
-6.2137
 20
-4.09196
 30
0.0
 10
-6.2137
 20
-4.09196
 30
0.0
 10
-6.22945
 20
-4.09196
 30
0.0
 10
-6.24369
 20
-4.08974
 30
0.0
 10
-6.25646
 20
-4.08531
 30
0.0
 10
-6.25646
 20
-4.08531
 30
0.0
 10
-6.26626
 20
-4.08187
 30
0.0
 10
-6.27769
 20
-4.07533
 30
0.0
 10
-6.29082
 20
-4.06565
 30
0.0
 10
-6.29082
 20
-4.06565
 30
0.0
 10
-6.29082
 20
-4.06565
 30
0.0
 10
-6.31952
 20
-4.09779
 30
0.0
 10
-6.31952
 20
-4.09779
 30
0.0
 10
-6.31952
 20
-4.09779
 30
0.0
 10
-6.31952
 20
-4.09779
 30
0.0
 10
-6.33644
 20
-4.08344
 30
0.0
 10
-6.33644
 20
-4.08344
 30
0.0
 10
-6.33644
 20
-4.08344
 30
0.0
 10
-6.33644
 20
-4.08344
 30
0.0
 10
-6.30634
 20
-4.04978
 30
0.0
 10
-6.30634
 20
-4.04978
 30
0.0
 10
-6.30634
 20
-4.04978
 30
0.0
 10
-6.31754
 20
-4.03281
 30
0.0
 10
-6.325
 20
-4.01828
 30
0.0
 10
-6.32874
 20
-4.00627
 30
0.0
 10
-6.32874
 20
-4.00627
 30
0.0
 10
-6.33247
 20
-3.99425
 30
0.0
 10
-6.33439
 20
-3.97978
 30
0.0
 10
-6.33439
 20
-3.96293
 30
0.0
 10
-6.33439
 20
-3.96293
 30
0.0
 10
-6.33439
 20
-3.9372
 30
0.0
 10
-6.32926
 20
-3.91428
 30
0.0
 10
-6.31899
 20
-3.89415
 30
0.0
 10
-6.31899
 20
-3.89415
 30
0.0
 10
-6.30873
 20
-3.87403
 30
0.0
 10
-6.29438
 20
-3.8588
 30
0.0
 10
-6.27583
 20
-3.84842
 30
0.0
 10
-6.27583
 20
-3.84842
 30
0.0
 10
-6.25734
 20
-3.83809
 30
0.0
 10
-6.23674
 20
-3.8329
 30
0.0
 10
-6.21405
 20
-3.8329
 30
0.0
 10
-6.21405
 20
-3.8329
 30
0.0
 10
-6.19877
 20
-3.8329
 30
0.0
 10
-6.18541
 20
-3.83488
 30
0.0
 10
-6.17398
 20
-3.83897
 30
0.0
 10
-6.17398
 20
-3.83897
 30
0.0
 10
-6.16254
 20
-3.84299
 30
0.0
 10
-6.15018
 20
-3.85005
 30
0.0
 10
-6.13699
 20
-3.86008
 30
0.0
  0
SPLINE
  5
154
330
1F
100
AcDbEntity
  8
0
100
AcDbSpline
210
0.0
220
0.0
230
1.0
 70
    11
 71
     3
 72
    32
 73
    28
 74
     0
 42
0.0000000001
 43
0.0000000001
 40
0.0
 40
0.0
 40
0.0
 40
0.0
 40
0.125
 40
0.125
 40
0.125
 40
0.125
 40
0.25
 40
0.25
 40
0.25
 40
0.25
 40
0.375
 40
0.375
 40
0.375
 40
0.375
 40
0.5
 40
0.5
 40
0.5
 40
0.5
 40
0.625
 40
0.625
 40
0.625
 40
0.625
 40
0.75
 40
0.75
 40
0.75
 40
0.75
 40
1.0
 40
1.0
 40
1.0
 40
1.0
 10
-6.15747
 20
-3.88313
 30
0.0
 10
-6.1682
 20
-3.87473
 30
0.0
 10
-6.17759
 20
-3.86895
 30
0.0
 10
-6.18559
 20
-3.86586
 30
0.0
 10
-6.18559
 20
-3.86586
 30
0.0
 10
-6.19364
 20
-3.86283
 30
0.0
 10
-6.20309
 20
-3.86125
 30
0.0
 10
-6.21388
 20
-3.86125
 30
0.0
 10
-6.21388
 20
-3.86125
 30
0.0
 10
-6.23884
 20
-3.86125
 30
0.0
 10
-6.25944
 20
-3.86971
 30
0.0
 10
-6.27577
 20
-3.88663
 30
0.0
 10
-6.27577
 20
-3.88663
 30
0.0
 10
-6.29204
 20
-3.90354
 30
0.0
 10
-6.30021
 20
-3.9288
 30
0.0
 10
-6.30021
 20
-3.96246
 30
0.0
 10
-6.30021
 20
-3.96246
 30
0.0
 10
-6.30021
 20
-3.97564
 30
0.0
 10
-6.29893
 20
-3.98737
 30
0.0
 10
-6.29642
 20
-3.99763
 30
0.0
 10
-6.29642
 20
-3.99763
 30
0.0
 10
-6.29461
 20
-4.00528
 30
0.0
 10
-6.29082
 20
-4.01467
 30
0.0
 10
-6.28499
 20
-4.02581
 30
0.0
 10
-6.28499
 20
-4.02581
 30
0.0
 10
-6.28499
 20
-4.02581
 30
0.0
 10
-6.15747
 20
-3.88313
 30
0.0
 10
-6.15747
 20
-3.88313
 30
0.0
  0
SPLINE
  5
155
330
1F
100
AcDbEntity
  8
0
100
AcDbSpline
210
0.0
220
0.0
230
1.0
 70
    11
 71
     3
 72
    28
 73
    24
 74
     0
 42
0.0000000001
 43
0.0000000001
 40
0.0
 40
0.0
 40
0.0
 40
0.0
 40
0.1428571428571428
 40
0.1428571428571428
 40
0.1428571428571428
 40
0.1428571428571428
 40
0.2857142857142857
 40
0.2857142857142857
 40
0.2857142857142857
 40
0.2857142857142857
 40
0.4285714285714285
 40
0.4285714285714285
 40
0.4285714285714285
 40
0.4285714285714285
 40
0.5714285714285714
 40
0.5714285714285714
 40
0.5714285714285714
 40
0.5714285714285714
 40
0.7142857142857143
 40
0.7142857142857143
 40
0.7142857142857143
 40
0.7142857142857143
 40
1.0
 40
1.0
 40
1.0
 40
1.0
 10
-6.14347
 20
-3.90074
 30
0.0
 10
-6.14347
 20
-3.90074
 30
0.0
 10
-6.27046
 20
-4.0429
 30
0.0
 10
-6.27046
 20
-4.0429
 30
0.0
 10
-6.27046
 20
-4.0429
 30
0.0
 10
-6.26171
 20
-4.05008
 30
0.0
 10
-6.2536
 20
-4.05509
 30
0.0
 10
-6.24619
 20
-4.05795
 30
0.0
 10
-6.24619
 20
-4.05795
 30
0.0
 10
-6.23651
 20
-4.06174
 30
0.0
 10
-6.22601
 20
-4.06361
 30
0.0
 10
-6.21475
 20
-4.06361
 30
0.0
 10
-6.21475
 20
-4.06361
 30
0.0
 10
-6.1899
 20
-4.06361
 30
0.0
 10
-6.16943
 20
-4.05486
 30
0.0
 10
-6.15321
 20
-4.0373
 30
0.0
 10
-6.15321
 20
-4.0373
 30
0.0
 10
-6.13705
 20
-4.01974
 30
0.0
 10
-6.12894
 20
-3.99513
 30
0.0
 10
-6.12894
 20
-3.96345
 30
0.0
 10
-6.12894
 20
-3.96345
 30
0.0
 10
-6.12894
 20
-3.93977
 30
0.0
 10
-6.13379
 20
-3.91883
 30
0.0
 10
-6.14347
 20
-3.90074
 30
0.0
  0
SPLINE
  5
156
330
1F
100
AcDbEntity
  8
0
100
AcDbSpline
210
0.0
220
0.0
230
1.0
 70
    11
 71
     3
 72
    92
 73
    88
 74
     0
 42
0.0000000001
 43
0.0000000001
 40
0.0
 40
0.0
 40
0.0
 40
0.0
 40
0.0434782608695652
 40
0.0434782608695652
 40
0.0434782608695652
 40
0.0434782608695652
 40
0.0869565217391304
 40
0.0869565217391304
 40
0.0869565217391304
 40
0.0869565217391304
 40
0.1304347826086956
 40
0.1304347826086956
 40
0.1304347826086956
 40
0.1304347826086956
 40
0.1739130434782609
 40
0.1739130434782609
 40
0.1739130434782609
 40
0.1739130434782609
 40
0.2173913043478261
 40
0.2173913043478261
 40
0.2173913043478261
 40
0.2173913043478261
 40
0.2608695652173913
 40
0.2608695652173913
 40
0.2608695652173913
 40
0.2608695652173913
 40
0.3043478260869565
 40
0.3043478260869565
 40
0.3043478260869565
 40
0.3043478260869565
 40
0.3478260869565217
 40
0.3478260869565217
 40
0.3478260869565217
 40
0.3478260869565217
 40
0.391304347826087
 40
0.391304347826087
 40
0.391304347826087
 40
0.391304347826087
 40
0.4347826086956522
 40
0.4347826086956522
 40
0.4347826086956522
 40
0.4347826086956522
 40
0.4782608695652174
 40
0.4782608695652174
 40
0.4782608695652174
 40
0.4782608695652174
 40
0.5217391304347826
 40
0.5217391304347826
 40
0.5217391304347826
 40
0.5217391304347826
 40
0.5652173913043478
 40
0.5652173913043478
 40
0.5652173913043478
 40
0.5652173913043478
 40
0.6086956521739131
 40
0.6086956521739131
 40
0.6086956521739131
 40
0.6086956521739131
 40
0.6521739130434783
 40
0.6521739130434783
 40
0.6521739130434783
 40
0.6521739130434783
 40
0.6956521739130435
 40
0.6956521739130435
 40
0.6956521739130435
 40
0.6956521739130435
 40
0.7391304347826086
 40
0.7391304347826086
 40
0.7391304347826086
 40
0.7391304347826086
 40
0.782608695652174
 40
0.782608695652174
 40
0.782608695652174
 40
0.782608695652174
 40
0.8260869565217391
 40
0.8260869565217391
 40
0.8260869565217391
 40
0.8260869565217391
 40
0.8695652173913043
 40
0.8695652173913043
 40
0.8695652173913043
 40
0.8695652173913043
 40
0.9130434782608695
 40
0.9130434782608695
 40
0.9130434782608695
 40
0.9130434782608695
 40
1.0
 40
1.0
 40
1.0
 40
1.0
 10
-5.80363
 20
-4.02444
 30
0.0
 10
-5.80363
 20
-4.02444
 30
0.0
 10
-5.77405
 20
-4.02169
 30
0.0
 10
-5.77405
 20
-4.02169
 30
0.0
 10
-5.77405
 20
-4.02169
 30
0.0
 10
-5.77154
 20
-4.03558
 30
0.0
 10
-5.76676
 20
-4.04567
 30
0.0
 10
-5.7597
 20
-4.05197
 30
0.0
 10
-5.7597
 20
-4.05197
 30
0.0
 10
-5.75264
 20
-4.05821
 30
0.0
 10
-5.7436
 20
-4.06136
 30
0.0
 10
-5.73252
 20
-4.06136
 30
0.0
 10
-5.73252
 20
-4.06136
 30
0.0
 10
-5.72307
 20
-4.06136
 30
0.0
 10
-5.71479
 20
-4.0592
 30
0.0
 10
-5.70767
 20
-4.05483
 30
0.0
 10
-5.70767
 20
-4.05483
 30
0.0
 10
-5.70055
 20
-4.05051
 30
0.0
 10
-5.69472
 20
-4.04474
 30
0.0
 10
-5.69017
 20
-4.0375
 30
0.0
 10
-5.69017
 20
-4.0375
 30
0.0
 10
-5.68556
 20
-4.03027
 30
0.0
 10
-5.68177
 20
-4.02047
 30
0.0
 10
-5.67868
 20
-4.00822
 30
0.0
 10
-5.67868
 20
-4.00822
 30
0.0
 10
-5.67564
 20
-3.99591
 30
0.0
 10
-5.67407
 20
-3.98337
 30
0.0
 10
-5.67407
 20
-3.97059
 30
0.0
 10
-5.67407
 20
-3.97059
 30
0.0
 10
-5.67407
 20
-3.96925
 30
0.0
 10
-5.67413
 20
-3.96715
 30
0.0
 10
-5.67424
 20
-3.96447
 30
0.0
 10
-5.67424
 20
-3.96447
 30
0.0
 10
-5.68043
 20
-3.97421
 30
0.0
 10
-5.68883
 20
-3.9822
 30
0.0
 10
-5.69944
 20
-3.98827
 30
0.0
 10
-5.69944
 20
-3.98827
 30
0.0
 10
-5.71012
 20
-3.99439
 30
0.0
 10
-5.72167
 20
-3.99743
 30
0.0
 10
-5.73404
 20
-3.99743
 30
0.0
 10
-5.73404
 20
-3.99743
 30
0.0
 10
-5.7548
 20
-3.99743
 30
0.0
 10
-5.77236
 20
-3.9899
 30
0.0
 10
-5.78671
 20
-3.97485
 30
0.0
 10
-5.78671
 20
-3.97485
 30
0.0
 10
-5.80106
 20
-3.9598
 30
0.0
 10
-5.80824
 20
-3.94003
 30
0.0
 10
-5.80824
 20
-3.91541
 30
0.0
 10
-5.80824
 20
-3.91541
 30
0.0
 10
-5.80824
 20
-3.88998
 30
0.0
 10
-5.80077
 20
-3.86956
 30
0.0
 10
-5.78578
 20
-3.85404
 30
0.0
 10
-5.78578
 20
-3.85404
 30
0.0
 10
-5.77079
 20
-3.83853
 30
0.0
 10
-5.752
 20
-3.83077
 30
0.0
 10
-5.72943
 20
-3.83077
 30
0.0
 10
-5.72943
 20
-3.83077
 30
0.0
 10
-5.71315
 20
-3.83077
 30
0.0
 10
-5.69828
 20
-3.8352
 30
0.0
 10
-5.68474
 20
-3.84395
 30
0.0
 10
-5.68474
 20
-3.84395
 30
0.0
 10
-5.67127
 20
-3.8527
 30
0.0
 10
-5.661
 20
-3.86524
 30
0.0
 10
-5.654
 20
-3.88146
 30
0.0
 10
-5.654
 20
-3.88146
 30
0.0
 10
-5.647
 20
-3.89768
 30
0.0
 10
-5.6435
 20
-3.92119
 30
0.0
 10
-5.6435
 20
-3.95199
 30
0.0
 10
-5.6435
 20
-3.95199
 30
0.0
 10
-5.6435
 20
-3.98395
 30
0.0
 10
-5.64694
 20
-4.00944
 30
0.0
 10
-5.65389
 20
-4.02846
 30
0.0
 10
-5.65389
 20
-4.02846
 30
0.0
 10
-5.66089
 20
-4.04742
 30
0.0
 10
-5.67121
 20
-4.06183
 30
0.0
 10
-5.68492
 20
-4.07174
 30
0.0
 10
-5.68492
 20
-4.07174
 30
0.0
 10
-5.69869
 20
-4.08166
 30
0.0
 10
-5.71473
 20
-4.08662
 30
0.0
 10
-5.73322
 20
-4.08662
 30
0.0
 10
-5.73322
 20
-4.08662
 30
0.0
 10
-5.75282
 20
-4.08662
 30
0.0
 10
-5.7688
 20
-4.08119
 30
0.0
 10
-5.78123
 20
-4.07029
 30
0.0
 10
-5.78123
 20
-4.07029
 30
0.0
 10
-5.79365
 20
-4.05944
 30
0.0
 10
-5.80112
 20
-4.04415
 30
0.0
 10
-5.80363
 20
-4.02444
 30
0.0
  0
SPLINE
  5
157
330
1F
100
AcDbEntity
  8
0
100
AcDbSpline
210
0.0
220
0.0
230
1.0
 70
    11
 71
     3
 72
    36
 73
    32
 74
     0
 42
0.0000000001
 43
0.0000000001
 40
0.0
 40
0.0
 40
0.0
 40
0.0
 40
0.1111111111111111
 40
0.1111111111111111
 40
0.1111111111111111
 40
0.1111111111111111
 40
0.2222222222222222
 40
0.2222222222222222
 40
0.2222222222222222
 40
0.2222222222222222
 40
0.3333333333333333
 40
0.3333333333333333
 40
0.3333333333333333
 40
0.3333333333333333
 40
0.4444444444444444
 40
0.4444444444444444
 40
0.4444444444444444
 40
0.4444444444444444
 40
0.5555555555555556
 40
0.5555555555555556
 40
0.5555555555555556
 40
0.5555555555555556
 40
0.6666666666666666
 40
0.6666666666666666
 40
0.6666666666666666
 40
0.6666666666666666
 40
0.7777777777777778
 40
0.7777777777777778
 40
0.7777777777777778
 40
0.7777777777777778
 40
1.0
 40
1.0
 40
1.0
 40
1.0
 10
-5.67769
 20
-3.91384
 30
0.0
 10
-5.67769
 20
-3.89622
 30
0.0
 10
-5.68235
 20
-3.88216
 30
0.0
 10
-5.69174
 20
-3.87184
 30
0.0
 10
-5.69174
 20
-3.87184
 30
0.0
 10
-5.70119
 20
-3.86145
 30
0.0
 10
-5.71245
 20
-3.85626
 30
0.0
 10
-5.72569
 20
-3.85626
 30
0.0
 10
-5.72569
 20
-3.85626
 30
0.0
 10
-5.73934
 20
-3.85626
 30
0.0
 10
-5.75124
 20
-3.86186
 30
0.0
 10
-5.76139
 20
-3.873
 30
0.0
 10
-5.76139
 20
-3.873
 30
0.0
 10
-5.77154
 20
-3.8842
 30
0.0
 10
-5.77662
 20
-3.89867
 30
0.0
 10
-5.77662
 20
-3.9164
 30
0.0
 10
-5.77662
 20
-3.9164
 30
0.0
 10
-5.77662
 20
-3.93239
 30
0.0
 10
-5.77178
 20
-3.94534
 30
0.0
 10
-5.76215
 20
-3.95531
 30
0.0
 10
-5.76215
 20
-3.95531
 30
0.0
 10
-5.75253
 20
-3.96529
 30
0.0
 10
-5.74069
 20
-3.97024
 30
0.0
 10
-5.72657
 20
-3.97024
 30
0.0
 10
-5.72657
 20
-3.97024
 30
0.0
 10
-5.71228
 20
-3.97024
 30
0.0
 10
-5.70061
 20
-3.96529
 30
0.0
 10
-5.69145
 20
-3.95531
 30
0.0
 10
-5.69145
 20
-3.95531
 30
0.0
 10
-5.68224
 20
-3.94534
 30
0.0
 10
-5.67769
 20
-3.93151
 30
0.0
 10
-5.67769
 20
-3.91384
 30
0.0
  0
SPLINE
  5
158
330
1F
100
AcDbEntity
  8
0
100
AcDbSpline
210
0.0
220
0.0
230
1.0
 70
    11
 71
     3
 72
    80
 73
    76
 74
     0
 42
0.0000000001
 43
0.0000000001
 40
0.0
 40
0.0
 40
0.0
 40
0.0
 40
0.05
 40
0.05
 40
0.05
 40
0.05
 40
0.1
 40
0.1
 40
0.1
 40
0.1
 40
0.15
 40
0.15
 40
0.15
 40
0.15
 40
0.2
 40
0.2
 40
0.2
 40
0.2
 40
0.25
 40
0.25
 40
0.25
 40
0.25
 40
0.3
 40
0.3
 40
0.3
 40
0.3
 40
0.35
 40
0.35
 40
0.35
 40
0.35
 40
0.4
 40
0.4
 40
0.4
 40
0.4
 40
0.45
 40
0.45
 40
0.45
 40
0.45
 40
0.5
 40
0.5
 40
0.5
 40
0.5
 40
0.55
 40
0.55
 40
0.55
 40
0.55
 40
0.6
 40
0.6
 40
0.6
 40
0.6
 40
0.65
 40
0.65
 40
0.65
 40
0.65
 40
0.7
 40
0.7
 40
0.7
 40
0.7
 40
0.75
 40
0.75
 40
0.75
 40
0.75
 40
0.8
 40
0.8
 40
0.8
 40
0.8
 40
0.85
 40
0.85
 40
0.85
 40
0.85
 40
0.9
 40
0.9
 40
0.9
 40
0.9
 40
1.0
 40
1.0
 40
1.0
 40
1.0
 10
-5.45398
 20
-3.89319
 30
0.0
 10
-5.45398
 20
-3.89319
 30
0.0
 10
-5.48454
 20
-3.89558
 30
0.0
 10
-5.48454
 20
-3.89558
 30
0.0
 10
-5.48454
 20
-3.89558
 30
0.0
 10
-5.48728
 20
-3.8835
 30
0.0
 10
-5.49113
 20
-3.87469
 30
0.0
 10
-5.49615
 20
-3.86927
 30
0.0
 10
-5.49615
 20
-3.86927
 30
0.0
 10
-5.50449
 20
-3.86046
 30
0.0
 10
-5.51476
 20
-3.85609
 30
0.0
 10
-5.52695
 20
-3.85609
 30
0.0
 10
-5.52695
 20
-3.85609
 30
0.0
 10
-5.53675
 20
-3.85609
 30
0.0
 10
-5.54533
 20
-3.85883
 30
0.0
 10
-5.55273
 20
-3.86431
 30
0.0
 10
-5.55273
 20
-3.86431
 30
0.0
 10
-5.56242
 20
-3.87137
 30
0.0
 10
-5.57006
 20
-3.88169
 30
0.0
 10
-5.57566
 20
-3.89523
 30
0.0
 10
-5.57566
 20
-3.89523
 30
0.0
 10
-5.5812
 20
-3.90876
 30
0.0
 10
-5.58412
 20
-3.92807
 30
0.0
 10
-5.58435
 20
-3.95315
 30
0.0
 10
-5.58435
 20
-3.95315
 30
0.0
 10
-5.57694
 20
-3.94189
 30
0.0
 10
-5.5679
 20
-3.93349
 30
0.0
 10
-5.55717
 20
-3.92801
 30
0.0
 10
-5.55717
 20
-3.92801
 30
0.0
 10
-5.54649
 20
-3.92259
 30
0.0
 10
-5.53523
 20
-3.91984
 30
0.0
 10
-5.52351
 20
-3.91984
 30
0.0
 10
-5.52351
 20
-3.91984
 30
0.0
 10
-5.50298
 20
-3.91984
 30
0.0
 10
-5.48553
 20
-3.92737
 30
0.0
 10
-5.47113
 20
-3.94248
 30
0.0
 10
-5.47113
 20
-3.94248
 30
0.0
 10
-5.45672
 20
-3.95759
 30
0.0
 10
-5.44948
 20
-3.97707
 30
0.0
 10
-5.44948
 20
-4.00099
 30
0.0
 10
-5.44948
 20
-4.00099
 30
0.0
 10
-5.44948
 20
-4.01674
 30
0.0
 10
-5.45293
 20
-4.03132
 30
0.0
 10
-5.45969
 20
-4.04485
 30
0.0
 10
-5.45969
 20
-4.04485
 30
0.0
 10
-5.46646
 20
-4.05833
 30
0.0
 10
-5.47579
 20
-4.06871
 30
0.0
 10
-5.48763
 20
-4.07589
 30
0.0
 10
-5.48763
 20
-4.07589
 30
0.0
 10
-5.49948
 20
-4.08306
 30
0.0
 10
-5.51289
 20
-4.08662
 30
0.0
 10
-5.52794
 20
-4.08662
 30
0.0
 10
-5.52794
 20
-4.08662
 30
0.0
 10
-5.55361
 20
-4.08662
 30
0.0
 10
-5.57449
 20
-4.07723
 30
0.0
 10
-5.59065
 20
-4.05833
 30
0.0
 10
-5.59065
 20
-4.05833
 30
0.0
 10
-5.60687
 20
-4.03949
 30
0.0
 10
-5.61492
 20
-4.00839
 30
0.0
 10
-5.61492
 20
-3.96511
 30
0.0
 10
-5.61492
 20
-3.96511
 30
0.0
 10
-5.61492
 20
-3.91669
 30
0.0
 10
-5.60599
 20
-3.88152
 30
0.0
 10
-5.58808
 20
-3.85953
 30
0.0
 10
-5.58808
 20
-3.85953
 30
0.0
 10
-5.57251
 20
-3.84039
 30
0.0
 10
-5.55151
 20
-3.83077
 30
0.0
 10
-5.52503
 20
-3.83077
 30
0.0
 10
-5.52503
 20
-3.83077
 30
0.0
 10
-5.50537
 20
-3.83077
 30
0.0
 10
-5.48921
 20
-3.83631
 30
0.0
 10
-5.47661
 20
-3.84739
 30
0.0
 10
-5.47661
 20
-3.84739
 30
0.0
 10
-5.46401
 20
-3.85842
 30
0.0
 10
-5.45648
 20
-3.8737
 30
0.0
 10
-5.45398
 20
-3.89319
 30
0.0
  0
SPLINE
  5
159
330
1F
100
AcDbEntity
  8
0
100
AcDbSpline
210
0.0
220
0.0
230
1.0
 70
    11
 71
     3
 72
    40
 73
    36
 74
     0
 42
0.0000000001
 43
0.0000000001
 40
0.0
 40
0.0
 40
0.0
 40
0.0
 40
0.1
 40
0.1
 40
0.1
 40
0.1
 40
0.2
 40
0.2
 40
0.2
 40
0.2
 40
0.3
 40
0.3
 40
0.3
 40
0.3
 40
0.4
 40
0.4
 40
0.4
 40
0.4
 40
0.5
 40
0.5
 40
0.5
 40
0.5
 40
0.6
 40
0.6
 40
0.6
 40
0.6
 40
0.7
 40
0.7
 40
0.7
 40
0.7
 40
0.8
 40
0.8
 40
0.8
 40
0.8
 40
1.0
 40
1.0
 40
1.0
 40
1.0
 10
-5.57957
 20
-4.00116
 30
0.0
 10
-5.57957
 20
-4.01178
 30
0.0
 10
-5.57729
 20
-4.02193
 30
0.0
 10
-5.5728
 20
-4.03161
 30
0.0
 10
-5.5728
 20
-4.03161
 30
0.0
 10
-5.56831
 20
-4.04129
 30
0.0
 10
-5.56201
 20
-4.04864
 30
0.0
 10
-5.55396
 20
-4.05372
 30
0.0
 10
-5.55396
 20
-4.05372
 30
0.0
 10
-5.54585
 20
-4.05879
 30
0.0
 10
-5.53733
 20
-4.06136
 30
0.0
 10
-5.52847
 20
-4.06136
 30
0.0
 10
-5.52847
 20
-4.06136
 30
0.0
 10
-5.51546
 20
-4.06136
 30
0.0
 10
-5.50432
 20
-4.05611
 30
0.0
 10
-5.49498
 20
-4.04561
 30
0.0
 10
-5.49498
 20
-4.04561
 30
0.0
 10
-5.48565
 20
-4.03511
 30
0.0
 10
-5.48098
 20
-4.02088
 30
0.0
 10
-5.48098
 20
-4.00291
 30
0.0
 10
-5.48098
 20
-4.00291
 30
0.0
 10
-5.48098
 20
-3.98559
 30
0.0
 10
-5.48559
 20
-3.97194
 30
0.0
 10
-5.49481
 20
-3.96196
 30
0.0
 10
-5.49481
 20
-3.96196
 30
0.0
 10
-5.50403
 20
-3.95199
 30
0.0
 10
-5.51563
 20
-3.94703
 30
0.0
 10
-5.52963
 20
-3.94703
 30
0.0
 10
-5.52963
 20
-3.94703
 30
0.0
 10
-5.54358
 20
-3.94703
 30
0.0
 10
-5.55536
 20
-3.95199
 30
0.0
 10
-5.56504
 20
-3.96196
 30
0.0
 10
-5.56504
 20
-3.96196
 30
0.0
 10
-5.57473
 20
-3.97194
 30
0.0
 10
-5.57957
 20
-3.985
 30
0.0
 10
-5.57957
 20
-4.00116
 30
0.0
  0
ENDSEC
  0
SECTION
  2
OBJECTS
  0
DICTIONARY
  5
C
330
0
100
AcDbDictionary
281
     1
  3
ACAD_GROUP
350
D
  3
ACAD_LAYOUT
350
1A
  3
ACAD_MATERIAL
350
3B
  3
ACAD_MLEADERSTYLE
350
17B
  3
ACAD_MLINESTYLE
350
17
  3
ACAD_PLOTSETTINGS
350
19
  3
ACAD_PLOTSTYLENAME
350
E
  3
ACAD_TABLESTYLE
350
17A
  3
ACAD_VISUALSTYLE
350
2A
  0
DICTIONARY
  5
D
102
{ACAD_REACTORS
330
C
102
}
330
C
100
AcDbDictionary
281
     1
  0
DICTIONARY
  5
1A
102
{ACAD_REACTORS
330
C
102
}
330
C
100
AcDbDictionary
281
     1
  3
Layout1
350
1E
  3
Layout2
350
26
  3
Model
350
22
  0
DICTIONARY
  5
3B
102
{ACAD_REACTORS
330
C
102
}
330
C
100
AcDbDictionary
281
     1
  3
ByBlock
350
3D
  3
ByLayer
350
3C
  3
Global
350
3E
  0
DICTIONARY
  5
17B
102
{ACAD_REACTORS
330
C
102
}
330
C
100
AcDbDictionary
281
     1
  0
DICTIONARY
  5
17
102
{ACAD_REACTORS
330
C
102
}
330
C
100
AcDbDictionary
281
     1
  3
Standard
350
18
  0
DICTIONARY
  5
19
102
{ACAD_REACTORS
330
C
102
}
330
C
100
AcDbDictionary
281
     1
  0
ACDBDICTIONARYWDFLT
  5
E
102
{ACAD_REACTORS
330
C
102
}
330
C
100
AcDbDictionary
281
     1
  3
Normal
350
F
100
AcDbDictionaryWithDefault
340
F
  0
DICTIONARY
  5
17A
102
{ACAD_REACTORS
330
C
102
}
330
C
100
AcDbDictionary
281
     1
  0
DICTIONARY
  5
2A
102
{ACAD_REACTORS
330
C
102
}
330
C
100
AcDbDictionary
281
     1
  3
2dWireframe
350
2F
  3
3D Hidden
350
31
  3
3dWireframe
350
30
  3
Basic
350
32
  3
Brighten
350
36
  3
ColorChange
350
3A
  3
Conceptual
350
34
  3
Dim
350
35
  3
Facepattern
350
39
  3
Flat
350
2B
  3
FlatWithEdges
350
2C
  3
Gouraud
350
2D
  3
GouraudWithEdges
350
2E
  3
Linepattern
350
38
  3
Realistic
350
33
  3
Thicken
350
37
  0
LAYOUT
  5
1E
102
{ACAD_REACTORS
330
1A
102
}
330
1A
100
AcDbPlotSettings
  1

  2
none_device
  4

  6

 40
0.0
 41
0.0
 42
0.0
 43
0.0
 44
0.0
 45
0.0
 46
0.0
 47
0.0
 48
0.0
 49
0.0
140
0.0
141
0.0
142
1.0
143
1.0
 70
   688
 72
     0
 73
     0
 74
     5
  7

 75
    16
 76
     0
 77
     2
 78
   300
147
1.0
148
0.0
149
0.0
100
AcDbLayout
  1
Layout1
 70
     1
 71
     1
 10
0.0
 20
0.0
 11
12.0
 21
9.0
 12
0.0
 22
0.0
 32
0.0
 14
1.000000000000000E+20
 24
1.000000000000000E+20
 34
1.000000000000000E+20
 15
-1.000000000000000E+20
 25
-1.000000000000000E+20
 35
-1.000000000000000E+20
146
0.0
 13
0.0
 23
0.0
 33
0.0
 16
1.0
 26
0.0
 36
0.0
 17
0.0
 27
1.0
 37
0.0
 76
     0
330
1B
  0
LAYOUT
  5
26
102
{ACAD_REACTORS
330
1A
102
}
330
1A
100
AcDbPlotSettings
  1

  2
none_device
  4

  6

 40
0.0
 41
0.0
 42
0.0
 43
0.0
 44
0.0
 45
0.0
 46
0.0
 47
0.0
 48
0.0
 49
0.0
140
0.0
141
0.0
142
1.0
143
1.0
 70
   688
 72
     0
 73
     0
 74
     5
  7

 75
    16
 76
     0
 77
     2
 78
   300
147
1.0
148
0.0
149
0.0
100
AcDbLayout
  1
Layout2
 70
     1
 71
     2
 10
0.0
 20
0.0
 11
0.0
 21
0.0
 12
0.0
 22
0.0
 32
0.0
 14
0.0
 24
0.0
 34
0.0
 15
0.0
 25
0.0
 35
0.0
146
0.0
 13
0.0
 23
0.0
 33
0.0
 16
1.0
 26
0.0
 36
0.0
 17
0.0
 27
1.0
 37
0.0
 76
     0
330
23
  0
LAYOUT
  5
22
102
{ACAD_REACTORS
330
1A
102
}
330
1A
100
AcDbPlotSettings
  1

  2
none_device
  4

  6

 40
0.0
 41
0.0
 42
0.0
 43
0.0
 44
0.0
 45
0.0
 46
0.0
 47
0.0
 48
0.0
 49
0.0
140
0.0
141
0.0
142
1.0
143
1.0
 70
  1712
 72
     0
 73
     0
 74
     0
  7

 75
     0
 76
     0
 77
     2
 78
   300
147
1.0
148
0.0
149
0.0
100
AcDbLayout
  1
Model
 70
     1
 71
     0
 10
0.0
 20
0.0
 11
12.0
 21
9.0
 12
0.0
 22
0.0
 32
0.0
 14
-8.81563
 24
-8.9905
 34
0.0
 15
5.03997
 25
12.50883
 35
0.0
146
0.0
 13
0.0
 23
0.0
 33
0.0
 16
1.0
 26
0.0
 36
0.0
 17
0.0
 27
1.0
 37
0.0
 76
     0
330
1F
331
29
  0
MATERIAL
  5
3D
102
{ACAD_REACTORS
330
3B
102
}
330
3B
100
AcDbMaterial
  1
ByBlock
 72
     1
 94
      127
  0
MATERIAL
  5
3C
102
{ACAD_REACTORS
330
3B
102
}
330
3B
100
AcDbMaterial
  1
ByLayer
 72
     1
 94
      127
  0
MATERIAL
  5
3E
102
{ACAD_REACTORS
330
3B
102
}
330
3B
100
AcDbMaterial
  1
Global
 72
     1
 94
      127
  0
MLINESTYLE
  5
18
102
{ACAD_REACTORS
330
17
102
}
330
17
100
AcDbMlineStyle
  2
Standard
 70
     0
  3

 62
   256
 51
90.0
 52
90.0
 71
     2
 49
0.5
 62
   256
  6
BYLAYER
 49
-0.5
 62
   256
  6
BYLAYER
  0
ACDBPLACEHOLDER
  5
F
102
{ACAD_REACTORS
330
E
102
}
330
E
  0
VISUALSTYLE
  5
2F
102
{ACAD_REACTORS
330
2A
102
}
102
{ACAD_XDICTIONARY
360
162
102
}
330
2A
100
AcDbVisualStyle
  2
2dWireframe
 70
     4
 71
     0
 72
     2
 73
     0
 90
        0
 40
-0.6
 41
-30.0
 62
     5
 63
     7
421
 16777215
 74
     1
 91
        4
 64
     7
 65
   257
 75
     1
175
     1
 42
1.0
 92
        0
 66
   257
 43
1.0
 76
     1
 77
     6
 78
     2
 67
     7
 79
     5
170
     0
171
     0
290
     0
174
     0
 93
        1
 44
0.0
173
     0
291
     0
 45
0.0
  0
VISUALSTYLE
  5
31
102
{ACAD_REACTORS
330
2A
102
}
102
{ACAD_XDICTIONARY
360
166
102
}
330
2A
100
AcDbVisualStyle
  2
3D Hidden
 70
     6
 71
     1
 72
     2
 73
     2
 90
        0
 40
-0.6
 41
-30.0
 62
     5
 63
     7
421
 16777215
 74
     2
 91
        2
 64
     7
 65
   257
 75
     2
175
     1
 42
40.0
 92
        0
 66
   257
 43
1.0
 76
     1
 77
     6
 78
     2
 67
     7
 79
     3
170
     0
171
     0
290
     0
174
     0
 93
        1
 44
0.0
173
     0
291
     0
 45
0.0
  0
VISUALSTYLE
  5
30
102
{ACAD_REACTORS
330
2A
102
}
102
{ACAD_XDICTIONARY
360
164
102
}
330
2A
100
AcDbVisualStyle
  2
3dWireframe
 70
     5
 71
     0
 72
     2
 73
     0
 90
        0
 40
-0.6
 41
-30.0
 62
     5
 63
     7
421
 16777215
 74
     1
 91
        4
 64
     7
 65
   257
 75
     1
175
     1
 42
1.0
 92
        0
 66
   257
 43
1.0
 76
     1
 77
     6
 78
     2
 67
     7
 79
     5
170
     0
171
     0
290
     0
174
     0
 93
        1
 44
0.0
173
     0
291
     0
 45
0.0
  0
VISUALSTYLE
  5
32
102
{ACAD_REACTORS
330
2A
102
}
102
{ACAD_XDICTIONARY
360
168
102
}
330
2A
100
AcDbVisualStyle
  2
Basic
 70
     7
 71
     1
 72
     0
 73
     1
 90
        0
 40
-0.6
 41
-30.0
 62
     5
 63
     7
421
 16777215
 74
     0
 91
        4
 64
     7
 65
   257
 75
     1
175
     1
 42
1.0
 92
        8
 66
     7
 43
1.0
 76
     1
 77
     6
 78
     2
 67
     7
 79
     5
170
     0
171
     0
290
     0
174
     0
 93
        1
 44
0.0
173
     0
291
     1
 45
0.0
  0
VISUALSTYLE
  5
36
102
{ACAD_REACTORS
330
2A
102
}
102
{ACAD_XDICTIONARY
360
170
102
}
330
2A
100
AcDbVisualStyle
  2
Brighten
 70
    12
 71
     2
 72
     2
 73
     0
 90
        0
 40
-0.6
 41
-30.0
 62
     5
 63
     7
421
 16777215
 74
     1
 91
        4
 64
     7
 65
   257
 75
     1
175
     1
 42
1.0
 92
        8
 66
     7
 43
1.0
 76
     1
 77
     6
 78
     2
 67
     7
 79
     5
170
     0
171
     0
290
     0
174
     0
 93
        1
 44
50.0
173
     0
291
     1
 45
0.0
  0
VISUALSTYLE
  5
3A
102
{ACAD_REACTORS
330
2A
102
}
102
{ACAD_XDICTIONARY
360
178
102
}
330
2A
100
AcDbVisualStyle
  2
ColorChange
 70
    16
 71
     2
 72
     2
 73
     3
 90
        0
 40
-0.6
 41
-30.0
 62
     5
 63
     8
421
  8421504
 74
     1
 91
        4
 64
     7
 65
   257
 75
     1
175
     1
 42
1.0
 92
        8
 66
     8
424
  8421504
 43
1.0
 76
     1
 77
     6
 78
     2
 67
     7
 79
     5
170
     0
171
     0
290
     0
174
     0
 93
        1
 44
0.0
173
     0
291
     1
 45
0.0
  0
VISUALSTYLE
  5
34
102
{ACAD_REACTORS
330
2A
102
}
102
{ACAD_XDICTIONARY
360
16C
102
}
330
2A
100
AcDbVisualStyle
  2
Conceptual
 70
     9
 71
     3
 72
     2
 73
     0
 90
        0
 40
-0.6
 41
-30.0
 62
     5
 63
     7
421
 16777215
 74
     2
 91
        2
 64
     7
 65
   257
 75
     1
175
     1
 42
40.0
 92
        8
 66
     7
 43
1.0
 76
     1
 77
     6
 78
     2
 67
     7
 79
     3
170
     0
171
     0
290
     0
174
     0
 93
        1
 44
0.0
173
     0
291
     0
 45
0.0
  0
VISUALSTYLE
  5
35
102
{ACAD_REACTORS
330
2A
102
}
102
{ACAD_XDICTIONARY
360
16E
102
}
330
2A
100
AcDbVisualStyle
  2
Dim
 70
    11
 71
     2
 72
     2
 73
     0
 90
        0
 40
-0.6
 41
-30.0
 62
     5
 63
     7
421
 16777215
 74
     1
 91
        4
 64
     7
 65
   257
 75
     1
175
     1
 42
1.0
 92
        8
 66
     7
 43
1.0
 76
     1
 77
     6
 78
     2
 67
     7
 79
     5
170
     0
171
     0
290
     0
174
     0
 93
        1
 44
-50.0
173
     0
291
     1
 45
0.0
  0
VISUALSTYLE
  5
39
102
{ACAD_REACTORS
330
2A
102
}
102
{ACAD_XDICTIONARY
360
176
102
}
330
2A
100
AcDbVisualStyle
  2
Facepattern
 70
    15
 71
     2
 72
     2
 73
     0
 90
        0
 40
-0.6
 41
-30.0
 62
     5
 63
     7
421
 16777215
 74
     1
 91
        4
 64
     7
 65
   257
 75
     1
175
     1
 42
1.0
 92
        8
 66
     7
 43
1.0
 76
     1
 77
     6
 78
     2
 67
     7
 79
     5
170
     0
171
     0
290
     0
174
     0
 93
        1
 44
0.0
173
     0
291
     1
 45
0.0
  0
VISUALSTYLE
  5
2B
102
{ACAD_REACTORS
330
2A
102
}
102
{ACAD_XDICTIONARY
360
15A
102
}
330
2A
100
AcDbVisualStyle
  2
Flat
 70
     0
 71
     2
 72
     1
 73
     1
 90
        2
 40
-0.6
 41
30.0
 62
     5
 63
     7
421
 16777215
 74
     0
 91
        4
 64
     7
 65
   257
 75
     1
175
     1
 42
1.0
 92
        8
 66
     7
 43
1.0
 76
     1
 77
     6
 78
     2
 67
     7
 79
     5
170
     0
171
     0
290
     0
174
     0
 93
       13
 44
0.0
173
     0
291
     1
 45
0.0
  0
VISUALSTYLE
  5
2C
102
{ACAD_REACTORS
330
2A
102
}
102
{ACAD_XDICTIONARY
360
15C
102
}
330
2A
100
AcDbVisualStyle
  2
FlatWithEdges
 70
     1
 71
     2
 72
     1
 73
     1
 90
        2
 40
-0.6
 41
30.0
 62
     5
 63
     7
421
 16777215
 74
     1
 91
        4
 64
     7
 65
   257
 75
     1
175
     1
 42
1.0
 92
        0
 66
   257
 43
1.0
 76
     1
 77
     6
 78
     2
 67
     7
 79
     5
170
     0
171
     0
290
     0
174
     0
 93
       13
 44
0.0
173
     0
291
     1
 45
0.0
  0
VISUALSTYLE
  5
2D
102
{ACAD_REACTORS
330
2A
102
}
102
{ACAD_XDICTIONARY
360
15E
102
}
330
2A
100
AcDbVisualStyle
  2
Gouraud
 70
     2
 71
     2
 72
     2
 73
     1
 90
        2
 40
-0.6
 41
30.0
 62
     5
 63
     7
421
 16777215
 74
     0
 91
        4
 64
     7
 65
   257
 75
     1
175
     1
 42
1.0
 92
        0
 66
     7
 43
1.0
 76
     1
 77
     6
 78
     2
 67
     7
 79
     5
170
     0
171
     0
290
     0
174
     0
 93
       13
 44
0.0
173
     0
291
     1
 45
0.0
  0
VISUALSTYLE
  5
2E
102
{ACAD_REACTORS
330
2A
102
}
102
{ACAD_XDICTIONARY
360
160
102
}
330
2A
100
AcDbVisualStyle
  2
GouraudWithEdges
 70
     3
 71
     2
 72
     2
 73
     1
 90
        2
 40
-0.6
 41
30.0
 62
     5
 63
     7
421
 16777215
 74
     1
 91
        4
 64
     7
 65
   257
 75
     1
175
     1
 42
1.0
 92
        0
 66
   257
 43
1.0
 76
     1
 77
     6
 78
     2
 67
     7
 79
     5
170
     0
171
     0
290
     0
174
     0
 93
       13
 44
0.0
173
     0
291
     1
 45
0.0
  0
VISUALSTYLE
  5
38
102
{ACAD_REACTORS
330
2A
102
}
102
{ACAD_XDICTIONARY
360
174
102
}
330
2A
100
AcDbVisualStyle
  2
Linepattern
 70
    14
 71
     2
 72
     2
 73
     0
 90
        0
 40
-0.6
 41
-30.0
 62
     5
 63
     7
421
 16777215
 74
     1
 91
        4
 64
     7
 65
   257
 75
     7
175
     7
 42
1.0
 92
        8
 66
     7
 43
1.0
 76
     1
 77
     6
 78
     2
 67
     7
 79
     5
170
     0
171
     0
290
     0
174
     0
 93
        1
 44
0.0
173
     0
291
     1
 45
0.0
  0
VISUALSTYLE
  5
33
102
{ACAD_REACTORS
330
2A
102
}
102
{ACAD_XDICTIONARY
360
16A
102
}
330
2A
100
AcDbVisualStyle
  2
Realistic
 70
     8
 71
     2
 72
     2
 73
     0
 90
        0
 40
-0.6
 41
-30.0
 62
     5
 63
     7
421
 16777215
 74
     1
 91
        0
 64
     7
 65
   257
 75
     1
175
     1
 42
1.0
 92
        8
 66
     8
424
  7895160
 43
1.0
 76
     1
 77
     6
 78
     2
 67
     7
 79
     5
170
     0
171
     0
290
     0
174
     0
 93
       13
 44
0.0
173
     0
291
     0
 45
0.0
  0
VISUALSTYLE
  5
37
102
{ACAD_REACTORS
330
2A
102
}
102
{ACAD_XDICTIONARY
360
172
102
}
330
2A
100
AcDbVisualStyle
  2
Thicken
 70
    13
 71
     2
 72
     2
 73
     0
 90
        0
 40
-0.6
 41
-30.0
 62
     5
 63
     7
421
 16777215
 74
     1
 91
        4
 64
     7
 65
   257
 75
     1
175
     1
 42
1.0
 92
       12
 66
     7
 43
1.0
 76
     1
 77
     6
 78
     2
 67
     7
 79
     5
170
     0
171
     0
290
     0
174
     0
 93
        1
 44
0.0
173
     0
291
     1
 45
0.0
  0
DICTIONARY
  5
162
330
2F
100
AcDbDictionary
280
     1
281
     1
  3
ACAD_XREC_ROUNDTRIP
360
163
  0
DICTIONARY
  5
166
330
31
100
AcDbDictionary
280
     1
281
     1
  3
ACAD_XREC_ROUNDTRIP
360
167
  0
DICTIONARY
  5
164
330
30
100
AcDbDictionary
280
     1
281
     1
  3
ACAD_XREC_ROUNDTRIP
360
165
  0
DICTIONARY
  5
168
330
32
100
AcDbDictionary
280
     1
281
     1
  3
ACAD_XREC_ROUNDTRIP
360
169
  0
DICTIONARY
  5
170
330
36
100
AcDbDictionary
280
     1
281
     1
  3
ACAD_XREC_ROUNDTRIP
360
171
  0
DICTIONARY
  5
178
330
3A
100
AcDbDictionary
280
     1
281
     1
  3
ACAD_XREC_ROUNDTRIP
360
179
  0
DICTIONARY
  5
16C
330
34
100
AcDbDictionary
280
     1
281
     1
  3
ACAD_XREC_ROUNDTRIP
360
16D
  0
DICTIONARY
  5
16E
330
35
100
AcDbDictionary
280
     1
281
     1
  3
ACAD_XREC_ROUNDTRIP
360
16F
  0
DICTIONARY
  5
176
330
39
100
AcDbDictionary
280
     1
281
     1
  3
ACAD_XREC_ROUNDTRIP
360
177
  0
DICTIONARY
  5
15A
330
2B
100
AcDbDictionary
280
     1
281
     1
  3
ACAD_XREC_ROUNDTRIP
360
15B
  0
DICTIONARY
  5
15C
330
2C
100
AcDbDictionary
280
     1
281
     1
  3
ACAD_XREC_ROUNDTRIP
360
15D
  0
DICTIONARY
  5
15E
330
2D
100
AcDbDictionary
280
     1
281
     1
  3
ACAD_XREC_ROUNDTRIP
360
15F
  0
DICTIONARY
  5
160
330
2E
100
AcDbDictionary
280
     1
281
     1
  3
ACAD_XREC_ROUNDTRIP
360
161
  0
DICTIONARY
  5
174
330
38
100
AcDbDictionary
280
     1
281
     1
  3
ACAD_XREC_ROUNDTRIP
360
175
  0
DICTIONARY
  5
16A
330
33
100
AcDbDictionary
280
     1
281
     1
  3
ACAD_XREC_ROUNDTRIP
360
16B
  0
DICTIONARY
  5
172
330
37
100
AcDbDictionary
280
     1
281
     1
  3
ACAD_XREC_ROUNDTRIP
360
173
  0
XRECORD
  5
163
102
{ACAD_REACTORS
330
162
102
}
330
162
100
AcDbXrecord
280
     1
102
RTVSPropertyOp0
 70
     1
102
RTVSPropertyOp1
 70
     1
102
RTVSPropertyOp2
 70
     1
102
RTVSPropertyOp3
 70
     1
102
RTVSPropertyOp4
 70
     1
102
RTVSPropertyOp5
 70
     1
102
RTVSPropertyOp6
 70
     1
102
RTVSPropertyOp7
 70
     1
102
RTVSPropertyOp8
 70
     1
102
RTVSPropertyOp9
 70
     1
102
RTVSPropertyOp10
 70
     1
102
RTVSPropertyOp11
 70
     1
102
RTVSPropertyOp12
 70
     1
102
RTVSPropertyOp13
 70
     1
102
RTVSPropertyOp14
 70
     1
102
RTVSPropertyOp15
 70
     1
102
RTVSPropertyOp16
 70
     1
102
RTVSPropertyOp17
 70
     1
102
RTVSPropertyOp18
 70
     1
102
RTVSPropertyOp19
 70
     1
102
RTVSPropertyOp20
 70
     1
102
RTVSPropertyOp21
 70
     1
102
RTVSPropertyOp22
 70
     1
102
RTVSPropertyOp23
 70
     1
102
RTVSPropertyOp24
 70
     1
102
RTVSPropertyOp25
 70
     1
102
RTVSPropertyOp26
 70
     1
102
RTVSPropertyOp27
 70
     1
  0
XRECORD
  5
167
102
{ACAD_REACTORS
330
166
102
}
330
166
100
AcDbXrecord
280
     1
102
RTVSPropertyOp0
 70
     1
102
RTVSPropertyOp1
 70
     1
102
RTVSPropertyOp2
 70
     1
102
RTVSPropertyOp3
 70
     1
102
RTVSPropertyOp4
 70
     1
102
RTVSPropertyOp5
 70
     1
102
RTVSPropertyOp6
 70
     1
102
RTVSPropertyOp7
 70
     1
102
RTVSPropertyOp8
 70
     1
102
RTVSPropertyOp9
 70
     1
102
RTVSPropertyOp10
 70
     1
102
RTVSPropertyOp11
 70
     1
102
RTVSPropertyOp12
 70
     1
102
RTVSPropertyOp13
 70
     1
102
RTVSPropertyOp14
 70
     1
102
RTVSPropertyOp15
 70
     1
102
RTVSPropertyOp16
 70
     1
102
RTVSPropertyOp17
 70
     1
102
RTVSPropertyOp18
 70
     1
102
RTVSPropertyOp19
 70
     1
102
RTVSPropertyOp20
 70
     1
102
RTVSPropertyOp21
 70
     1
102
RTVSPropertyOp22
 70
     1
102
RTVSPropertyOp23
 70
     1
102
RTVSPropertyOp24
 70
     1
102
RTVSPropertyOp25
 70
     1
102
RTVSPropertyOp26
 70
     1
102
RTVSPropertyOp27
 70
     1
  0
XRECORD
  5
165
102
{ACAD_REACTORS
330
164
102
}
330
164
100
AcDbXrecord
280
     1
102
RTVSPropertyOp0
 70
     1
102
RTVSPropertyOp1
 70
     1
102
RTVSPropertyOp2
 70
     1
102
RTVSPropertyOp3
 70
     1
102
RTVSPropertyOp4
 70
     1
102
RTVSPropertyOp5
 70
     1
102
RTVSPropertyOp6
 70
     1
102
RTVSPropertyOp7
 70
     1
102
RTVSPropertyOp8
 70
     1
102
RTVSPropertyOp9
 70
     1
102
RTVSPropertyOp10
 70
     1
102
RTVSPropertyOp11
 70
     1
102
RTVSPropertyOp12
 70
     1
102
RTVSPropertyOp13
 70
     1
102
RTVSPropertyOp14
 70
     1
102
RTVSPropertyOp15
 70
     1
102
RTVSPropertyOp16
 70
     1
102
RTVSPropertyOp17
 70
     1
102
RTVSPropertyOp18
 70
     1
102
RTVSPropertyOp19
 70
     1
102
RTVSPropertyOp20
 70
     1
102
RTVSPropertyOp21
 70
     1
102
RTVSPropertyOp22
 70
     1
102
RTVSPropertyOp23
 70
     1
102
RTVSPropertyOp24
 70
     1
102
RTVSPropertyOp25
 70
     1
102
RTVSPropertyOp26
 70
     1
102
RTVSPropertyOp27
 70
     1
  0
XRECORD
  5
169
102
{ACAD_REACTORS
330
168
102
}
330
168
100
AcDbXrecord
280
     1
102
RTVSPropertyOp0
 70
     1
102
RTVSPropertyOp1
 70
     1
102
RTVSPropertyOp2
 70
     1
102
RTVSPropertyOp3
 70
     1
102
RTVSPropertyOp4
 70
     1
102
RTVSPropertyOp5
 70
     1
102
RTVSPropertyOp6
 70
     1
102
RTVSPropertyOp7
 70
     1
102
RTVSPropertyOp8
 70
     1
102
RTVSPropertyOp9
 70
     1
102
RTVSPropertyOp10
 70
     1
102
RTVSPropertyOp11
 70
     1
102
RTVSPropertyOp12
 70
     1
102
RTVSPropertyOp13
 70
     1
102
RTVSPropertyOp14
 70
     1
102
RTVSPropertyOp15
 70
     1
102
RTVSPropertyOp16
 70
     1
102
RTVSPropertyOp17
 70
     1
102
RTVSPropertyOp18
 70
     1
102
RTVSPropertyOp19
 70
     1
102
RTVSPropertyOp20
 70
     1
102
RTVSPropertyOp21
 70
     1
102
RTVSPropertyOp22
 70
     1
102
RTVSPropertyOp23
 70
     1
102
RTVSPropertyOp24
 70
     1
102
RTVSPropertyOp25
 70
     1
102
RTVSPropertyOp26
 70
     1
102
RTVSPropertyOp27
 70
     1
  0
XRECORD
  5
171
102
{ACAD_REACTORS
330
170
102
}
330
170
100
AcDbXrecord
280
     1
102
RTVSPropertyOp0
 70
     1
102
RTVSPropertyOp1
 70
     1
102
RTVSPropertyOp2
 70
     1
102
RTVSPropertyOp3
 70
     1
102
RTVSPropertyOp4
 70
     1
102
RTVSPropertyOp5
 70
     1
102
RTVSPropertyOp6
 70
     1
102
RTVSPropertyOp7
 70
     1
102
RTVSPropertyOp8
 70
     1
102
RTVSPropertyOp9
 70
     1
102
RTVSPropertyOp10
 70
     1
102
RTVSPropertyOp11
 70
     1
102
RTVSPropertyOp12
 70
     1
102
RTVSPropertyOp13
 70
     1
102
RTVSPropertyOp14
 70
     1
102
RTVSPropertyOp15
 70
     1
102
RTVSPropertyOp16
 70
     1
102
RTVSPropertyOp17
 70
     1
102
RTVSPropertyOp18
 70
     1
102
RTVSPropertyOp19
 70
     1
102
RTVSPropertyOp20
 70
     1
102
RTVSPropertyOp21
 70
     1
102
RTVSPropertyOp22
 70
     1
102
RTVSPropertyOp23
 70
     1
102
RTVSPropertyOp24
 70
     1
102
RTVSPropertyOp25
 70
     1
102
RTVSPropertyOp26
 70
     1
102
RTVSPropertyOp27
 70
     1
  0
XRECORD
  5
179
102
{ACAD_REACTORS
330
178
102
}
330
178
100
AcDbXrecord
280
     1
102
RTVSPropertyOp0
 70
     1
102
RTVSPropertyOp1
 70
     1
102
RTVSPropertyOp2
 70
     1
102
RTVSPropertyOp3
 70
     1
102
RTVSPropertyOp4
 70
     1
102
RTVSPropertyOp5
 70
     1
102
RTVSPropertyOp6
 70
     1
102
RTVSPropertyOp7
 70
     1
102
RTVSPropertyOp8
 70
     1
102
RTVSPropertyOp9
 70
     1
102
RTVSPropertyOp10
 70
     1
102
RTVSPropertyOp11
 70
     1
102
RTVSPropertyOp12
 70
     1
102
RTVSPropertyOp13
 70
     1
102
RTVSPropertyOp14
 70
     1
102
RTVSPropertyOp15
 70
     1
102
RTVSPropertyOp16
 70
     1
102
RTVSPropertyOp17
 70
     1
102
RTVSPropertyOp18
 70
     1
102
RTVSPropertyOp19
 70
     1
102
RTVSPropertyOp20
 70
     1
102
RTVSPropertyOp21
 70
     1
102
RTVSPropertyOp22
 70
     1
102
RTVSPropertyOp23
 70
     1
102
RTVSPropertyOp24
 70
     1
102
RTVSPropertyOp25
 70
     1
102
RTVSPropertyOp26
 70
     1
102
RTVSPropertyOp27
 70
     1
  0
XRECORD
  5
16D
102
{ACAD_REACTORS
330
16C
102
}
330
16C
100
AcDbXrecord
280
     1
102
RTVSPropertyOp0
 70
     1
102
RTVSPropertyOp1
 70
     1
102
RTVSPropertyOp2
 70
     1
102
RTVSPropertyOp3
 70
     1
102
RTVSPropertyOp4
 70
     1
102
RTVSPropertyOp5
 70
     1
102
RTVSPropertyOp6
 70
     1
102
RTVSPropertyOp7
 70
     1
102
RTVSPropertyOp8
 70
     1
102
RTVSPropertyOp9
 70
     1
102
RTVSPropertyOp10
 70
     1
102
RTVSPropertyOp11
 70
     1
102
RTVSPropertyOp12
 70
     1
102
RTVSPropertyOp13
 70
     1
102
RTVSPropertyOp14
 70
     1
102
RTVSPropertyOp15
 70
     1
102
RTVSPropertyOp16
 70
     1
102
RTVSPropertyOp17
 70
     1
102
RTVSPropertyOp18
 70
     1
102
RTVSPropertyOp19
 70
     1
102
RTVSPropertyOp20
 70
     1
102
RTVSPropertyOp21
 70
     1
102
RTVSPropertyOp22
 70
     1
102
RTVSPropertyOp23
 70
     1
102
RTVSPropertyOp24
 70
     1
102
RTVSPropertyOp25
 70
     1
102
RTVSPropertyOp26
 70
     1
102
RTVSPropertyOp27
 70
     1
  0
XRECORD
  5
16F
102
{ACAD_REACTORS
330
16E
102
}
330
16E
100
AcDbXrecord
280
     1
102
RTVSPropertyOp0
 70
     1
102
RTVSPropertyOp1
 70
     1
102
RTVSPropertyOp2
 70
     1
102
RTVSPropertyOp3
 70
     1
102
RTVSPropertyOp4
 70
     1
102
RTVSPropertyOp5
 70
     1
102
RTVSPropertyOp6
 70
     1
102
RTVSPropertyOp7
 70
     1
102
RTVSPropertyOp8
 70
     1
102
RTVSPropertyOp9
 70
     1
102
RTVSPropertyOp10
 70
     1
102
RTVSPropertyOp11
 70
     1
102
RTVSPropertyOp12
 70
     1
102
RTVSPropertyOp13
 70
     1
102
RTVSPropertyOp14
 70
     1
102
RTVSPropertyOp15
 70
     1
102
RTVSPropertyOp16
 70
     1
102
RTVSPropertyOp17
 70
     1
102
RTVSPropertyOp18
 70
     1
102
RTVSPropertyOp19
 70
     1
102
RTVSPropertyOp20
 70
     1
102
RTVSPropertyOp21
 70
     1
102
RTVSPropertyOp22
 70
     1
102
RTVSPropertyOp23
 70
     1
102
RTVSPropertyOp24
 70
     1
102
RTVSPropertyOp25
 70
     1
102
RTVSPropertyOp26
 70
     1
102
RTVSPropertyOp27
 70
     1
  0
XRECORD
  5
177
102
{ACAD_REACTORS
330
176
102
}
330
176
100
AcDbXrecord
280
     1
102
RTVSPropertyOp0
 70
     1
102
RTVSPropertyOp1
 70
     1
102
RTVSPropertyOp2
 70
     1
102
RTVSPropertyOp3
 70
     1
102
RTVSPropertyOp4
 70
     1
102
RTVSPropertyOp5
 70
     1
102
RTVSPropertyOp6
 70
     1
102
RTVSPropertyOp7
 70
     1
102
RTVSPropertyOp8
 70
     1
102
RTVSPropertyOp9
 70
     1
102
RTVSPropertyOp10
 70
     1
102
RTVSPropertyOp11
 70
     1
102
RTVSPropertyOp12
 70
     1
102
RTVSPropertyOp13
 70
     1
102
RTVSPropertyOp14
 70
     1
102
RTVSPropertyOp15
 70
     1
102
RTVSPropertyOp16
 70
     1
102
RTVSPropertyOp17
 70
     1
102
RTVSPropertyOp18
 70
     1
102
RTVSPropertyOp19
 70
     1
102
RTVSPropertyOp20
 70
     1
102
RTVSPropertyOp21
 70
     1
102
RTVSPropertyOp22
 70
     1
102
RTVSPropertyOp23
 70
     1
102
RTVSPropertyOp24
 70
     1
102
RTVSPropertyOp25
 70
     1
102
RTVSPropertyOp26
 70
     1
102
RTVSPropertyOp27
 70
     1
  0
XRECORD
  5
15B
102
{ACAD_REACTORS
330
15A
102
}
330
15A
100
AcDbXrecord
280
     1
102
RTVSPropertyOp0
 70
     1
102
RTVSPropertyOp1
 70
     1
102
RTVSPropertyOp2
 70
     1
102
RTVSPropertyOp3
 70
     1
102
RTVSPropertyOp4
 70
     1
102
RTVSPropertyOp5
 70
     1
102
RTVSPropertyOp6
 70
     1
102
RTVSPropertyOp7
 70
     1
102
RTVSPropertyOp8
 70
     1
102
RTVSPropertyOp9
 70
     1
102
RTVSPropertyOp10
 70
     1
102
RTVSPropertyOp11
 70
     1
102
RTVSPropertyOp12
 70
     1
102
RTVSPropertyOp13
 70
     1
102
RTVSPropertyOp14
 70
     1
102
RTVSPropertyOp15
 70
     1
102
RTVSPropertyOp16
 70
     1
102
RTVSPropertyOp17
 70
     1
102
RTVSPropertyOp18
 70
     1
102
RTVSPropertyOp19
 70
     1
102
RTVSPropertyOp20
 70
     1
102
RTVSPropertyOp21
 70
     1
102
RTVSPropertyOp22
 70
     1
102
RTVSPropertyOp23
 70
     1
102
RTVSPropertyOp24
 70
     1
102
RTVSPropertyOp25
 70
     1
102
RTVSPropertyOp26
 70
     1
102
RTVSPropertyOp27
 70
     1
  0
XRECORD
  5
15D
102
{ACAD_REACTORS
330
15C
102
}
330
15C
100
AcDbXrecord
280
     1
102
RTVSPropertyOp0
 70
     1
102
RTVSPropertyOp1
 70
     1
102
RTVSPropertyOp2
 70
     1
102
RTVSPropertyOp3
 70
     1
102
RTVSPropertyOp4
 70
     1
102
RTVSPropertyOp5
 70
     1
102
RTVSPropertyOp6
 70
     1
102
RTVSPropertyOp7
 70
     1
102
RTVSPropertyOp8
 70
     1
102
RTVSPropertyOp9
 70
     1
102
RTVSPropertyOp10
 70
     1
102
RTVSPropertyOp11
 70
     1
102
RTVSPropertyOp12
 70
     1
102
RTVSPropertyOp13
 70
     1
102
RTVSPropertyOp14
 70
     1
102
RTVSPropertyOp15
 70
     1
102
RTVSPropertyOp16
 70
     1
102
RTVSPropertyOp17
 70
     1
102
RTVSPropertyOp18
 70
     1
102
RTVSPropertyOp19
 70
     1
102
RTVSPropertyOp20
 70
     1
102
RTVSPropertyOp21
 70
     1
102
RTVSPropertyOp22
 70
     1
102
RTVSPropertyOp23
 70
     1
102
RTVSPropertyOp24
 70
     1
102
RTVSPropertyOp25
 70
     1
102
RTVSPropertyOp26
 70
     1
102
RTVSPropertyOp27
 70
     1
  0
XRECORD
  5
15F
102
{ACAD_REACTORS
330
15E
102
}
330
15E
100
AcDbXrecord
280
     1
102
RTVSPropertyOp0
 70
     1
102
RTVSPropertyOp1
 70
     1
102
RTVSPropertyOp2
 70
     1
102
RTVSPropertyOp3
 70
     1
102
RTVSPropertyOp4
 70
     1
102
RTVSPropertyOp5
 70
     1
102
RTVSPropertyOp6
 70
     1
102
RTVSPropertyOp7
 70
     1
102
RTVSPropertyOp8
 70
     1
102
RTVSPropertyOp9
 70
     1
102
RTVSPropertyOp10
 70
     1
102
RTVSPropertyOp11
 70
     1
102
RTVSPropertyOp12
 70
     1
102
RTVSPropertyOp13
 70
     1
102
RTVSPropertyOp14
 70
     1
102
RTVSPropertyOp15
 70
     1
102
RTVSPropertyOp16
 70
     1
102
RTVSPropertyOp17
 70
     1
102
RTVSPropertyOp18
 70
     1
102
RTVSPropertyOp19
 70
     1
102
RTVSPropertyOp20
 70
     1
102
RTVSPropertyOp21
 70
     1
102
RTVSPropertyOp22
 70
     1
102
RTVSPropertyOp23
 70
     1
102
RTVSPropertyOp24
 70
     1
102
RTVSPropertyOp25
 70
     1
102
RTVSPropertyOp26
 70
     1
102
RTVSPropertyOp27
 70
     1
  0
XRECORD
  5
161
102
{ACAD_REACTORS
330
160
102
}
330
160
100
AcDbXrecord
280
     1
102
RTVSPropertyOp0
 70
     1
102
RTVSPropertyOp1
 70
     1
102
RTVSPropertyOp2
 70
     1
102
RTVSPropertyOp3
 70
     1
102
RTVSPropertyOp4
 70
     1
102
RTVSPropertyOp5
 70
     1
102
RTVSPropertyOp6
 70
     1
102
RTVSPropertyOp7
 70
     1
102
RTVSPropertyOp8
 70
     1
102
RTVSPropertyOp9
 70
     1
102
RTVSPropertyOp10
 70
     1
102
RTVSPropertyOp11
 70
     1
102
RTVSPropertyOp12
 70
     1
102
RTVSPropertyOp13
 70
     1
102
RTVSPropertyOp14
 70
     1
102
RTVSPropertyOp15
 70
     1
102
RTVSPropertyOp16
 70
     1
102
RTVSPropertyOp17
 70
     1
102
RTVSPropertyOp18
 70
     1
102
RTVSPropertyOp19
 70
     1
102
RTVSPropertyOp20
 70
     1
102
RTVSPropertyOp21
 70
     1
102
RTVSPropertyOp22
 70
     1
102
RTVSPropertyOp23
 70
     1
102
RTVSPropertyOp24
 70
     1
102
RTVSPropertyOp25
 70
     1
102
RTVSPropertyOp26
 70
     1
102
RTVSPropertyOp27
 70
     1
  0
XRECORD
  5
175
102
{ACAD_REACTORS
330
174
102
}
330
174
100
AcDbXrecord
280
     1
102
RTVSPropertyOp0
 70
     1
102
RTVSPropertyOp1
 70
     1
102
RTVSPropertyOp2
 70
     1
102
RTVSPropertyOp3
 70
     1
102
RTVSPropertyOp4
 70
     1
102
RTVSPropertyOp5
 70
     1
102
RTVSPropertyOp6
 70
     1
102
RTVSPropertyOp7
 70
     1
102
RTVSPropertyOp8
 70
     1
102
RTVSPropertyOp9
 70
     1
102
RTVSPropertyOp10
 70
     1
102
RTVSPropertyOp11
 70
     1
102
RTVSPropertyOp12
 70
     1
102
RTVSPropertyOp13
 70
     1
102
RTVSPropertyOp14
 70
     1
102
RTVSPropertyOp15
 70
     1
102
RTVSPropertyOp16
 70
     1
102
RTVSPropertyOp17
 70
     1
102
RTVSPropertyOp18
 70
     1
102
RTVSPropertyOp19
 70
     1
102
RTVSPropertyOp20
 70
     1
102
RTVSPropertyOp21
 70
     1
102
RTVSPropertyOp22
 70
     1
102
RTVSPropertyOp23
 70
     1
102
RTVSPropertyOp24
 70
     1
102
RTVSPropertyOp25
 70
     1
102
RTVSPropertyOp26
 70
     1
102
RTVSPropertyOp27
 70
     1
  0
XRECORD
  5
16B
102
{ACAD_REACTORS
330
16A
102
}
330
16A
100
AcDbXrecord
280
     1
102
RTVSPropertyOp0
 70
     1
102
RTVSPropertyOp1
 70
     1
102
RTVSPropertyOp2
 70
     1
102
RTVSPropertyOp3
 70
     1
102
RTVSPropertyOp4
 70
     1
102
RTVSPropertyOp5
 70
     1
102
RTVSPropertyOp6
 70
     1
102
RTVSPropertyOp7
 70
     1
102
RTVSPropertyOp8
 70
     1
102
RTVSPropertyOp9
 70
     1
102
RTVSPropertyOp10
 70
     1
102
RTVSPropertyOp11
 70
     1
102
RTVSPropertyOp12
 70
     1
102
RTVSPropertyOp13
 70
     1
102
RTVSPropertyOp14
 70
     1
102
RTVSPropertyOp15
 70
     1
102
RTVSPropertyOp16
 70
     1
102
RTVSPropertyOp17
 70
     1
102
RTVSPropertyOp18
 70
     1
102
RTVSPropertyOp19
 70
     1
102
RTVSPropertyOp20
 70
     1
102
RTVSPropertyOp21
 70
     1
102
RTVSPropertyOp22
 70
     1
102
RTVSPropertyOp23
 70
     1
102
RTVSPropertyOp24
 70
     1
102
RTVSPropertyOp25
 70
     1
102
RTVSPropertyOp26
 70
     1
102
RTVSPropertyOp27
 70
     1
  0
XRECORD
  5
173
102
{ACAD_REACTORS
330
172
102
}
330
172
100
AcDbXrecord
280
     1
102
RTVSPropertyOp0
 70
     1
102
RTVSPropertyOp1
 70
     1
102
RTVSPropertyOp2
 70
     1
102
RTVSPropertyOp3
 70
     1
102
RTVSPropertyOp4
 70
     1
102
RTVSPropertyOp5
 70
     1
102
RTVSPropertyOp6
 70
     1
102
RTVSPropertyOp7
 70
     1
102
RTVSPropertyOp8
 70
     1
102
RTVSPropertyOp9
 70
     1
102
RTVSPropertyOp10
 70
     1
102
RTVSPropertyOp11
 70
     1
102
RTVSPropertyOp12
 70
     1
102
RTVSPropertyOp13
 70
     1
102
RTVSPropertyOp14
 70
     1
102
RTVSPropertyOp15
 70
     1
102
RTVSPropertyOp16
 70
     1
102
RTVSPropertyOp17
 70
     1
102
RTVSPropertyOp18
 70
     1
102
RTVSPropertyOp19
 70
     1
102
RTVSPropertyOp20
 70
     1
102
RTVSPropertyOp21
 70
     1
102
RTVSPropertyOp22
 70
     1
102
RTVSPropertyOp23
 70
     1
102
RTVSPropertyOp24
 70
     1
102
RTVSPropertyOp25
 70
     1
102
RTVSPropertyOp26
 70
     1
102
RTVSPropertyOp27
 70
     1
  0
ENDSEC
  0
EOF
