  0
SECTION
  2
HEADER
  9
$ACADVER
  1
AC1021
  9
$ACADMAINTVER
 70
    25
  9
$DWGCODEPAGE
  3
ANSI_1252
  9
$INSBASE
 10
0.0
 20
0.0
 30
0.0
  9
$EXTMIN
 10
-14.03659
 20
1.03925
 30
0.0
  9
$EXTMAX
 10
15.89656
 20
13.07532
 30
0.0
  9
$LIMMIN
 10
0.0
 20
0.0
  9
$LIMMAX
 10
12.0
 20
9.0
  9
$ORTHOMODE
 70
     0
  9
$REGENMODE
 70
     1
  9
$FILLMODE
 70
     1
  9
$QTEXTMODE
 70
     0
  9
$MIRRTEXT
 70
     1
  9
$LTSCALE
 40
1.0
  9
$ATTMODE
 70
     1
  9
$TEXTSIZE
 40
0.2
  9
$TRACEWID
 40
0.05
  9
$TEXTSTYLE
  7
Standard
  9
$CLAYER
  8
0
  9
$CELTYPE
  6
ByLayer
  9
$CECOLOR
 62
   256
  9
$CELTSCALE
 40
1.0
  9
$DISPSILH
 70
     0
  9
$DIMSCALE
 40
1.0
  9
$DIMASZ
 40
0.18
  9
$DIMEXO
 40
0.0625
  9
$DIMDLI
 40
0.38
  9
$DIMRND
 40
0.0
  9
$DIMDLE
 40
0.0
  9
$DIMEXE
 40
0.18
  9
$DIMTP
 40
0.0
  9
$DIMTM
 40
0.0
  9
$DIMTXT
 40
0.18
  9
$DIMCEN
 40
0.09
  9
$DIMTSZ
 40
0.0
  9
$DIMTOL
 70
     0
  9
$DIMLIM
 70
     0
  9
$DIMTIH
 70
     1
  9
$DIMTOH
 70
     1
  9
$DIMSE1
 70
     0
  9
$DIMSE2
 70
     0
  9
$DIMTAD
 70
     0
  9
$DIMZIN
 70
     0
  9
$DIMBLK
  1

  9
$DIMASO
 70
     1
  9
$DIMSHO
 70
     1
  9
$DIMPOST
  1

  9
$DIMAPOST
  1

  9
$DIMALT
 70
     0
  9
$DIMALTD
 70
     2
  9
$DIMALTF
 40
25.4
  9
$DIMLFAC
 40
1.0
  9
$DIMTOFL
 70
     0
  9
$DIMTVP
 40
0.0
  9
$DIMTIX
 70
     0
  9
$DIMSOXD
 70
     0
  9
$DIMSAH
 70
     0
  9
$DIMBLK1
  1

  9
$DIMBLK2
  1

  9
$DIMSTYLE
  2
Standard
  9
$DIMCLRD
 70
     0
  9
$DIMCLRE
 70
     0
  9
$DIMCLRT
 70
     0
  9
$DIMTFAC
 40
1.0
  9
$DIMGAP
 40
0.09
  9
$DIMJUST
 70
     0
  9
$DIMSD1
 70
     0
  9
$DIMSD2
 70
     0
  9
$DIMTOLJ
 70
     1
  9
$DIMTZIN
 70
     0
  9
$DIMALTZ
 70
     0
  9
$DIMALTTZ
 70
     0
  9
$DIMUPT
 70
     0
  9
$DIMDEC
 70
     4
  9
$DIMTDEC
 70
     4
  9
$DIMALTU
 70
     2
  9
$DIMALTTD
 70
     2
  9
$DIMTXSTY
  7
Standard
  9
$DIMAUNIT
 70
     0
  9
$DIMADEC
 70
     0
  9
$DIMALTRND
 40
0.0
  9
$DIMAZIN
 70
     0
  9
$DIMDSEP
 70
    46
  9
$DIMATFIT
 70
     3
  9
$DIMFRAC
 70
     0
  9
$DIMLDRBLK
  1

  9
$DIMLUNIT
 70
     2
  9
$DIMLWD
 70
    -2
  9
$DIMLWE
 70
    -2
  9
$DIMTMOVE
 70
     0
  9
$DIMFXL
 40
1.0
  9
$DIMFXLON
 70
     0
  9
$DIMJOGANG
 40
0.7853981633974483
  9
$DIMTFILL
 70
     0
  9
$DIMTFILLCLR
 70
     0
  9
$DIMARCSYM
 70
     0
  9
$DIMLTYPE
  6

  9
$DIMLTEX1
  6

  9
$DIMLTEX2
  6

  9
$LUNITS
 70
     2
  9
$LUPREC
 70
     4
  9
$SKETCHINC
 40
0.1
  9
$FILLETRAD
 40
0.5
  9
$AUNITS
 70
     0
  9
$AUPREC
 70
     0
  9
$MENU
  1
.
  9
$ELEVATION
 40
0.0
  9
$PELEVATION
 40
0.0
  9
$THICKNESS
 40
0.0
  9
$LIMCHECK
 70
     0
  9
$CHAMFERA
 40
0.5
  9
$CHAMFERB
 40
0.5
  9
$CHAMFERC
 40
1.0
  9
$CHAMFERD
 40
0.0
  9
$SKPOLY
 70
     0
  9
$TDCREATE
 40
2456615.403131724
  9
$TDUCREATE
 40
2456615.361465058
  9
$TDUPDATE
 40
2456615.403131736
  9
$TDUUPDATE
 40
2456615.361465069
  9
$TDINDWG
 40
0.0000000116
  9
$TDUSRTIMER
 40
0.0000000116
  9
$USRTIMER
 70
     1
  9
$ANGBASE
 50
0.0
  9
$ANGDIR
 70
     0
  9
$PDMODE
 70
     0
  9
$PDSIZE
 40
0.0
  9
$PLINEWID
 40
0.0
  9
$SPLFRAME
 70
     0
  9
$SPLINETYPE
 70
     6
  9
$SPLINESEGS
 70
     8
  9
$HANDSEED
  5
11A
  9
$SURFTAB1
 70
     6
  9
$SURFTAB2
 70
     6
  9
$SURFTYPE
 70
     6
  9
$SURFU
 70
     6
  9
$SURFV
 70
     6
  9
$UCSBASE
  2

  9
$UCSNAME
  2

  9
$UCSORG
 10
0.0
 20
0.0
 30
0.0
  9
$UCSXDIR
 10
1.0
 20
0.0
 30
0.0
  9
$UCSYDIR
 10
0.0
 20
1.0
 30
0.0
  9
$UCSORTHOREF
  2

  9
$UCSORTHOVIEW
 70
     0
  9
$UCSORGTOP
 10
0.0
 20
0.0
 30
0.0
  9
$UCSORGBOTTOM
 10
0.0
 20
0.0
 30
0.0
  9
$UCSORGLEFT
 10
0.0
 20
0.0
 30
0.0
  9
$UCSORGRIGHT
 10
0.0
 20
0.0
 30
0.0
  9
$UCSORGFRONT
 10
0.0
 20
0.0
 30
0.0
  9
$UCSORGBACK
 10
0.0
 20
0.0
 30
0.0
  9
$PUCSBASE
  2

  9
$PUCSNAME
  2

  9
$PUCSORG
 10
0.0
 20
0.0
 30
0.0
  9
$PUCSXDIR
 10
1.0
 20
0.0
 30
0.0
  9
$PUCSYDIR
 10
0.0
 20
1.0
 30
0.0
  9
$PUCSORTHOREF
  2

  9
$PUCSORTHOVIEW
 70
     0
  9
$PUCSORGTOP
 10
0.0
 20
0.0
 30
0.0
  9
$PUCSORGBOTTOM
 10
0.0
 20
0.0
 30
0.0
  9
$PUCSORGLEFT
 10
0.0
 20
0.0
 30
0.0
  9
$PUCSORGRIGHT
 10
0.0
 20
0.0
 30
0.0
  9
$PUCSORGFRONT
 10
0.0
 20
0.0
 30
0.0
  9
$PUCSORGBACK
 10
0.0
 20
0.0
 30
0.0
  9
$USERI1
 70
     0
  9
$USERI2
 70
     0
  9
$USERI3
 70
     0
  9
$USERI4
 70
     0
  9
$USERI5
 70
     0
  9
$USERR1
 40
0.0
  9
$USERR2
 40
0.0
  9
$USERR3
 40
0.0
  9
$USERR4
 40
0.0
  9
$USERR5
 40
0.0
  9
$WORLDVIEW
 70
     1
  9
$SHADEDGE
 70
     3
  9
$SHADEDIF
 70
    70
  9
$TILEMODE
 70
     1
  9
$MAXACTVP
 70
    64
  9
$PINSBASE
 10
0.0
 20
0.0
 30
0.0
  9
$PLIMCHECK
 70
     0
  9
$PEXTMIN
 10
1.000000000000000E+20
 20
1.000000000000000E+20
 30
1.000000000000000E+20
  9
$PEXTMAX
 10
-1.000000000000000E+20
 20
-1.000000000000000E+20
 30
-1.000000000000000E+20
  9
$PLIMMIN
 10
0.0
 20
0.0
  9
$PLIMMAX
 10
12.0
 20
9.0
  9
$UNITMODE
 70
     0
  9
$VISRETAIN
 70
     1
  9
$PLINEGEN
 70
     0
  9
$PSLTSCALE
 70
     1
  9
$TREEDEPTH
 70
  3020
  9
$CMLSTYLE
  2
Standard
  9
$CMLJUST
 70
     0
  9
$CMLSCALE
 40
1.0
  9
$PROXYGRAPHICS
 70
     1
  9
$MEASUREMENT
 70
     0
  9
$CELWEIGHT
370
    -1
  9
$ENDCAPS
280
     0
  9
$JOINSTYLE
280
     0
  9
$LWDISPLAY
290
     0
  9
$INSUNITS
 70
     5
  9
$HYPERLINKBASE
  1

  9
$STYLESHEET
  1

  9
$XEDIT
290
     1
  9
$CEPSNTYPE
380
     0
  9
$PSTYLEMODE
290
     1
  9
$FINGERPRINTGUID
  2
{8C65048E-C100-4FB9-8539-10139BFC855E}
  9
$VERSIONGUID
  2
{FAEB1C32-E019-11D5-929B-00C0DF256EC4}
  9
$EXTNAMES
290
     1
  9
$PSVPSCALE
 40
0.0
  9
$OLESTARTUP
290
     0
  9
$SORTENTS
280
   127
  9
$INDEXCTL
280
     0
  9
$HIDETEXT
280
     1
  9
$XCLIPFRAME
290
     0
  9
$HALOGAP
280
     0
  9
$OBSCOLOR
 70
   257
  9
$OBSLTYPE
280
     0
  9
$INTERSECTIONDISPLAY
280
     0
  9
$INTERSECTIONCOLOR
 70
   257
  9
$DIMASSOC
280
     2
  9
$PROJECTNAME
  1

  9
$CAMERADISPLAY
290
     0
  9
$LENSLENGTH
 40
50.0
  9
$CAMERAHEIGHT
 40
0.0
  9
$STEPSPERSEC
 40
2.0
  9
$STEPSIZE
 40
6.0
  9
$3DDWFPREC
 40
2.0
  9
$PSOLWIDTH
 40
0.25
  9
$PSOLHEIGHT
 40
4.0
  9
$LOFTANG1
 40
1.570796326794897
  9
$LOFTANG2
 40
1.570796326794897
  9
$LOFTMAG1
 40
0.0
  9
$LOFTMAG2
 40
0.0
  9
$LOFTPARAM
 70
     7
  9
$LOFTNORMALS
280
     1
  9
$LATITUDE
 40
37.795
  9
$LONGITUDE
 40
-122.394
  9
$NORTHDIRECTION
 40
0.0
  9
$TIMEZONE
 70
 -8000
  9
$LIGHTGLYPHDISPLAY
280
     1
  9
$TILEMODELIGHTSYNCH
280
     1
  9
$SOLIDHIST
280
     1
  9
$SHOWHIST
280
     1
  9
$DWFFRAME
280
     2
  9
$DGNFRAME
280
     2
  9
$REALWORLDSCALE
290
     1
  9
$INTERFERECOLOR
 62
   256
  9
$CSHADOW
280
     0
  9
$SHADOWPLANELOCATION
 40
0.0
  0
ENDSEC
  0
SECTION
  2
CLASSES
  0
CLASS
  1
ACDBDICTIONARYWDFLT
  2
AcDbDictionaryWithDefault
  3
ObjectDBX Classes
 90
        0
 91
        4
280
     0
281
     0
  0
CLASS
  1
VISUALSTYLE
  2
AcDbVisualStyle
  3
ObjectDBX Classes
 90
     4095
 91
        4
280
     0
281
     0
  0
CLASS
  1
MATERIAL
  2
AcDbMaterial
  3
ObjectDBX Classes
 90
     1153
 91
        4
280
     0
281
     0
  0
ENDSEC
  0
SECTION
  2
TABLES
  0
TABLE
  2
VPORT
  5
8
330
0
100
AcDbSymbolTable
 70
     1
  0
VPORT
  5
29
330
8
100
AcDbSymbolTableRecord
100
AcDbViewportTableRecord
  2
*Active
 70
     0
 10
0.0
 20
0.0
 11
1.0
 21
1.0
 12
10.42990654205607
 22
4.5
 13
0.0
 23
0.0
 14
0.5
 24
0.5
 15
0.5
 25
0.5
 16
0.0
 26
0.0
 36
1.0
 17
0.0
 27
0.0
 37
0.0
 40
9.0
 41
1.972972972850329
 42
50.0
 43
0.0
 44
0.0
 50
0.0
 51
0.0
 71
     0
 72
   100
 73
     1
 74
     3
 75
     0
 76
     0
 77
     0
 78
     0
281
     0
 65
     1
110
0.0
120
0.0
130
0.0
111
1.0
121
0.0
131
0.0
112
0.0
122
1.0
132
0.0
 79
     0
146
0.0
 60
     3
 61
     5
292
     1
282
     1
141
0.0
142
0.0
 63
   250
  0
ENDTAB
  0
TABLE
  2
LTYPE
  5
5
330
0
100
AcDbSymbolTable
 70
     1
  0
LTYPE
  5
14
330
5
100
AcDbSymbolTableRecord
100
AcDbLinetypeTableRecord
  2
ByBlock
 70
     0
  3

 72
    65
 73
     0
 40
0.0
  0
LTYPE
  5
15
330
5
100
AcDbSymbolTableRecord
100
AcDbLinetypeTableRecord
  2
ByLayer
 70
     0
  3

 72
    65
 73
     0
 40
0.0
  0
LTYPE
  5
16
330
5
100
AcDbSymbolTableRecord
100
AcDbLinetypeTableRecord
  2
Continuous
 70
     0
  3
Solid line
 72
    65
 73
     0
 40
0.0
  0
ENDTAB
  0
TABLE
  2
LAYER
  5
2
330
0
100
AcDbSymbolTable
 70
     1
  0
LAYER
  5
10
330
2
100
AcDbSymbolTableRecord
100
AcDbLayerTableRecord
  2
0
 70
     0
 62
     7
  6
Continuous
370
    -3
390
F
347
3E
  0
ENDTAB
  0
TABLE
  2
STYLE
  5
3
330
0
100
AcDbSymbolTable
 70
     1
  0
STYLE
  5
11
330
3
100
AcDbSymbolTableRecord
100
AcDbTextStyleTableRecord
  2
Standard
 70
     0
 40
0.0
 41
1.0
 50
0.0
 71
     0
 42
0.2
  3
txt
  4

  0
ENDTAB
  0
TABLE
  2
VIEW
  5
6
330
0
100
AcDbSymbolTable
 70
     0
  0
ENDTAB
  0
TABLE
  2
UCS
  5
7
330
0
100
AcDbSymbolTable
 70
     0
  0
ENDTAB
  0
TABLE
  2
APPID
  5
9
330
0
100
AcDbSymbolTable
 70
     2
  0
APPID
  5
12
330
9
100
AcDbSymbolTableRecord
100
AcDbRegAppTableRecord
  2
ACAD
 70
     0
  0
APPID
  5
3F
330
9
100
AcDbSymbolTableRecord
100
AcDbRegAppTableRecord
  2
ODA
 70
     0
  0
ENDTAB
  0
TABLE
  2
DIMSTYLE
  5
A
330
0
100
AcDbSymbolTable
 70
     1
100
AcDbDimStyleTable
  0
DIMSTYLE
105
27
330
A
100
AcDbSymbolTableRecord
100
AcDbDimStyleTableRecord
  2
Standard
 70
     0
178
     0
340
11
  0
ENDTAB
  0
TABLE
  2
BLOCK_RECORD
  5
1
330
0
100
AcDbSymbolTable
 70
     1
  0
BLOCK_RECORD
  5
1F
330
1
100
AcDbSymbolTableRecord
100
AcDbBlockTableRecord
  2
*Model_Space
340
22
 70
     0
280
     1
281
     0
  0
BLOCK_RECORD
  5
1B
330
1
100
AcDbSymbolTableRecord
100
AcDbBlockTableRecord
  2
*Paper_Space
340
1E
 70
     0
280
     1
281
     0
  0
BLOCK_RECORD
  5
23
330
1
100
AcDbSymbolTableRecord
100
AcDbBlockTableRecord
  2
*Paper_Space0
340
26
 70
     0
280
     1
281
     0
  0
ENDTAB
  0
ENDSEC
  0
SECTION
  2
BLOCKS
  0
BLOCK
  5
20
330
1F
100
AcDbEntity
  8
0
100
AcDbBlockBegin
  2
*Model_Space
 70
     0
 10
0.0
 20
0.0
 30
0.0
  3
*Model_Space
  1

  0
ENDBLK
  5
21
330
1F
100
AcDbEntity
  8
0
100
AcDbBlockEnd
  0
BLOCK
  5
1C
330
1B
100
AcDbEntity
 67
     1
  8
0
100
AcDbBlockBegin
  2
*Paper_Space
 70
     0
 10
0.0
 20
0.0
 30
0.0
  3
*Paper_Space
  1

  0
ENDBLK
  5
1D
330
1B
100
AcDbEntity
 67
     1
  8
0
100
AcDbBlockEnd
  0
BLOCK
  5
24
330
23
100
AcDbEntity
  8
0
100
AcDbBlockBegin
  2
*Paper_Space0
 70
     0
 10
0.0
 20
0.0
 30
0.0
  3
*Paper_Space0
  1

  0
ENDBLK
  5
25
330
23
100
AcDbEntity
  8
0
100
AcDbBlockEnd
  0
ENDSEC
  0
SECTION
  2
ENTITIES
  0
SPLINE
  5
40
330
1F
100
AcDbEntity
  8
0
370
    15
100
AcDbSpline
210
0.0
220
0.0
230
1.0
 70
    24
 71
     3
 72
     8
 73
     4
 74
     0
 42
0.0000000001
 43
0.0000000001
 40
0.0
 40
0.0
 40
0.0
 40
0.0
 40
1.0
 40
1.0
 40
1.0
 40
1.0
 10
3.67238
 20
11.41412
 30
0.0
 10
3.67238
 20
11.41412
 30
0.0
 10
3.67238
 20
11.43079
 30
0.0
 10
3.67238
 20
11.43079
 30
0.0
  0
SPLINE
  5
41
330
1F
100
AcDbEntity
  8
0
370
    15
100
AcDbSpline
210
0.0
220
0.0
230
1.0
 70
    24
 71
     3
 72
     8
 73
     4
 74
     0
 42
0.0000000001
 43
0.0000000001
 40
0.0
 40
0.0
 40
0.0
 40
0.0
 40
1.0
 40
1.0
 40
1.0
 40
1.0
 10
3.33905
 20
11.43079
 30
0.0
 10
3.33905
 20
11.43079
 30
0.0
 10
3.33905
 20
11.41412
 30
0.0
 10
3.33905
 20
11.41412
 30
0.0
  0
SPLINE
  5
42
330
1F
100
AcDbEntity
  8
0
370
    15
100
AcDbSpline
210
0.0
220
0.0
230
1.0
 70
    24
 71
     3
 72
     8
 73
     4
 74
     0
 42
0.0000000001
 43
0.0000000001
 40
0.0
 40
0.0
 40
0.0
 40
0.0
 40
1.0
 40
1.0
 40
1.0
 40
1.0
 10
-3.82762
 20
11.41412
 30
0.0
 10
-3.82762
 20
11.41412
 30
0.0
 10
-3.82762
 20
11.43079
 30
0.0
 10
-3.82762
 20
11.43079
 30
0.0
  0
SPLINE
  5
43
330
1F
100
AcDbEntity
  8
0
370
    15
100
AcDbSpline
210
0.0
220
0.0
230
1.0
 70
    24
 71
     3
 72
     8
 73
     4
 74
     0
 42
0.0000000001
 43
0.0000000001
 40
0.0
 40
0.0
 40
0.0
 40
0.0
 40
1.0
 40
1.0
 40
1.0
 40
1.0
 10
-4.16095
 20
11.43079
 30
0.0
 10
-4.16095
 20
11.43079
 30
0.0
 10
-4.16095
 20
11.41412
 30
0.0
 10
-4.16095
 20
11.41412
 30
0.0
  0
SPLINE
  5
44
330
1F
100
AcDbEntity
  8
0
370
    15
100
AcDbSpline
210
0.0
220
0.0
230
1.0
 70
    24
 71
     3
 72
     8
 73
     4
 74
     0
 42
0.0000000001
 43
0.0000000001
 40
0.0
 40
0.0
 40
0.0
 40
0.0
 40
1.0
 40
1.0
 40
1.0
 40
1.0
 10
-11.32762
 20
11.41412
 30
0.0
 10
-11.32762
 20
11.41412
 30
0.0
 10
-11.32762
 20
11.43079
 30
0.0
 10
-11.32762
 20
11.43079
 30
0.0
  0
SPLINE
  5
45
330
1F
100
AcDbEntity
  8
0
370
    15
100
AcDbSpline
210
0.0
220
0.0
230
1.0
 70
    24
 71
     3
 72
     8
 73
     4
 74
     0
 42
0.0000000001
 43
0.0000000001
 40
0.0
 40
0.0
 40
0.0
 40
0.0
 40
1.0
 40
1.0
 40
1.0
 40
1.0
 10
-11.66095
 20
11.43079
 30
0.0
 10
-11.66095
 20
11.43079
 30
0.0
 10
-11.66095
 20
11.41412
 30
0.0
 10
-11.66095
 20
11.41412
 30
0.0
  0
SPLINE
  5
46
330
1F
100
AcDbEntity
  8
0
370
    15
100
AcDbSpline
210
0.0
220
0.0
230
1.0
 70
    24
 71
     3
 72
     8
 73
     4
 74
     0
 42
0.0000000001
 43
0.0000000001
 40
0.0
 40
0.0
 40
0.0
 40
0.0
 40
1.0
 40
1.0
 40
1.0
 40
1.0
 10
4.33905
 20
11.68079
 30
0.0
 10
4.33905
 20
11.68079
 30
0.0
 10
3.93905
 20
11.68079
 30
0.0
 10
3.93905
 20
11.68079
 30
0.0
  0
SPLINE
  5
47
330
1F
100
AcDbEntity
  8
0
370
    15
100
AcDbSpline
210
0.0
220
0.0
230
1.0
 70
    24
 71
     3
 72
     8
 73
     4
 74
     0
 42
0.0000000001
 43
0.0000000001
 40
0.0
 40
0.0
 40
0.0
 40
0.0
 40
1.0
 40
1.0
 40
1.0
 40
1.0
 10
4.33905
 20
11.68079
 30
0.0
 10
4.33905
 20
11.68079
 30
0.0
 10
4.33905
 20
11.44746
 30
0.0
 10
4.33905
 20
11.44746
 30
0.0
  0
SPLINE
  5
48
330
1F
100
AcDbEntity
  8
0
370
    15
100
AcDbSpline
210
0.0
220
0.0
230
1.0
 70
    24
 71
     3
 72
     8
 73
     4
 74
     0
 42
0.0000000001
 43
0.0000000001
 40
0.0
 40
0.0
 40
0.0
 40
0.0
 40
1.0
 40
1.0
 40
1.0
 40
1.0
 10
3.93905
 20
11.44746
 30
0.0
 10
3.93905
 20
11.44746
 30
0.0
 10
4.33905
 20
11.44746
 30
0.0
 10
4.33905
 20
11.44746
 30
0.0
  0
SPLINE
  5
49
330
1F
100
AcDbEntity
  8
0
370
    15
100
AcDbSpline
210
0.0
220
0.0
230
1.0
 70
    24
 71
     3
 72
     8
 73
     4
 74
     0
 42
0.0000000001
 43
0.0000000001
 40
0.0
 40
0.0
 40
0.0
 40
0.0
 40
1.0
 40
1.0
 40
1.0
 40
1.0
 10
3.93905
 20
11.44746
 30
0.0
 10
3.93905
 20
11.44746
 30
0.0
 10
3.93905
 20
11.68079
 30
0.0
 10
3.93905
 20
11.68079
 30
0.0
  0
SPLINE
  5
4A
330
1F
100
AcDbEntity
  8
0
370
    15
100
AcDbSpline
210
0.0
220
0.0
230
1.0
 70
    24
 71
     3
 72
     8
 73
     4
 74
     0
 42
0.0000000001
 43
0.0000000001
 40
0.0
 40
0.0
 40
0.0
 40
0.0
 40
1.0
 40
1.0
 40
1.0
 40
1.0
 10
4.33905
 20
11.44746
 30
0.0
 10
4.33905
 20
11.44746
 30
0.0
 10
4.32238
 20
11.43079
 30
0.0
 10
4.32238
 20
11.43079
 30
0.0
  0
SPLINE
  5
4B
330
1F
100
AcDbEntity
  8
0
370
    15
100
AcDbSpline
210
0.0
220
0.0
230
1.0
 70
    24
 71
     3
 72
     8
 73
     4
 74
     0
 42
0.0000000001
 43
0.0000000001
 40
0.0
 40
0.0
 40
0.0
 40
0.0
 40
1.0
 40
1.0
 40
1.0
 40
1.0
 10
4.32238
 20
11.43079
 30
0.0
 10
4.32238
 20
11.43079
 30
0.0
 10
3.93905
 20
11.43079
 30
0.0
 10
3.93905
 20
11.43079
 30
0.0
  0
SPLINE
  5
4C
330
1F
100
AcDbEntity
  8
0
370
    15
100
AcDbSpline
210
0.0
220
0.0
230
1.0
 70
    24
 71
     3
 72
     8
 73
     4
 74
     0
 42
0.0000000001
 43
0.0000000001
 40
0.0
 40
0.0
 40
0.0
 40
0.0
 40
1.0
 40
1.0
 40
1.0
 40
1.0
 10
3.93905
 20
11.44746
 30
0.0
 10
3.93905
 20
11.44746
 30
0.0
 10
3.93905
 20
11.43079
 30
0.0
 10
3.93905
 20
11.43079
 30
0.0
  0
SPLINE
  5
4D
330
1F
100
AcDbEntity
  8
0
370
    15
100
AcDbSpline
210
0.0
220
0.0
230
1.0
 70
    24
 71
     3
 72
     8
 73
     4
 74
     0
 42
0.0000000001
 43
0.0000000001
 40
0.0
 40
0.0
 40
0.0
 40
0.0
 40
1.0
 40
1.0
 40
1.0
 40
1.0
 10
3.93905
 20
11.69746
 30
0.0
 10
3.93905
 20
11.69746
 30
0.0
 10
4.32238
 20
11.69746
 30
0.0
 10
4.32238
 20
11.69746
 30
0.0
  0
SPLINE
  5
4E
330
1F
100
AcDbEntity
  8
0
370
    15
100
AcDbSpline
210
0.0
220
0.0
230
1.0
 70
    24
 71
     3
 72
     8
 73
     4
 74
     0
 42
0.0000000001
 43
0.0000000001
 40
0.0
 40
0.0
 40
0.0
 40
0.0
 40
1.0
 40
1.0
 40
1.0
 40
1.0
 10
4.32238
 20
11.69746
 30
0.0
 10
4.32238
 20
11.69746
 30
0.0
 10
4.33905
 20
11.68079
 30
0.0
 10
4.33905
 20
11.68079
 30
0.0
  0
SPLINE
  5
4F
330
1F
100
AcDbEntity
  8
0
370
    15
100
AcDbSpline
210
0.0
220
0.0
230
1.0
 70
    24
 71
     3
 72
     8
 73
     4
 74
     0
 42
0.0000000001
 43
0.0000000001
 40
0.0
 40
0.0
 40
0.0
 40
0.0
 40
1.0
 40
1.0
 40
1.0
 40
1.0
 10
3.93905
 20
11.69746
 30
0.0
 10
3.93905
 20
11.69746
 30
0.0
 10
3.93905
 20
11.68079
 30
0.0
 10
3.93905
 20
11.68079
 30
0.0
  0
SPLINE
  5
50
330
1F
100
AcDbEntity
  8
0
370
    15
100
AcDbSpline
210
0.0
220
0.0
230
1.0
 70
    24
 71
     3
 72
     8
 73
     4
 74
     0
 42
0.0000000001
 43
0.0000000001
 40
0.0
 40
0.0
 40
0.0
 40
0.0
 40
1.0
 40
1.0
 40
1.0
 40
1.0
 10
3.93905
 20
11.68079
 30
0.0
 10
3.93905
 20
11.68079
 30
0.0
 10
-11.92762
 20
11.68079
 30
0.0
 10
-11.92762
 20
11.68079
 30
0.0
  0
SPLINE
  5
51
330
1F
100
AcDbEntity
  8
0
370
    15
100
AcDbSpline
210
0.0
220
0.0
230
1.0
 70
    24
 71
     3
 72
     8
 73
     4
 74
     0
 42
0.0000000001
 43
0.0000000001
 40
0.0
 40
0.0
 40
0.0
 40
0.0
 40
1.0
 40
1.0
 40
1.0
 40
1.0
 10
-11.92762
 20
11.44746
 30
0.0
 10
-11.92762
 20
11.44746
 30
0.0
 10
3.93905
 20
11.44746
 30
0.0
 10
3.93905
 20
11.44746
 30
0.0
  0
SPLINE
  5
52
330
1F
100
AcDbEntity
  8
0
370
    15
100
AcDbSpline
210
0.0
220
0.0
230
1.0
 70
    24
 71
     3
 72
     8
 73
     4
 74
     0
 42
0.0000000001
 43
0.0000000001
 40
0.0
 40
0.0
 40
0.0
 40
0.0
 40
1.0
 40
1.0
 40
1.0
 40
1.0
 10
-11.92762
 20
11.68079
 30
0.0
 10
-11.92762
 20
11.68079
 30
0.0
 10
-11.92762
 20
11.44746
 30
0.0
 10
-11.92762
 20
11.44746
 30
0.0
  0
SPLINE
  5
53
330
1F
100
AcDbEntity
  8
0
370
    15
100
AcDbSpline
210
0.0
220
0.0
230
1.0
 70
    24
 71
     3
 72
     8
 73
     4
 74
     0
 42
0.0000000001
 43
0.0000000001
 40
0.0
 40
0.0
 40
0.0
 40
0.0
 40
1.0
 40
1.0
 40
1.0
 40
1.0
 10
-11.92762
 20
11.69746
 30
0.0
 10
-11.92762
 20
11.69746
 30
0.0
 10
3.93905
 20
11.69746
 30
0.0
 10
3.93905
 20
11.69746
 30
0.0
  0
SPLINE
  5
54
330
1F
100
AcDbEntity
  8
0
370
    15
100
AcDbSpline
210
0.0
220
0.0
230
1.0
 70
    24
 71
     3
 72
     8
 73
     4
 74
     0
 42
0.0000000001
 43
0.0000000001
 40
0.0
 40
0.0
 40
0.0
 40
0.0
 40
1.0
 40
1.0
 40
1.0
 40
1.0
 10
-11.92762
 20
11.68079
 30
0.0
 10
-11.92762
 20
11.68079
 30
0.0
 10
-11.92762
 20
11.69746
 30
0.0
 10
-11.92762
 20
11.69746
 30
0.0
  0
SPLINE
  5
55
330
1F
100
AcDbEntity
  8
0
370
    15
100
AcDbSpline
210
0.0
220
0.0
230
1.0
 70
    24
 71
     3
 72
     8
 73
     4
 74
     0
 42
0.0000000001
 43
0.0000000001
 40
0.0
 40
0.0
 40
0.0
 40
0.0
 40
1.0
 40
1.0
 40
1.0
 40
1.0
 10
3.93905
 20
11.43079
 30
0.0
 10
3.93905
 20
11.43079
 30
0.0
 10
-11.92762
 20
11.43079
 30
0.0
 10
-11.92762
 20
11.43079
 30
0.0
  0
SPLINE
  5
56
330
1F
100
AcDbEntity
  8
0
370
    15
100
AcDbSpline
210
0.0
220
0.0
230
1.0
 70
    24
 71
     3
 72
     8
 73
     4
 74
     0
 42
0.0000000001
 43
0.0000000001
 40
0.0
 40
0.0
 40
0.0
 40
0.0
 40
1.0
 40
1.0
 40
1.0
 40
1.0
 10
-11.92762
 20
11.44746
 30
0.0
 10
-11.92762
 20
11.44746
 30
0.0
 10
-11.92762
 20
11.43079
 30
0.0
 10
-11.92762
 20
11.43079
 30
0.0
  0
SPLINE
  5
57
330
1F
100
AcDbEntity
  8
0
370
    15
100
AcDbSpline
210
0.0
220
0.0
230
1.0
 70
    24
 71
     3
 72
     8
 73
     4
 74
     0
 42
0.0000000001
 43
0.0000000001
 40
0.0
 40
0.0
 40
0.0
 40
0.0
 40
1.0
 40
1.0
 40
1.0
 40
1.0
 10
-12.32762
 20
11.44746
 30
0.0
 10
-12.32762
 20
11.44746
 30
0.0
 10
-11.92762
 20
11.44746
 30
0.0
 10
-11.92762
 20
11.44746
 30
0.0
  0
SPLINE
  5
58
330
1F
100
AcDbEntity
  8
0
370
    15
100
AcDbSpline
210
0.0
220
0.0
230
1.0
 70
    24
 71
     3
 72
     8
 73
     4
 74
     0
 42
0.0000000001
 43
0.0000000001
 40
0.0
 40
0.0
 40
0.0
 40
0.0
 40
1.0
 40
1.0
 40
1.0
 40
1.0
 10
-11.92762
 20
11.43079
 30
0.0
 10
-11.92762
 20
11.43079
 30
0.0
 10
-12.31095
 20
11.43079
 30
0.0
 10
-12.31095
 20
11.43079
 30
0.0
  0
SPLINE
  5
59
330
1F
100
AcDbEntity
  8
0
370
    15
100
AcDbSpline
210
0.0
220
0.0
230
1.0
 70
    24
 71
     3
 72
     8
 73
     4
 74
     0
 42
0.0000000001
 43
0.0000000001
 40
0.0
 40
0.0
 40
0.0
 40
0.0
 40
1.0
 40
1.0
 40
1.0
 40
1.0
 10
-12.31095
 20
11.43079
 30
0.0
 10
-12.31095
 20
11.43079
 30
0.0
 10
-12.32762
 20
11.44746
 30
0.0
 10
-12.32762
 20
11.44746
 30
0.0
  0
SPLINE
  5
5A
330
1F
100
AcDbEntity
  8
0
370
    15
100
AcDbSpline
210
0.0
220
0.0
230
1.0
 70
    24
 71
     3
 72
     8
 73
     4
 74
     0
 42
0.0000000001
 43
0.0000000001
 40
0.0
 40
0.0
 40
0.0
 40
0.0
 40
1.0
 40
1.0
 40
1.0
 40
1.0
 10
-11.92762
 20
11.68079
 30
0.0
 10
-11.92762
 20
11.68079
 30
0.0
 10
-12.32762
 20
11.68079
 30
0.0
 10
-12.32762
 20
11.68079
 30
0.0
  0
SPLINE
  5
5B
330
1F
100
AcDbEntity
  8
0
370
    15
100
AcDbSpline
210
0.0
220
0.0
230
1.0
 70
    24
 71
     3
 72
     8
 73
     4
 74
     0
 42
0.0000000001
 43
0.0000000001
 40
0.0
 40
0.0
 40
0.0
 40
0.0
 40
1.0
 40
1.0
 40
1.0
 40
1.0
 10
-12.32762
 20
11.68079
 30
0.0
 10
-12.32762
 20
11.68079
 30
0.0
 10
-12.31095
 20
11.69746
 30
0.0
 10
-12.31095
 20
11.69746
 30
0.0
  0
SPLINE
  5
5C
330
1F
100
AcDbEntity
  8
0
370
    15
100
AcDbSpline
210
0.0
220
0.0
230
1.0
 70
    24
 71
     3
 72
     8
 73
     4
 74
     0
 42
0.0000000001
 43
0.0000000001
 40
0.0
 40
0.0
 40
0.0
 40
0.0
 40
1.0
 40
1.0
 40
1.0
 40
1.0
 10
-12.31095
 20
11.69746
 30
0.0
 10
-12.31095
 20
11.69746
 30
0.0
 10
-11.92762
 20
11.69746
 30
0.0
 10
-11.92762
 20
11.69746
 30
0.0
  0
SPLINE
  5
5D
330
1F
100
AcDbEntity
  8
0
370
    15
100
AcDbSpline
210
0.0
220
0.0
230
1.0
 70
    24
 71
     3
 72
     8
 73
     4
 74
     0
 42
0.0000000001
 43
0.0000000001
 40
0.0
 40
0.0
 40
0.0
 40
0.0
 40
1.0
 40
1.0
 40
1.0
 40
1.0
 10
-12.32762
 20
11.44746
 30
0.0
 10
-12.32762
 20
11.44746
 30
0.0
 10
-12.32762
 20
11.68079
 30
0.0
 10
-12.32762
 20
11.68079
 30
0.0
  0
SPLINE
  5
5E
330
1F
100
AcDbEntity
  8
0
370
    15
100
AcDbSpline
210
0.0
220
0.0
230
1.0
 70
    24
 71
     3
 72
     8
 73
     4
 74
     0
 42
0.0000000001
 43
0.0000000001
 40
0.0
 40
0.0
 40
0.0
 40
0.0
 40
1.0
 40
1.0
 40
1.0
 40
1.0
 10
-12.32762
 20
11.18079
 30
0.0
 10
-12.32762
 20
11.18079
 30
0.0
 10
4.33905
 20
11.18079
 30
0.0
 10
4.33905
 20
11.18079
 30
0.0
  0
SPLINE
  5
5F
330
1F
100
AcDbEntity
  8
0
370
    15
100
AcDbSpline
210
0.0
220
0.0
230
1.0
 70
    24
 71
     3
 72
     8
 73
     4
 74
     0
 42
0.0000000001
 43
0.0000000001
 40
0.0
 40
0.0
 40
0.0
 40
0.0
 40
1.0
 40
1.0
 40
1.0
 40
1.0
 10
-12.32762
 20
11.18079
 30
0.0
 10
-12.32762
 20
11.18079
 30
0.0
 10
-12.32762
 20
11.41412
 30
0.0
 10
-12.32762
 20
11.41412
 30
0.0
  0
SPLINE
  5
60
330
1F
100
AcDbEntity
  8
0
370
    15
100
AcDbSpline
210
0.0
220
0.0
230
1.0
 70
    24
 71
     3
 72
     8
 73
     4
 74
     0
 42
0.0000000001
 43
0.0000000001
 40
0.0
 40
0.0
 40
0.0
 40
0.0
 40
1.0
 40
1.0
 40
1.0
 40
1.0
 10
-12.32762
 20
11.41412
 30
0.0
 10
-12.32762
 20
11.41412
 30
0.0
 10
4.33905
 20
11.41412
 30
0.0
 10
4.33905
 20
11.41412
 30
0.0
  0
SPLINE
  5
61
330
1F
100
AcDbEntity
  8
0
370
    15
100
AcDbSpline
210
0.0
220
0.0
230
1.0
 70
    24
 71
     3
 72
     8
 73
     4
 74
     0
 42
0.0000000001
 43
0.0000000001
 40
0.0
 40
0.0
 40
0.0
 40
0.0
 40
1.0
 40
1.0
 40
1.0
 40
1.0
 10
4.33905
 20
11.18079
 30
0.0
 10
4.33905
 20
11.18079
 30
0.0
 10
4.33905
 20
11.41412
 30
0.0
 10
4.33905
 20
11.41412
 30
0.0
  0
SPLINE
  5
62
330
1F
100
AcDbEntity
  8
0
370
    15
100
AcDbSpline
210
0.0
220
0.0
230
1.0
 70
    24
 71
     3
 72
     8
 73
     4
 74
     0
 42
0.0000000001
 43
0.0000000001
 40
0.0
 40
0.0
 40
0.0
 40
0.0
 40
1.0
 40
1.0
 40
1.0
 40
1.0
 10
-12.32762
 20
11.69746
 30
0.0
 10
-12.32762
 20
11.69746
 30
0.0
 10
-12.32762
 20
11.84746
 30
0.0
 10
-12.32762
 20
11.84746
 30
0.0
  0
SPLINE
  5
63
330
1F
100
AcDbEntity
  8
0
370
    15
100
AcDbSpline
210
0.0
220
0.0
230
1.0
 70
    24
 71
     3
 72
     8
 73
     4
 74
     0
 42
0.0000000001
 43
0.0000000001
 40
0.0
 40
0.0
 40
0.0
 40
0.0
 40
1.0
 40
1.0
 40
1.0
 40
1.0
 10
-12.32762
 20
11.84746
 30
0.0
 10
-12.32762
 20
11.84746
 30
0.0
 10
4.33905
 20
11.84746
 30
0.0
 10
4.33905
 20
11.84746
 30
0.0
  0
SPLINE
  5
64
330
1F
100
AcDbEntity
  8
0
370
    15
100
AcDbSpline
210
0.0
220
0.0
230
1.0
 70
    24
 71
     3
 72
     8
 73
     4
 74
     0
 42
0.0000000001
 43
0.0000000001
 40
0.0
 40
0.0
 40
0.0
 40
0.0
 40
1.0
 40
1.0
 40
1.0
 40
1.0
 10
4.33905
 20
11.69746
 30
0.0
 10
4.33905
 20
11.69746
 30
0.0
 10
4.33905
 20
11.84746
 30
0.0
 10
4.33905
 20
11.84746
 30
0.0
  0
SPLINE
  5
65
330
1F
100
AcDbEntity
  8
0
370
    15
100
AcDbSpline
210
0.0
220
0.0
230
1.0
 70
    24
 71
     3
 72
     8
 73
     4
 74
     0
 42
0.0000000001
 43
0.0000000001
 40
0.0
 40
0.0
 40
0.0
 40
0.0
 40
1.0
 40
1.0
 40
1.0
 40
1.0
 10
-12.32762
 20
11.69746
 30
0.0
 10
-12.32762
 20
11.69746
 30
0.0
 10
-12.31095
 20
11.69746
 30
0.0
 10
-12.31095
 20
11.69746
 30
0.0
  0
SPLINE
  5
66
330
1F
100
AcDbEntity
  8
0
370
    15
100
AcDbSpline
210
0.0
220
0.0
230
1.0
 70
    24
 71
     3
 72
     8
 73
     4
 74
     0
 42
0.0000000001
 43
0.0000000001
 40
0.0
 40
0.0
 40
0.0
 40
0.0
 40
1.0
 40
1.0
 40
1.0
 40
1.0
 10
4.32238
 20
11.69746
 30
0.0
 10
4.32238
 20
11.69746
 30
0.0
 10
4.33905
 20
11.69746
 30
0.0
 10
4.33905
 20
11.69746
 30
0.0
  0
SPLINE
  5
67
330
1F
100
AcDbEntity
  8
0
370
    15
100
AcDbSpline
210
0.0
220
0.0
230
1.0
 70
     8
 71
     3
 72
    12
 73
     8
 74
     0
 42
0.0000000001
 43
0.0000000001
 40
0.0
 40
0.0
 40
0.0
 40
0.0
 40
0.3333333333333333
 40
0.3333333333333333
 40
0.3333333333333333
 40
0.3333333333333333
 40
1.0
 40
1.0
 40
1.0
 40
1.0
 10
2.67238
 20
11.41412
 30
0.0
 10
2.67238
 20
11.41412
 30
0.0
 10
2.71616
 20
11.42106
 30
0.0
 10
2.71616
 20
11.42106
 30
0.0
 10
2.71616
 20
11.42106
 30
0.0
 10
2.71616
 20
11.42106
 30
0.0
 10
2.73905
 20
11.43079
 30
0.0
 10
2.73905
 20
11.43079
 30
0.0
  0
SPLINE
  5
68
330
1F
100
AcDbEntity
  8
0
370
    15
100
AcDbSpline
210
0.0
220
0.0
230
1.0
 70
    24
 71
     3
 72
     8
 73
     4
 74
     0
 42
0.0000000001
 43
0.0000000001
 40
0.0
 40
0.0
 40
0.0
 40
0.0
 40
1.0
 40
1.0
 40
1.0
 40
1.0
 10
4.33905
 20
11.41412
 30
0.0
 10
4.33905
 20
11.41412
 30
0.0
 10
4.33905
 20
11.44746
 30
0.0
 10
4.33905
 20
11.44746
 30
0.0
  0
SPLINE
  5
69
330
1F
100
AcDbEntity
  8
0
370
    15
100
AcDbSpline
210
0.0
220
0.0
230
1.0
 70
    24
 71
     3
 72
     8
 73
     4
 74
     0
 42
0.0000000001
 43
0.0000000001
 40
0.0
 40
0.0
 40
0.0
 40
0.0
 40
1.0
 40
1.0
 40
1.0
 40
1.0
 10
4.33905
 20
11.68079
 30
0.0
 10
4.33905
 20
11.68079
 30
0.0
 10
4.33905
 20
11.69746
 30
0.0
 10
4.33905
 20
11.69746
 30
0.0
  0
SPLINE
  5
6A
330
1F
100
AcDbEntity
  8
0
370
    15
100
AcDbSpline
210
0.0
220
0.0
230
1.0
 70
     8
 71
     3
 72
    12
 73
     8
 74
     0
 42
0.0000000001
 43
0.0000000001
 40
0.0
 40
0.0
 40
0.0
 40
0.0
 40
0.3333333333333333
 40
0.3333333333333333
 40
0.3333333333333333
 40
0.3333333333333333
 40
1.0
 40
1.0
 40
1.0
 40
1.0
 10
2.60571
 20
11.43079
 30
0.0
 10
2.60571
 20
11.43079
 30
0.0
 10
2.6286
 20
11.42106
 30
0.0
 10
2.6286
 20
11.42106
 30
0.0
 10
2.6286
 20
11.42106
 30
0.0
 10
2.6286
 20
11.42106
 30
0.0
 10
2.67238
 20
11.41412
 30
0.0
 10
2.67238
 20
11.41412
 30
0.0
  0
SPLINE
  5
6B
330
1F
100
AcDbEntity
  8
0
370
    15
100
AcDbSpline
210
0.0
220
0.0
230
1.0
 70
     8
 71
     3
 72
    12
 73
     8
 74
     0
 42
0.0000000001
 43
0.0000000001
 40
0.0
 40
0.0
 40
0.0
 40
0.0
 40
0.3333333333333333
 40
0.3333333333333333
 40
0.3333333333333333
 40
0.3333333333333333
 40
1.0
 40
1.0
 40
1.0
 40
1.0
 10
-10.59429
 20
11.43079
 30
0.0
 10
-10.59429
 20
11.43079
 30
0.0
 10
-10.61718
 20
11.42106
 30
0.0
 10
-10.61718
 20
11.42106
 30
0.0
 10
-10.61718
 20
11.42106
 30
0.0
 10
-10.61718
 20
11.42106
 30
0.0
 10
-10.66095
 20
11.41412
 30
0.0
 10
-10.66095
 20
11.41412
 30
0.0
  0
SPLINE
  5
6C
330
1F
100
AcDbEntity
  8
0
370
    15
100
AcDbSpline
210
0.0
220
0.0
230
1.0
 70
     8
 71
     3
 72
    12
 73
     8
 74
     0
 42
0.0000000001
 43
0.0000000001
 40
0.0
 40
0.0
 40
0.0
 40
0.0
 40
0.3333333333333333
 40
0.3333333333333333
 40
0.3333333333333333
 40
0.3333333333333333
 40
1.0
 40
1.0
 40
1.0
 40
1.0
 10
-10.66095
 20
11.41412
 30
0.0
 10
-10.66095
 20
11.41412
 30
0.0
 10
-10.70473
 20
11.42106
 30
0.0
 10
-10.70473
 20
11.42106
 30
0.0
 10
-10.70473
 20
11.42106
 30
0.0
 10
-10.70473
 20
11.42106
 30
0.0
 10
-10.72762
 20
11.43079
 30
0.0
 10
-10.72762
 20
11.43079
 30
0.0
  0
SPLINE
  5
6D
330
1F
100
AcDbEntity
  8
0
370
    15
100
AcDbSpline
210
0.0
220
0.0
230
1.0
 70
    24
 71
     3
 72
     8
 73
     4
 74
     0
 42
0.0000000001
 43
0.0000000001
 40
0.0
 40
0.0
 40
0.0
 40
0.0
 40
1.0
 40
1.0
 40
1.0
 40
1.0
 10
-12.32762
 20
11.41412
 30
0.0
 10
-12.32762
 20
11.41412
 30
0.0
 10
-12.32762
 20
11.44746
 30
0.0
 10
-12.32762
 20
11.44746
 30
0.0
  0
SPLINE
  5
6E
330
1F
100
AcDbEntity
  8
0
370
    15
100
AcDbSpline
210
0.0
220
0.0
230
1.0
 70
    24
 71
     3
 72
     8
 73
     4
 74
     0
 42
0.0000000001
 43
0.0000000001
 40
0.0
 40
0.0
 40
0.0
 40
0.0
 40
1.0
 40
1.0
 40
1.0
 40
1.0
 10
-12.32762
 20
11.68079
 30
0.0
 10
-12.32762
 20
11.68079
 30
0.0
 10
-12.32762
 20
11.69746
 30
0.0
 10
-12.32762
 20
11.69746
 30
0.0
  0
SPLINE
  5
6F
330
1F
100
AcDbEntity
  8
0
100
AcDbSpline
210
0.0
220
0.0
230
1.0
 70
    27
 71
     3
 72
    12
 73
     8
 74
     0
 42
0.0000000001
 43
0.0000000001
 40
0.0
 40
0.0
 40
0.0
 40
0.0
 40
0.3333333333333333
 40
0.3333333333333333
 40
0.3333333333333333
 40
0.3333333333333333
 40
1.0
 40
1.0
 40
1.0
 40
1.0
 10
5.19994
 20
11.84746
 30
0.0
 10
5.19994
 20
11.84746
 30
0.0
 10
5.14914
 20
12.17766
 30
0.0
 10
5.14914
 20
12.17766
 30
0.0
 10
5.14914
 20
12.17766
 30
0.0
 10
5.14914
 20
12.17766
 30
0.0
 10
5.19994
 20
11.84746
 30
0.0
 10
5.19994
 20
11.84746
 30
0.0
  0
SPLINE
  5
70
330
1F
100
AcDbEntity
  8
0
100
AcDbSpline
210
0.0
220
0.0
230
1.0
 70
     8
 71
     3
 72
    12
 73
     8
 74
     0
 42
0.0000000001
 43
0.0000000001
 40
0.0
 40
0.0
 40
0.0
 40
0.0
 40
0.3333333333333333
 40
0.3333333333333333
 40
0.3333333333333333
 40
0.3333333333333333
 40
1.0
 40
1.0
 40
1.0
 40
1.0
 10
5.14914
 20
12.17766
 30
0.0
 10
5.14914
 20
12.17766
 30
0.0
 10
5.25074
 20
12.17766
 30
0.0
 10
5.25074
 20
12.17766
 30
0.0
 10
5.25074
 20
12.17766
 30
0.0
 10
5.25074
 20
12.17766
 30
0.0
 10
5.19994
 20
11.84746
 30
0.0
 10
5.19994
 20
11.84746
 30
0.0
  0
SPLINE
  5
71
330
1F
100
AcDbEntity
  8
0
370
     9
100
AcDbSpline
210
0.0
220
0.0
230
1.0
 70
    24
 71
     3
 72
     8
 73
     4
 74
     0
 42
0.0000000001
 43
0.0000000001
 40
0.0
 40
0.0
 40
0.0
 40
0.0
 40
1.0
 40
1.0
 40
1.0
 40
1.0
 10
5.19994
 20
11.84746
 30
0.0
 10
5.19994
 20
11.84746
 30
0.0
 10
5.14914
 20
12.17766
 30
0.0
 10
5.14914
 20
12.17766
 30
0.0
  0
SPLINE
  5
72
330
1F
100
AcDbEntity
  8
0
370
     9
100
AcDbSpline
210
0.0
220
0.0
230
1.0
 70
     8
 71
     3
 72
    12
 73
     8
 74
     0
 42
0.0000000001
 43
0.0000000001
 40
0.0
 40
0.0
 40
0.0
 40
0.0
 40
0.3333333333333333
 40
0.3333333333333333
 40
0.3333333333333333
 40
0.3333333333333333
 40
1.0
 40
1.0
 40
1.0
 40
1.0
 10
5.14914
 20
12.17766
 30
0.0
 10
5.14914
 20
12.17766
 30
0.0
 10
5.25074
 20
12.17766
 30
0.0
 10
5.25074
 20
12.17766
 30
0.0
 10
5.25074
 20
12.17766
 30
0.0
 10
5.25074
 20
12.17766
 30
0.0
 10
5.19994
 20
11.84746
 30
0.0
 10
5.19994
 20
11.84746
 30
0.0
  0
SPLINE
  5
73
330
1F
100
AcDbEntity
  8
0
100
AcDbSpline
210
0.0
220
0.0
230
1.0
 70
    27
 71
     3
 72
    12
 73
     8
 74
     0
 42
0.0000000001
 43
0.0000000001
 40
0.0
 40
0.0
 40
0.0
 40
0.0
 40
0.3333333333333333
 40
0.3333333333333333
 40
0.3333333333333333
 40
0.3333333333333333
 40
1.0
 40
1.0
 40
1.0
 40
1.0
 10
5.19994
 20
11.18079
 30
0.0
 10
5.19994
 20
11.18079
 30
0.0
 10
5.25074
 20
10.85059
 30
0.0
 10
5.25074
 20
10.85059
 30
0.0
 10
5.25074
 20
10.85059
 30
0.0
 10
5.25074
 20
10.85059
 30
0.0
 10
5.19994
 20
11.18079
 30
0.0
 10
5.19994
 20
11.18079
 30
0.0
  0
SPLINE
  5
74
330
1F
100
AcDbEntity
  8
0
100
AcDbSpline
210
0.0
220
0.0
230
1.0
 70
     8
 71
     3
 72
    12
 73
     8
 74
     0
 42
0.0000000001
 43
0.0000000001
 40
0.0
 40
0.0
 40
0.0
 40
0.0
 40
0.3333333333333333
 40
0.3333333333333333
 40
0.3333333333333333
 40
0.3333333333333333
 40
1.0
 40
1.0
 40
1.0
 40
1.0
 10
5.25074
 20
10.85059
 30
0.0
 10
5.25074
 20
10.85059
 30
0.0
 10
5.14914
 20
10.85059
 30
0.0
 10
5.14914
 20
10.85059
 30
0.0
 10
5.14914
 20
10.85059
 30
0.0
 10
5.14914
 20
10.85059
 30
0.0
 10
5.19994
 20
11.18079
 30
0.0
 10
5.19994
 20
11.18079
 30
0.0
  0
SPLINE
  5
75
330
1F
100
AcDbEntity
  8
0
370
     9
100
AcDbSpline
210
0.0
220
0.0
230
1.0
 70
    24
 71
     3
 72
     8
 73
     4
 74
     0
 42
0.0000000001
 43
0.0000000001
 40
0.0
 40
0.0
 40
0.0
 40
0.0
 40
1.0
 40
1.0
 40
1.0
 40
1.0
 10
5.19994
 20
11.18079
 30
0.0
 10
5.19994
 20
11.18079
 30
0.0
 10
5.25074
 20
10.85059
 30
0.0
 10
5.25074
 20
10.85059
 30
0.0
  0
SPLINE
  5
76
330
1F
100
AcDbEntity
  8
0
370
     9
100
AcDbSpline
210
0.0
220
0.0
230
1.0
 70
     8
 71
     3
 72
    12
 73
     8
 74
     0
 42
0.0000000001
 43
0.0000000001
 40
0.0
 40
0.0
 40
0.0
 40
0.0
 40
0.3333333333333333
 40
0.3333333333333333
 40
0.3333333333333333
 40
0.3333333333333333
 40
1.0
 40
1.0
 40
1.0
 40
1.0
 10
5.25074
 20
10.85059
 30
0.0
 10
5.25074
 20
10.85059
 30
0.0
 10
5.14914
 20
10.85059
 30
0.0
 10
5.14914
 20
10.85059
 30
0.0
 10
5.14914
 20
10.85059
 30
0.0
 10
5.14914
 20
10.85059
 30
0.0
 10
5.19994
 20
11.18079
 30
0.0
 10
5.19994
 20
11.18079
 30
0.0
  0
SPLINE
  5
77
330
1F
100
AcDbEntity
  8
0
370
     9
100
AcDbSpline
210
0.0
220
0.0
230
1.0
 70
    24
 71
     3
 72
     8
 73
     4
 74
     0
 42
0.0000000001
 43
0.0000000001
 40
0.0
 40
0.0
 40
0.0
 40
0.0
 40
1.0
 40
1.0
 40
1.0
 40
1.0
 10
4.43905
 20
11.84746
 30
0.0
 10
4.43905
 20
11.84746
 30
0.0
 10
5.29994
 20
11.84746
 30
0.0
 10
5.29994
 20
11.84746
 30
0.0
  0
SPLINE
  5
78
330
1F
100
AcDbEntity
  8
0
370
     9
100
AcDbSpline
210
0.0
220
0.0
230
1.0
 70
    24
 71
     3
 72
     8
 73
     4
 74
     0
 42
0.0000000001
 43
0.0000000001
 40
0.0
 40
0.0
 40
0.0
 40
0.0
 40
1.0
 40
1.0
 40
1.0
 40
1.0
 10
4.43905
 20
11.18079
 30
0.0
 10
4.43905
 20
11.18079
 30
0.0
 10
5.29994
 20
11.18079
 30
0.0
 10
5.29994
 20
11.18079
 30
0.0
  0
SPLINE
  5
79
330
1F
100
AcDbEntity
  8
0
370
     9
100
AcDbSpline
210
0.0
220
0.0
230
1.0
 70
    24
 71
     3
 72
     8
 73
     4
 74
     0
 42
0.0000000001
 43
0.0000000001
 40
0.0
 40
0.0
 40
0.0
 40
0.0
 40
1.0
 40
1.0
 40
1.0
 40
1.0
 10
5.19994
 20
11.84746
 30
0.0
 10
5.19994
 20
11.84746
 30
0.0
 10
5.19994
 20
13.07532
 30
0.0
 10
5.19994
 20
13.07532
 30
0.0
  0
SPLINE
  5
7A
330
1F
100
AcDbEntity
  8
0
370
     9
100
AcDbSpline
210
0.0
220
0.0
230
1.0
 70
    24
 71
     3
 72
     8
 73
     4
 74
     0
 42
0.0000000001
 43
0.0000000001
 40
0.0
 40
0.0
 40
0.0
 40
0.0
 40
1.0
 40
1.0
 40
1.0
 40
1.0
 10
5.19994
 20
11.84746
 30
0.0
 10
5.19994
 20
11.84746
 30
0.0
 10
5.19994
 20
11.18079
 30
0.0
 10
5.19994
 20
11.18079
 30
0.0
  0
SPLINE
  5
7B
330
1F
100
AcDbEntity
  8
0
370
     9
100
AcDbSpline
210
0.0
220
0.0
230
1.0
 70
    24
 71
     3
 72
     8
 73
     4
 74
     0
 42
0.0000000001
 43
0.0000000001
 40
0.0
 40
0.0
 40
0.0
 40
0.0
 40
1.0
 40
1.0
 40
1.0
 40
1.0
 10
5.19994
 20
11.18079
 30
0.0
 10
5.19994
 20
11.18079
 30
0.0
 10
5.19994
 20
10.54579
 30
0.0
 10
5.19994
 20
10.54579
 30
0.0
  0
SPLINE
  5
7C
330
1F
100
AcDbEntity
  8
0
100
AcDbSpline
210
0.0
220
0.0
230
1.0
 70
    11
 71
     3
 72
    92
 73
    88
 74
     0
 42
0.0000000001
 43
0.0000000001
 40
0.0
 40
0.0
 40
0.0
 40
0.0
 40
0.0434782608695652
 40
0.0434782608695652
 40
0.0434782608695652
 40
0.0434782608695652
 40
0.0869565217391304
 40
0.0869565217391304
 40
0.0869565217391304
 40
0.0869565217391304
 40
0.1304347826086956
 40
0.1304347826086956
 40
0.1304347826086956
 40
0.1304347826086956
 40
0.1739130434782609
 40
0.1739130434782609
 40
0.1739130434782609
 40
0.1739130434782609
 40
0.2173913043478261
 40
0.2173913043478261
 40
0.2173913043478261
 40
0.2173913043478261
 40
0.2608695652173913
 40
0.2608695652173913
 40
0.2608695652173913
 40
0.2608695652173913
 40
0.3043478260869565
 40
0.3043478260869565
 40
0.3043478260869565
 40
0.3043478260869565
 40
0.3478260869565217
 40
0.3478260869565217
 40
0.3478260869565217
 40
0.3478260869565217
 40
0.391304347826087
 40
0.391304347826087
 40
0.391304347826087
 40
0.391304347826087
 40
0.4347826086956522
 40
0.4347826086956522
 40
0.4347826086956522
 40
0.4347826086956522
 40
0.4782608695652174
 40
0.4782608695652174
 40
0.4782608695652174
 40
0.4782608695652174
 40
0.5217391304347826
 40
0.5217391304347826
 40
0.5217391304347826
 40
0.5217391304347826
 40
0.5652173913043478
 40
0.5652173913043478
 40
0.5652173913043478
 40
0.5652173913043478
 40
0.6086956521739131
 40
0.6086956521739131
 40
0.6086956521739131
 40
0.6086956521739131
 40
0.6521739130434783
 40
0.6521739130434783
 40
0.6521739130434783
 40
0.6521739130434783
 40
0.6956521739130435
 40
0.6956521739130435
 40
0.6956521739130435
 40
0.6956521739130435
 40
0.7391304347826086
 40
0.7391304347826086
 40
0.7391304347826086
 40
0.7391304347826086
 40
0.782608695652174
 40
0.782608695652174
 40
0.782608695652174
 40
0.782608695652174
 40
0.8260869565217391
 40
0.8260869565217391
 40
0.8260869565217391
 40
0.8260869565217391
 40
0.8695652173913043
 40
0.8695652173913043
 40
0.8695652173913043
 40
0.8695652173913043
 40
0.9130434782608695
 40
0.9130434782608695
 40
0.9130434782608695
 40
0.9130434782608695
 40
1.0
 40
1.0
 40
1.0
 40
1.0
 10
5.03607
 20
12.44994
 30
0.0
 10
5.03607
 20
12.44994
 30
0.0
 10
5.06564
 20
12.44994
 30
0.0
 10
5.06564
 20
12.44994
 30
0.0
 10
5.06564
 20
12.44994
 30
0.0
 10
5.06564
 20
12.44994
 30
0.0
 10
5.06564
 20
12.28434
 30
0.0
 10
5.06564
 20
12.28434
 30
0.0
 10
5.06564
 20
12.28434
 30
0.0
 10
5.05823
 20
12.2841
 30
0.0
 10
5.05112
 20
12.28527
 30
0.0
 10
5.04429
 20
12.28789
 30
0.0
 10
5.04429
 20
12.28789
 30
0.0
 10
5.03297
 20
12.29209
 30
0.0
 10
5.02189
 20
12.29886
 30
0.0
 10
5.01098
 20
12.30814
 30
0.0
 10
5.01098
 20
12.30814
 30
0.0
 10
5.00002
 20
12.31747
 30
0.0
 10
4.98736
 20
12.33089
 30
0.0
 10
4.97301
 20
12.34839
 30
0.0
 10
4.97301
 20
12.34839
 30
0.0
 10
4.95067
 20
12.37563
 30
0.0
 10
4.93299
 20
12.39406
 30
0.0
 10
4.91992
 20
12.40363
 30
0.0
 10
4.91992
 20
12.40363
 30
0.0
 10
4.90692
 20
12.41319
 30
0.0
 10
4.89455
 20
12.41798
 30
0.0
 10
4.88294
 20
12.41798
 30
0.0
 10
4.88294
 20
12.41798
 30
0.0
 10
4.87075
 20
12.41798
 30
0.0
 10
4.86048
 20
12.4136
 30
0.0
 10
4.85208
 20
12.40491
 30
0.0
 10
4.85208
 20
12.40491
 30
0.0
 10
4.84374
 20
12.39616
 30
0.0
 10
4.83954
 20
12.38479
 30
0.0
 10
4.83954
 20
12.37079
 30
0.0
 10
4.83954
 20
12.37079
 30
0.0
 10
4.83954
 20
12.35597
 30
0.0
 10
4.84397
 20
12.34413
 30
0.0
 10
4.8529
 20
12.33526
 30
0.0
 10
4.8529
 20
12.33526
 30
0.0
 10
4.86177
 20
12.32634
 30
0.0
 10
4.87407
 20
12.32184
 30
0.0
 10
4.88977
 20
12.32173
 30
0.0
 10
4.88977
 20
12.32173
 30
0.0
 10
4.88977
 20
12.32173
 30
0.0
 10
4.88656
 20
12.29011
 30
0.0
 10
4.88656
 20
12.29011
 30
0.0
 10
4.88656
 20
12.29011
 30
0.0
 10
4.86293
 20
12.29227
 30
0.0
 10
4.84497
 20
12.30044
 30
0.0
 10
4.8326
 20
12.31455
 30
0.0
 10
4.8326
 20
12.31455
 30
0.0
 10
4.82023
 20
12.32867
 30
0.0
 10
4.81411
 20
12.34769
 30
0.0
 10
4.81411
 20
12.37149
 30
0.0
 10
4.81411
 20
12.37149
 30
0.0
 10
4.81411
 20
12.39552
 30
0.0
 10
4.82076
 20
12.41454
 30
0.0
 10
4.83406
 20
12.42854
 30
0.0
 10
4.83406
 20
12.42854
 30
0.0
 10
4.84742
 20
12.44259
 30
0.0
 10
4.86392
 20
12.44959
 30
0.0
 10
4.88364
 20
12.44959
 30
0.0
 10
4.88364
 20
12.44959
 30
0.0
 10
4.89367
 20
12.44959
 30
0.0
 10
4.90353
 20
12.44755
 30
0.0
 10
4.91322
 20
12.44341
 30
0.0
 10
4.91322
 20
12.44341
 30
0.0
 10
4.9229
 20
12.43933
 30
0.0
 10
4.93311
 20
12.4325
 30
0.0
 10
4.94378
 20
12.42299
 30
0.0
 10
4.94378
 20
12.42299
 30
0.0
 10
4.95452
 20
12.41349
 30
0.0
 10
4.96922
 20
12.39768
 30
0.0
 10
4.98788
 20
12.37557
 30
0.0
 10
4.98788
 20
12.37557
 30
0.0
 10
5.0034
 20
12.35714
 30
0.0
 10
5.0139
 20
12.34529
 30
0.0
 10
5.01944
 20
12.34004
 30
0.0
 10
5.01944
 20
12.34004
 30
0.0
 10
5.02492
 20
12.33479
 30
0.0
 10
5.03047
 20
12.33048
 30
0.0
 10
5.03607
 20
12.32704
 30
0.0
 10
5.03607
 20
12.32704
 30
0.0
 10
5.03607
 20
12.32704
 30
0.0
 10
5.03607
 20
12.44994
 30
0.0
 10
5.03607
 20
12.44994
 30
0.0
  0
SPLINE
  5
7D
330
1F
100
AcDbEntity
  8
0
100
AcDbSpline
210
0.0
220
0.0
230
1.0
 70
    11
 71
     3
 72
    52
 73
    48
 74
     0
 42
0.0000000001
 43
0.0000000001
 40
0.0
 40
0.0
 40
0.0
 40
0.0
 40
0.0769230769230769
 40
0.0769230769230769
 40
0.0769230769230769
 40
0.0769230769230769
 40
0.1538461538461539
 40
0.1538461538461539
 40
0.1538461538461539
 40
0.1538461538461539
 40
0.2307692307692308
 40
0.2307692307692308
 40
0.2307692307692308
 40
0.2307692307692308
 40
0.3076923076923077
 40
0.3076923076923077
 40
0.3076923076923077
 40
0.3076923076923077
 40
0.3846153846153846
 40
0.3846153846153846
 40
0.3846153846153846
 40
0.3846153846153846
 40
0.4615384615384616
 40
0.4615384615384616
 40
0.4615384615384616
 40
0.4615384615384616
 40
0.5384615384615384
 40
0.5384615384615384
 40
0.5384615384615384
 40
0.5384615384615384
 40
0.6153846153846154
 40
0.6153846153846154
 40
0.6153846153846154
 40
0.6153846153846154
 40
0.6923076923076923
 40
0.6923076923076923
 40
0.6923076923076923
 40
0.6923076923076923
 40
0.7692307692307693
 40
0.7692307692307693
 40
0.7692307692307693
 40
0.7692307692307693
 40
0.8461538461538461
 40
0.8461538461538461
 40
0.8461538461538461
 40
0.8461538461538461
 40
1.0
 40
1.0
 40
1.0
 40
1.0
 10
4.94209
 20
12.4829
 30
0.0
 10
4.91246
 20
12.4829
 30
0.0
 10
4.8886
 20
12.48594
 30
0.0
 10
4.87057
 20
12.49206
 30
0.0
 10
4.87057
 20
12.49206
 30
0.0
 10
4.85249
 20
12.49813
 30
0.0
 10
4.83855
 20
12.50723
 30
0.0
 10
4.82875
 20
12.51925
 30
0.0
 10
4.82875
 20
12.51925
 30
0.0
 10
4.81895
 20
12.53126
 30
0.0
 10
4.81411
 20
12.54637
 30
0.0
 10
4.81411
 20
12.56457
 30
0.0
 10
4.81411
 20
12.56457
 30
0.0
 10
4.81411
 20
12.57805
 30
0.0
 10
4.81679
 20
12.58983
 30
0.0
 10
4.82222
 20
12.59998
 30
0.0
 10
4.82222
 20
12.59998
 30
0.0
 10
4.82758
 20
12.61013
 30
0.0
 10
4.8354
 20
12.61847
 30
0.0
 10
4.84561
 20
12.62512
 30
0.0
 10
4.84561
 20
12.62512
 30
0.0
 10
4.85582
 20
12.63171
 30
0.0
 10
4.86824
 20
12.6369
 30
0.0
 10
4.88288
 20
12.64064
 30
0.0
 10
4.88288
 20
12.64064
 30
0.0
 10
4.89752
 20
12.64443
 30
0.0
 10
4.91724
 20
12.6463
 30
0.0
 10
4.94209
 20
12.6463
 30
0.0
 10
4.94209
 20
12.6463
 30
0.0
 10
4.97149
 20
12.6463
 30
0.0
 10
4.99517
 20
12.64326
 30
0.0
 10
5.01326
 20
12.63725
 30
0.0
 10
5.01326
 20
12.63725
 30
0.0
 10
5.03134
 20
12.63119
 30
0.0
 10
5.04528
 20
12.62215
 30
0.0
 10
5.05514
 20
12.61013
 30
0.0
 10
5.05514
 20
12.61013
 30
0.0
 10
5.065
 20
12.59811
 30
0.0
 10
5.0699
 20
12.58295
 30
0.0
 10
5.0699
 20
12.56457
 30
0.0
 10
5.0699
 20
12.56457
 30
0.0
 10
5.0699
 20
12.54042
 30
0.0
 10
5.06127
 20
12.52146
 30
0.0
 10
5.04394
 20
12.5077
 30
0.0
 10
5.04394
 20
12.5077
 30
0.0
 10
5.02312
 20
12.49119
 30
0.0
 10
4.98911
 20
12.4829
 30
0.0
 10
4.94209
 20
12.4829
 30
0.0
  0
SPLINE
  5
7E
330
1F
100
AcDbEntity
  8
0
100
AcDbSpline
210
0.0
220
0.0
230
1.0
 70
    11
 71
     3
 72
    36
 73
    32
 74
     0
 42
0.0000000001
 43
0.0000000001
 40
0.0
 40
0.0
 40
0.0
 40
0.0
 40
0.1111111111111111
 40
0.1111111111111111
 40
0.1111111111111111
 40
0.1111111111111111
 40
0.2222222222222222
 40
0.2222222222222222
 40
0.2222222222222222
 40
0.2222222222222222
 40
0.3333333333333333
 40
0.3333333333333333
 40
0.3333333333333333
 40
0.3333333333333333
 40
0.4444444444444444
 40
0.4444444444444444
 40
0.4444444444444444
 40
0.4444444444444444
 40
0.5555555555555556
 40
0.5555555555555556
 40
0.5555555555555556
 40
0.5555555555555556
 40
0.6666666666666666
 40
0.6666666666666666
 40
0.6666666666666666
 40
0.6666666666666666
 40
0.7777777777777778
 40
0.7777777777777778
 40
0.7777777777777778
 40
0.7777777777777778
 40
1.0
 40
1.0
 40
1.0
 40
1.0
 10
4.94209
 20
12.51452
 30
0.0
 10
4.98322
 20
12.51452
 30
0.0
 10
5.01057
 20
12.51936
 30
0.0
 10
5.02422
 20
12.52899
 30
0.0
 10
5.02422
 20
12.52899
 30
0.0
 10
5.03782
 20
12.53861
 30
0.0
 10
5.04464
 20
12.55045
 30
0.0
 10
5.04464
 20
12.56457
 30
0.0
 10
5.04464
 20
12.56457
 30
0.0
 10
5.04464
 20
12.57875
 30
0.0
 10
5.03776
 20
12.59059
 30
0.0
 10
5.02411
 20
12.60021
 30
0.0
 10
5.02411
 20
12.60021
 30
0.0
 10
5.01046
 20
12.60984
 30
0.0
 10
4.9831
 20
12.61468
 30
0.0
 10
4.94209
 20
12.61468
 30
0.0
 10
4.94209
 20
12.61468
 30
0.0
 10
4.90085
 20
12.61468
 30
0.0
 10
4.87343
 20
12.60984
 30
0.0
 10
4.8599
 20
12.60021
 30
0.0
 10
4.8599
 20
12.60021
 30
0.0
 10
4.84631
 20
12.59059
 30
0.0
 10
4.83954
 20
12.57863
 30
0.0
 10
4.83954
 20
12.56428
 30
0.0
 10
4.83954
 20
12.56428
 30
0.0
 10
4.83954
 20
12.5501
 30
0.0
 10
4.84555
 20
12.53885
 30
0.0
 10
4.85751
 20
12.53039
 30
0.0
 10
4.85751
 20
12.53039
 30
0.0
 10
4.87273
 20
12.51983
 30
0.0
 10
4.90097
 20
12.51452
 30
0.0
 10
4.94209
 20
12.51452
 30
0.0
  0
SPLINE
  5
7F
330
1F
100
AcDbEntity
  8
0
370
    15
100
AcDbSpline
210
0.0
220
0.0
230
1.0
 70
    24
 71
     3
 72
     8
 73
     4
 74
     0
 42
0.0000000001
 43
0.0000000001
 40
0.0
 40
0.0
 40
0.0
 40
0.0
 40
1.0
 40
1.0
 40
1.0
 40
1.0
 10
11.63925
 20
11.41412
 30
0.0
 10
11.63925
 20
11.41412
 30
0.0
 10
11.63925
 20
11.43079
 30
0.0
 10
11.63925
 20
11.43079
 30
0.0
  0
SPLINE
  5
80
330
1F
100
AcDbEntity
  8
0
370
    15
100
AcDbSpline
210
0.0
220
0.0
230
1.0
 70
    24
 71
     3
 72
     8
 73
     4
 74
     0
 42
0.0000000001
 43
0.0000000001
 40
0.0
 40
0.0
 40
0.0
 40
0.0
 40
1.0
 40
1.0
 40
1.0
 40
1.0
 10
11.30591
 20
11.43079
 30
0.0
 10
11.30591
 20
11.43079
 30
0.0
 10
11.30591
 20
11.41412
 30
0.0
 10
11.30591
 20
11.41412
 30
0.0
  0
SPLINE
  5
81
330
1F
100
AcDbEntity
  8
0
370
    15
100
AcDbSpline
210
0.0
220
0.0
230
1.0
 70
    24
 71
     3
 72
     8
 73
     4
 74
     0
 42
0.0000000001
 43
0.0000000001
 40
0.0
 40
0.0
 40
0.0
 40
0.0
 40
1.0
 40
1.0
 40
1.0
 40
1.0
 10
14.80591
 20
11.68079
 30
0.0
 10
14.80591
 20
11.68079
 30
0.0
 10
11.20591
 20
11.68079
 30
0.0
 10
11.20591
 20
11.68079
 30
0.0
  0
SPLINE
  5
82
330
1F
100
AcDbEntity
  8
0
370
    15
100
AcDbSpline
210
0.0
220
0.0
230
1.0
 70
    24
 71
     3
 72
     8
 73
     4
 74
     0
 42
0.0000000001
 43
0.0000000001
 40
0.0
 40
0.0
 40
0.0
 40
0.0
 40
1.0
 40
1.0
 40
1.0
 40
1.0
 10
11.20591
 20
11.68079
 30
0.0
 10
11.20591
 20
11.68079
 30
0.0
 10
11.22258
 20
11.69746
 30
0.0
 10
11.22258
 20
11.69746
 30
0.0
  0
SPLINE
  5
83
330
1F
100
AcDbEntity
  8
0
370
    15
100
AcDbSpline
210
0.0
220
0.0
230
1.0
 70
    24
 71
     3
 72
     8
 73
     4
 74
     0
 42
0.0000000001
 43
0.0000000001
 40
0.0
 40
0.0
 40
0.0
 40
0.0
 40
1.0
 40
1.0
 40
1.0
 40
1.0
 10
11.80591
 20
11.69746
 30
0.0
 10
11.80591
 20
11.69746
 30
0.0
 10
14.80591
 20
11.69746
 30
0.0
 10
14.80591
 20
11.69746
 30
0.0
  0
SPLINE
  5
84
330
1F
100
AcDbEntity
  8
0
370
    15
100
AcDbSpline
210
0.0
220
0.0
230
1.0
 70
    24
 71
     3
 72
     8
 73
     4
 74
     0
 42
0.0000000001
 43
0.0000000001
 40
0.0
 40
0.0
 40
0.0
 40
0.0
 40
1.0
 40
1.0
 40
1.0
 40
1.0
 10
14.80591
 20
11.68079
 30
0.0
 10
14.80591
 20
11.68079
 30
0.0
 10
14.80591
 20
11.69746
 30
0.0
 10
14.80591
 20
11.69746
 30
0.0
  0
SPLINE
  5
85
330
1F
100
AcDbEntity
  8
0
370
    15
100
AcDbSpline
210
0.0
220
0.0
230
1.0
 70
    24
 71
     3
 72
     8
 73
     4
 74
     0
 42
0.0000000001
 43
0.0000000001
 40
0.0
 40
0.0
 40
0.0
 40
0.0
 40
1.0
 40
1.0
 40
1.0
 40
1.0
 10
14.80591
 20
11.43079
 30
0.0
 10
14.80591
 20
11.43079
 30
0.0
 10
11.22258
 20
11.43079
 30
0.0
 10
11.22258
 20
11.43079
 30
0.0
  0
SPLINE
  5
86
330
1F
100
AcDbEntity
  8
0
370
    15
100
AcDbSpline
210
0.0
220
0.0
230
1.0
 70
    24
 71
     3
 72
     8
 73
     4
 74
     0
 42
0.0000000001
 43
0.0000000001
 40
0.0
 40
0.0
 40
0.0
 40
0.0
 40
1.0
 40
1.0
 40
1.0
 40
1.0
 10
11.22258
 20
11.43079
 30
0.0
 10
11.22258
 20
11.43079
 30
0.0
 10
11.20591
 20
11.44746
 30
0.0
 10
11.20591
 20
11.44746
 30
0.0
  0
SPLINE
  5
87
330
1F
100
AcDbEntity
  8
0
370
    15
100
AcDbSpline
210
0.0
220
0.0
230
1.0
 70
    24
 71
     3
 72
     8
 73
     4
 74
     0
 42
0.0000000001
 43
0.0000000001
 40
0.0
 40
0.0
 40
0.0
 40
0.0
 40
1.0
 40
1.0
 40
1.0
 40
1.0
 10
11.20591
 20
11.44746
 30
0.0
 10
11.20591
 20
11.44746
 30
0.0
 10
14.80591
 20
11.44746
 30
0.0
 10
14.80591
 20
11.44746
 30
0.0
  0
SPLINE
  5
88
330
1F
100
AcDbEntity
  8
0
370
    15
100
AcDbSpline
210
0.0
220
0.0
230
1.0
 70
    24
 71
     3
 72
     8
 73
     4
 74
     0
 42
0.0000000001
 43
0.0000000001
 40
0.0
 40
0.0
 40
0.0
 40
0.0
 40
1.0
 40
1.0
 40
1.0
 40
1.0
 10
14.80591
 20
11.43079
 30
0.0
 10
14.80591
 20
11.43079
 30
0.0
 10
14.80591
 20
11.44746
 30
0.0
 10
14.80591
 20
11.44746
 30
0.0
  0
SPLINE
  5
89
330
1F
100
AcDbEntity
  8
0
370
    15
100
AcDbSpline
210
0.0
220
0.0
230
1.0
 70
    24
 71
     3
 72
     8
 73
     4
 74
     0
 42
0.0000000001
 43
0.0000000001
 40
0.0
 40
0.0
 40
0.0
 40
0.0
 40
1.0
 40
1.0
 40
1.0
 40
1.0
 10
14.80591
 20
11.44746
 30
0.0
 10
14.80591
 20
11.44746
 30
0.0
 10
14.80591
 20
11.68079
 30
0.0
 10
14.80591
 20
11.68079
 30
0.0
  0
SPLINE
  5
8A
330
1F
100
AcDbEntity
  8
0
370
    15
100
AcDbSpline
210
0.0
220
0.0
230
1.0
 70
    24
 71
     3
 72
     8
 73
     4
 74
     0
 42
0.0000000001
 43
0.0000000001
 40
0.0
 40
0.0
 40
0.0
 40
0.0
 40
1.0
 40
1.0
 40
1.0
 40
1.0
 10
11.20591
 20
11.68079
 30
0.0
 10
11.20591
 20
11.68079
 30
0.0
 10
11.20591
 20
11.44746
 30
0.0
 10
11.20591
 20
11.44746
 30
0.0
  0
SPLINE
  5
8B
330
1F
100
AcDbEntity
  8
0
370
    15
100
AcDbSpline
210
0.0
220
0.0
230
1.0
 70
    24
 71
     3
 72
     8
 73
     4
 74
     0
 42
0.0000000001
 43
0.0000000001
 40
0.0
 40
0.0
 40
0.0
 40
0.0
 40
1.0
 40
1.0
 40
1.0
 40
1.0
 10
14.80591
 20
11.44746
 30
0.0
 10
14.80591
 20
11.44746
 30
0.0
 10
15.20591
 20
11.44746
 30
0.0
 10
15.20591
 20
11.44746
 30
0.0
  0
SPLINE
  5
8C
330
1F
100
AcDbEntity
  8
0
370
    15
100
AcDbSpline
210
0.0
220
0.0
230
1.0
 70
    24
 71
     3
 72
     8
 73
     4
 74
     0
 42
0.0000000001
 43
0.0000000001
 40
0.0
 40
0.0
 40
0.0
 40
0.0
 40
1.0
 40
1.0
 40
1.0
 40
1.0
 10
15.20591
 20
11.44746
 30
0.0
 10
15.20591
 20
11.44746
 30
0.0
 10
15.18925
 20
11.43079
 30
0.0
 10
15.18925
 20
11.43079
 30
0.0
  0
SPLINE
  5
8D
330
1F
100
AcDbEntity
  8
0
370
    15
100
AcDbSpline
210
0.0
220
0.0
230
1.0
 70
    24
 71
     3
 72
     8
 73
     4
 74
     0
 42
0.0000000001
 43
0.0000000001
 40
0.0
 40
0.0
 40
0.0
 40
0.0
 40
1.0
 40
1.0
 40
1.0
 40
1.0
 10
15.18925
 20
11.43079
 30
0.0
 10
15.18925
 20
11.43079
 30
0.0
 10
14.80591
 20
11.43079
 30
0.0
 10
14.80591
 20
11.43079
 30
0.0
  0
SPLINE
  5
8E
330
1F
100
AcDbEntity
  8
0
370
    15
100
AcDbSpline
210
0.0
220
0.0
230
1.0
 70
    24
 71
     3
 72
     8
 73
     4
 74
     0
 42
0.0000000001
 43
0.0000000001
 40
0.0
 40
0.0
 40
0.0
 40
0.0
 40
1.0
 40
1.0
 40
1.0
 40
1.0
 10
15.20591
 20
11.68079
 30
0.0
 10
15.20591
 20
11.68079
 30
0.0
 10
14.80591
 20
11.68079
 30
0.0
 10
14.80591
 20
11.68079
 30
0.0
  0
SPLINE
  5
8F
330
1F
100
AcDbEntity
  8
0
370
    15
100
AcDbSpline
210
0.0
220
0.0
230
1.0
 70
    24
 71
     3
 72
     8
 73
     4
 74
     0
 42
0.0000000001
 43
0.0000000001
 40
0.0
 40
0.0
 40
0.0
 40
0.0
 40
1.0
 40
1.0
 40
1.0
 40
1.0
 10
14.80591
 20
11.69746
 30
0.0
 10
14.80591
 20
11.69746
 30
0.0
 10
15.18925
 20
11.69746
 30
0.0
 10
15.18925
 20
11.69746
 30
0.0
  0
SPLINE
  5
90
330
1F
100
AcDbEntity
  8
0
370
    15
100
AcDbSpline
210
0.0
220
0.0
230
1.0
 70
    24
 71
     3
 72
     8
 73
     4
 74
     0
 42
0.0000000001
 43
0.0000000001
 40
0.0
 40
0.0
 40
0.0
 40
0.0
 40
1.0
 40
1.0
 40
1.0
 40
1.0
 10
15.20591
 20
11.68079
 30
0.0
 10
15.20591
 20
11.68079
 30
0.0
 10
15.18925
 20
11.69746
 30
0.0
 10
15.18925
 20
11.69746
 30
0.0
  0
SPLINE
  5
91
330
1F
100
AcDbEntity
  8
0
370
    15
100
AcDbSpline
210
0.0
220
0.0
230
1.0
 70
    24
 71
     3
 72
     8
 73
     4
 74
     0
 42
0.0000000001
 43
0.0000000001
 40
0.0
 40
0.0
 40
0.0
 40
0.0
 40
1.0
 40
1.0
 40
1.0
 40
1.0
 10
15.20591
 20
11.68079
 30
0.0
 10
15.20591
 20
11.68079
 30
0.0
 10
15.20591
 20
11.44746
 30
0.0
 10
15.20591
 20
11.44746
 30
0.0
  0
SPLINE
  5
92
330
1F
100
AcDbEntity
  8
0
370
    15
100
AcDbSpline
210
0.0
220
0.0
230
1.0
 70
    24
 71
     3
 72
     8
 73
     4
 74
     0
 42
0.0000000001
 43
0.0000000001
 40
0.0
 40
0.0
 40
0.0
 40
0.0
 40
1.0
 40
1.0
 40
1.0
 40
1.0
 10
11.80591
 20
11.69746
 30
0.0
 10
11.80591
 20
11.69746
 30
0.0
 10
11.80591
 20
11.84746
 30
0.0
 10
11.80591
 20
11.84746
 30
0.0
  0
SPLINE
  5
93
330
1F
100
AcDbEntity
  8
0
370
    15
100
AcDbSpline
210
0.0
220
0.0
230
1.0
 70
    24
 71
     3
 72
     8
 73
     4
 74
     0
 42
0.0000000001
 43
0.0000000001
 40
0.0
 40
0.0
 40
0.0
 40
0.0
 40
1.0
 40
1.0
 40
1.0
 40
1.0
 10
11.20591
 20
11.69746
 30
0.0
 10
11.20591
 20
11.69746
 30
0.0
 10
11.80591
 20
11.69746
 30
0.0
 10
11.80591
 20
11.69746
 30
0.0
  0
SPLINE
  5
94
330
1F
100
AcDbEntity
  8
0
370
    15
100
AcDbSpline
210
0.0
220
0.0
230
1.0
 70
    24
 71
     3
 72
     8
 73
     4
 74
     0
 42
0.0000000001
 43
0.0000000001
 40
0.0
 40
0.0
 40
0.0
 40
0.0
 40
1.0
 40
1.0
 40
1.0
 40
1.0
 10
11.20591
 20
11.41412
 30
0.0
 10
11.20591
 20
11.41412
 30
0.0
 10
11.20591
 20
11.69746
 30
0.0
 10
11.20591
 20
11.69746
 30
0.0
  0
SPLINE
  5
95
330
1F
100
AcDbEntity
  8
0
370
    15
100
AcDbSpline
210
0.0
220
0.0
230
1.0
 70
    24
 71
     3
 72
     8
 73
     4
 74
     0
 42
0.0000000001
 43
0.0000000001
 40
0.0
 40
0.0
 40
0.0
 40
0.0
 40
1.0
 40
1.0
 40
1.0
 40
1.0
 10
11.80591
 20
11.18079
 30
0.0
 10
11.80591
 20
11.18079
 30
0.0
 10
11.80591
 20
11.41412
 30
0.0
 10
11.80591
 20
11.41412
 30
0.0
  0
SPLINE
  5
96
330
1F
100
AcDbEntity
  8
0
370
    15
100
AcDbSpline
210
0.0
220
0.0
230
1.0
 70
    24
 71
     3
 72
     8
 73
     4
 74
     0
 42
0.0000000001
 43
0.0000000001
 40
0.0
 40
0.0
 40
0.0
 40
0.0
 40
1.0
 40
1.0
 40
1.0
 40
1.0
 10
10.97258
 20
11.18079
 30
0.0
 10
10.97258
 20
11.18079
 30
0.0
 10
11.80591
 20
11.18079
 30
0.0
 10
11.80591
 20
11.18079
 30
0.0
  0
SPLINE
  5
97
330
1F
100
AcDbEntity
  8
0
370
    15
100
AcDbSpline
210
0.0
220
0.0
230
1.0
 70
    24
 71
     3
 72
     8
 73
     4
 74
     0
 42
0.0000000001
 43
0.0000000001
 40
0.0
 40
0.0
 40
0.0
 40
0.0
 40
1.0
 40
1.0
 40
1.0
 40
1.0
 10
10.97258
 20
11.84746
 30
0.0
 10
10.97258
 20
11.84746
 30
0.0
 10
10.97258
 20
11.18079
 30
0.0
 10
10.97258
 20
11.18079
 30
0.0
  0
SPLINE
  5
98
330
1F
100
AcDbEntity
  8
0
370
    15
100
AcDbSpline
210
0.0
220
0.0
230
1.0
 70
    24
 71
     3
 72
     8
 73
     4
 74
     0
 42
0.0000000001
 43
0.0000000001
 40
0.0
 40
0.0
 40
0.0
 40
0.0
 40
1.0
 40
1.0
 40
1.0
 40
1.0
 10
11.80591
 20
11.84746
 30
0.0
 10
11.80591
 20
11.84746
 30
0.0
 10
10.97258
 20
11.84746
 30
0.0
 10
10.97258
 20
11.84746
 30
0.0
  0
SPLINE
  5
99
330
1F
100
AcDbEntity
  8
0
370
    15
100
AcDbSpline
210
0.0
220
0.0
230
1.0
 70
    24
 71
     3
 72
     8
 73
     4
 74
     0
 42
0.0000000001
 43
0.0000000001
 40
0.0
 40
0.0
 40
0.0
 40
0.0
 40
1.0
 40
1.0
 40
1.0
 40
1.0
 10
11.80591
 20
11.41412
 30
0.0
 10
11.80591
 20
11.41412
 30
0.0
 10
11.20591
 20
11.41412
 30
0.0
 10
11.20591
 20
11.41412
 30
0.0
  0
SPLINE
  5
9A
330
1F
100
AcDbEntity
  8
0
100
AcDbSpline
210
0.0
220
0.0
230
1.0
 70
    27
 71
     3
 72
    12
 73
     8
 74
     0
 42
0.0000000001
 43
0.0000000001
 40
0.0
 40
0.0
 40
0.0
 40
0.0
 40
0.3333333333333333
 40
0.3333333333333333
 40
0.3333333333333333
 40
0.3333333333333333
 40
1.0
 40
1.0
 40
1.0
 40
1.0
 10
15.20591
 20
10.69855
 30
0.0
 10
15.20591
 20
10.69855
 30
0.0
 10
14.87571
 20
10.64775
 30
0.0
 10
14.87571
 20
10.64775
 30
0.0
 10
14.87571
 20
10.64775
 30
0.0
 10
14.87571
 20
10.64775
 30
0.0
 10
15.20591
 20
10.69855
 30
0.0
 10
15.20591
 20
10.69855
 30
0.0
  0
SPLINE
  5
9B
330
1F
100
AcDbEntity
  8
0
100
AcDbSpline
210
0.0
220
0.0
230
1.0
 70
     8
 71
     3
 72
    12
 73
     8
 74
     0
 42
0.0000000001
 43
0.0000000001
 40
0.0
 40
0.0
 40
0.0
 40
0.0
 40
0.3333333333333333
 40
0.3333333333333333
 40
0.3333333333333333
 40
0.3333333333333333
 40
1.0
 40
1.0
 40
1.0
 40
1.0
 10
14.87571
 20
10.64775
 30
0.0
 10
14.87571
 20
10.64775
 30
0.0
 10
14.87571
 20
10.74935
 30
0.0
 10
14.87571
 20
10.74935
 30
0.0
 10
14.87571
 20
10.74935
 30
0.0
 10
14.87571
 20
10.74935
 30
0.0
 10
15.20591
 20
10.69855
 30
0.0
 10
15.20591
 20
10.69855
 30
0.0
  0
SPLINE
  5
9C
330
1F
100
AcDbEntity
  8
0
370
     9
100
AcDbSpline
210
0.0
220
0.0
230
1.0
 70
    24
 71
     3
 72
     8
 73
     4
 74
     0
 42
0.0000000001
 43
0.0000000001
 40
0.0
 40
0.0
 40
0.0
 40
0.0
 40
1.0
 40
1.0
 40
1.0
 40
1.0
 10
15.20591
 20
10.69855
 30
0.0
 10
15.20591
 20
10.69855
 30
0.0
 10
14.87571
 20
10.64775
 30
0.0
 10
14.87571
 20
10.64775
 30
0.0
  0
SPLINE
  5
9D
330
1F
100
AcDbEntity
  8
0
370
     9
100
AcDbSpline
210
0.0
220
0.0
230
1.0
 70
     8
 71
     3
 72
    12
 73
     8
 74
     0
 42
0.0000000001
 43
0.0000000001
 40
0.0
 40
0.0
 40
0.0
 40
0.0
 40
0.3333333333333333
 40
0.3333333333333333
 40
0.3333333333333333
 40
0.3333333333333333
 40
1.0
 40
1.0
 40
1.0
 40
1.0
 10
14.87571
 20
10.64775
 30
0.0
 10
14.87571
 20
10.64775
 30
0.0
 10
14.87571
 20
10.74935
 30
0.0
 10
14.87571
 20
10.74935
 30
0.0
 10
14.87571
 20
10.74935
 30
0.0
 10
14.87571
 20
10.74935
 30
0.0
 10
15.20591
 20
10.69855
 30
0.0
 10
15.20591
 20
10.69855
 30
0.0
  0
SPLINE
  5
9E
330
1F
100
AcDbEntity
  8
0
100
AcDbSpline
210
0.0
220
0.0
230
1.0
 70
    27
 71
     3
 72
    12
 73
     8
 74
     0
 42
0.0000000001
 43
0.0000000001
 40
0.0
 40
0.0
 40
0.0
 40
0.0
 40
0.3333333333333333
 40
0.3333333333333333
 40
0.3333333333333333
 40
0.3333333333333333
 40
1.0
 40
1.0
 40
1.0
 40
1.0
 10
11.20591
 20
10.69855
 30
0.0
 10
11.20591
 20
10.69855
 30
0.0
 10
11.53611
 20
10.74935
 30
0.0
 10
11.53611
 20
10.74935
 30
0.0
 10
11.53611
 20
10.74935
 30
0.0
 10
11.53611
 20
10.74935
 30
0.0
 10
11.20591
 20
10.69855
 30
0.0
 10
11.20591
 20
10.69855
 30
0.0
  0
SPLINE
  5
9F
330
1F
100
AcDbEntity
  8
0
100
AcDbSpline
210
0.0
220
0.0
230
1.0
 70
     8
 71
     3
 72
    12
 73
     8
 74
     0
 42
0.0000000001
 43
0.0000000001
 40
0.0
 40
0.0
 40
0.0
 40
0.0
 40
0.3333333333333333
 40
0.3333333333333333
 40
0.3333333333333333
 40
0.3333333333333333
 40
1.0
 40
1.0
 40
1.0
 40
1.0
 10
11.53611
 20
10.74935
 30
0.0
 10
11.53611
 20
10.74935
 30
0.0
 10
11.53611
 20
10.64775
 30
0.0
 10
11.53611
 20
10.64775
 30
0.0
 10
11.53611
 20
10.64775
 30
0.0
 10
11.53611
 20
10.64775
 30
0.0
 10
11.20591
 20
10.69855
 30
0.0
 10
11.20591
 20
10.69855
 30
0.0
  0
SPLINE
  5
A0
330
1F
100
AcDbEntity
  8
0
370
     9
100
AcDbSpline
210
0.0
220
0.0
230
1.0
 70
    24
 71
     3
 72
     8
 73
     4
 74
     0
 42
0.0000000001
 43
0.0000000001
 40
0.0
 40
0.0
 40
0.0
 40
0.0
 40
1.0
 40
1.0
 40
1.0
 40
1.0
 10
11.20591
 20
10.69855
 30
0.0
 10
11.20591
 20
10.69855
 30
0.0
 10
11.53611
 20
10.74935
 30
0.0
 10
11.53611
 20
10.74935
 30
0.0
  0
SPLINE
  5
A1
330
1F
100
AcDbEntity
  8
0
370
     9
100
AcDbSpline
210
0.0
220
0.0
230
1.0
 70
     8
 71
     3
 72
    12
 73
     8
 74
     0
 42
0.0000000001
 43
0.0000000001
 40
0.0
 40
0.0
 40
0.0
 40
0.0
 40
0.3333333333333333
 40
0.3333333333333333
 40
0.3333333333333333
 40
0.3333333333333333
 40
1.0
 40
1.0
 40
1.0
 40
1.0
 10
11.53611
 20
10.74935
 30
0.0
 10
11.53611
 20
10.74935
 30
0.0
 10
11.53611
 20
10.64775
 30
0.0
 10
11.53611
 20
10.64775
 30
0.0
 10
11.53611
 20
10.64775
 30
0.0
 10
11.53611
 20
10.64775
 30
0.0
 10
11.20591
 20
10.69855
 30
0.0
 10
11.20591
 20
10.69855
 30
0.0
  0
SPLINE
  5
A2
330
1F
100
AcDbEntity
  8
0
370
     9
100
AcDbSpline
210
0.0
220
0.0
230
1.0
 70
    24
 71
     3
 72
     8
 73
     4
 74
     0
 42
0.0000000001
 43
0.0000000001
 40
0.0
 40
0.0
 40
0.0
 40
0.0
 40
1.0
 40
1.0
 40
1.0
 40
1.0
 10
15.20591
 20
11.34746
 30
0.0
 10
15.20591
 20
11.34746
 30
0.0
 10
15.20591
 20
10.59855
 30
0.0
 10
15.20591
 20
10.59855
 30
0.0
  0
SPLINE
  5
A3
330
1F
100
AcDbEntity
  8
0
370
     9
100
AcDbSpline
210
0.0
220
0.0
230
1.0
 70
    24
 71
     3
 72
     8
 73
     4
 74
     0
 42
0.0000000001
 43
0.0000000001
 40
0.0
 40
0.0
 40
0.0
 40
0.0
 40
1.0
 40
1.0
 40
1.0
 40
1.0
 10
11.20591
 20
11.34746
 30
0.0
 10
11.20591
 20
11.34746
 30
0.0
 10
11.20591
 20
10.59855
 30
0.0
 10
11.20591
 20
10.59855
 30
0.0
  0
SPLINE
  5
A4
330
1F
100
AcDbEntity
  8
0
370
     9
100
AcDbSpline
210
0.0
220
0.0
230
1.0
 70
    24
 71
     3
 72
     8
 73
     4
 74
     0
 42
0.0000000001
 43
0.0000000001
 40
0.0
 40
0.0
 40
0.0
 40
0.0
 40
1.0
 40
1.0
 40
1.0
 40
1.0
 10
15.20591
 20
10.69855
 30
0.0
 10
15.20591
 20
10.69855
 30
0.0
 10
11.20591
 20
10.69855
 30
0.0
 10
11.20591
 20
10.69855
 30
0.0
  0
SPLINE
  5
A5
330
1F
100
AcDbEntity
  8
0
100
AcDbSpline
210
0.0
220
0.0
230
1.0
 70
    11
 71
     3
 72
    40
 73
    36
 74
     0
 42
0.0000000001
 43
0.0000000001
 40
0.0
 40
0.0
 40
0.0
 40
0.0
 40
0.1
 40
0.1
 40
0.1
 40
0.1
 40
0.2
 40
0.2
 40
0.2
 40
0.2
 40
0.3
 40
0.3
 40
0.3
 40
0.3
 40
0.4
 40
0.4
 40
0.4
 40
0.4
 40
0.5
 40
0.5
 40
0.5
 40
0.5
 40
0.6
 40
0.6
 40
0.6
 40
0.6
 40
0.7
 40
0.7
 40
0.7
 40
0.7
 40
0.8
 40
0.8
 40
0.8
 40
0.8
 40
1.0
 40
1.0
 40
1.0
 40
1.0
 10
13.11408
 20
10.83285
 30
0.0
 10
13.11408
 20
10.83285
 30
0.0
 10
13.08334
 20
10.83285
 30
0.0
 10
13.08334
 20
10.83285
 30
0.0
 10
13.08334
 20
10.83285
 30
0.0
 10
13.08334
 20
10.83285
 30
0.0
 10
13.08334
 20
11.02885
 30
0.0
 10
13.08334
 20
11.02885
 30
0.0
 10
13.08334
 20
11.02885
 30
0.0
 10
13.07593
 20
11.02179
 30
0.0
 10
13.06625
 20
11.01473
 30
0.0
 10
13.05423
 20
11.00767
 30
0.0
 10
13.05423
 20
11.00767
 30
0.0
 10
13.04216
 20
11.00062
 30
0.0
 10
13.03137
 20
10.99531
 30
0.0
 10
13.0218
 20
10.99181
 30
0.0
 10
13.0218
 20
10.99181
 30
0.0
 10
13.0218
 20
10.99181
 30
0.0
 10
13.0218
 20
11.0215
 30
0.0
 10
13.0218
 20
11.0215
 30
0.0
 10
13.0218
 20
11.0215
 30
0.0
 10
13.03901
 20
11.02961
 30
0.0
 10
13.05406
 20
11.03941
 30
0.0
 10
13.06695
 20
11.0509
 30
0.0
 10
13.06695
 20
11.0509
 30
0.0
 10
13.07978
 20
11.06245
 30
0.0
 10
13.08894
 20
11.07359
 30
0.0
 10
13.09431
 20
11.08444
 30
0.0
 10
13.09431
 20
11.08444
 30
0.0
 10
13.09431
 20
11.08444
 30
0.0
 10
13.11408
 20
11.08444
 30
0.0
 10
13.11408
 20
11.08444
 30
0.0
 10
13.11408
 20
11.08444
 30
0.0
 10
13.11408
 20
11.08444
 30
0.0
 10
13.11408
 20
10.83285
 30
0.0
 10
13.11408
 20
10.83285
 30
0.0
  0
SPLINE
  5
A6
330
1F
100
AcDbEntity
  8
0
100
AcDbSpline
210
0.0
220
0.0
230
1.0
 70
    11
 71
     3
 72
    92
 73
    88
 74
     0
 42
0.0000000001
 43
0.0000000001
 40
0.0
 40
0.0
 40
0.0
 40
0.0
 40
0.0434782608695652
 40
0.0434782608695652
 40
0.0434782608695652
 40
0.0434782608695652
 40
0.0869565217391304
 40
0.0869565217391304
 40
0.0869565217391304
 40
0.0869565217391304
 40
0.1304347826086956
 40
0.1304347826086956
 40
0.1304347826086956
 40
0.1304347826086956
 40
0.1739130434782609
 40
0.1739130434782609
 40
0.1739130434782609
 40
0.1739130434782609
 40
0.2173913043478261
 40
0.2173913043478261
 40
0.2173913043478261
 40
0.2173913043478261
 40
0.2608695652173913
 40
0.2608695652173913
 40
0.2608695652173913
 40
0.2608695652173913
 40
0.3043478260869565
 40
0.3043478260869565
 40
0.3043478260869565
 40
0.3043478260869565
 40
0.3478260869565217
 40
0.3478260869565217
 40
0.3478260869565217
 40
0.3478260869565217
 40
0.391304347826087
 40
0.391304347826087
 40
0.391304347826087
 40
0.391304347826087
 40
0.4347826086956522
 40
0.4347826086956522
 40
0.4347826086956522
 40
0.4347826086956522
 40
0.4782608695652174
 40
0.4782608695652174
 40
0.4782608695652174
 40
0.4782608695652174
 40
0.5217391304347826
 40
0.5217391304347826
 40
0.5217391304347826
 40
0.5217391304347826
 40
0.5652173913043478
 40
0.5652173913043478
 40
0.5652173913043478
 40
0.5652173913043478
 40
0.6086956521739131
 40
0.6086956521739131
 40
0.6086956521739131
 40
0.6086956521739131
 40
0.6521739130434783
 40
0.6521739130434783
 40
0.6521739130434783
 40
0.6521739130434783
 40
0.6956521739130435
 40
0.6956521739130435
 40
0.6956521739130435
 40
0.6956521739130435
 40
0.7391304347826086
 40
0.7391304347826086
 40
0.7391304347826086
 40
0.7391304347826086
 40
0.782608695652174
 40
0.782608695652174
 40
0.782608695652174
 40
0.782608695652174
 40
0.8260869565217391
 40
0.8260869565217391
 40
0.8260869565217391
 40
0.8260869565217391
 40
0.8695652173913043
 40
0.8695652173913043
 40
0.8695652173913043
 40
0.8695652173913043
 40
0.9130434782608695
 40
0.9130434782608695
 40
0.9130434782608695
 40
0.9130434782608695
 40
1.0
 40
1.0
 40
1.0
 40
1.0
 10
13.35459
 20
10.86242
 30
0.0
 10
13.35459
 20
10.86242
 30
0.0
 10
13.35459
 20
10.83285
 30
0.0
 10
13.35459
 20
10.83285
 30
0.0
 10
13.35459
 20
10.83285
 30
0.0
 10
13.35459
 20
10.83285
 30
0.0
 10
13.18899
 20
10.83285
 30
0.0
 10
13.18899
 20
10.83285
 30
0.0
 10
13.18899
 20
10.83285
 30
0.0
 10
13.18875
 20
10.84026
 30
0.0
 10
13.18992
 20
10.84737
 30
0.0
 10
13.19254
 20
10.8542
 30
0.0
 10
13.19254
 20
10.8542
 30
0.0
 10
13.19674
 20
10.86552
 30
0.0
 10
13.20351
 20
10.8766
 30
0.0
 10
13.21279
 20
10.88757
 30
0.0
 10
13.21279
 20
10.88757
 30
0.0
 10
13.22212
 20
10.89847
 30
0.0
 10
13.23554
 20
10.91113
 30
0.0
 10
13.25304
 20
10.92548
 30
0.0
 10
13.25304
 20
10.92548
 30
0.0
 10
13.28028
 20
10.94782
 30
0.0
 10
13.29871
 20
10.9655
 30
0.0
 10
13.30828
 20
10.97857
 30
0.0
 10
13.30828
 20
10.97857
 30
0.0
 10
13.31784
 20
10.99157
 30
0.0
 10
13.32263
 20
11.00394
 30
0.0
 10
13.32263
 20
11.01555
 30
0.0
 10
13.32263
 20
11.01555
 30
0.0
 10
13.32263
 20
11.02774
 30
0.0
 10
13.31825
 20
11.03801
 30
0.0
 10
13.30956
 20
11.04641
 30
0.0
 10
13.30956
 20
11.04641
 30
0.0
 10
13.30081
 20
11.05475
 30
0.0
 10
13.28944
 20
11.05895
 30
0.0
 10
13.27544
 20
11.05895
 30
0.0
 10
13.27544
 20
11.05895
 30
0.0
 10
13.26062
 20
11.05895
 30
0.0
 10
13.24878
 20
11.05452
 30
0.0
 10
13.23991
 20
11.04559
 30
0.0
 10
13.23991
 20
11.04559
 30
0.0
 10
13.23099
 20
11.03672
 30
0.0
 10
13.22649
 20
11.02442
 30
0.0
 10
13.22638
 20
11.00872
 30
0.0
 10
13.22638
 20
11.00872
 30
0.0
 10
13.22638
 20
11.00872
 30
0.0
 10
13.19476
 20
11.01193
 30
0.0
 10
13.19476
 20
11.01193
 30
0.0
 10
13.19476
 20
11.01193
 30
0.0
 10
13.19692
 20
11.03556
 30
0.0
 10
13.20509
 20
11.05352
 30
0.0
 10
13.2192
 20
11.06589
 30
0.0
 10
13.2192
 20
11.06589
 30
0.0
 10
13.23332
 20
11.07826
 30
0.0
 10
13.25234
 20
11.08444
 30
0.0
 10
13.27614
 20
11.08444
 30
0.0
 10
13.27614
 20
11.08444
 30
0.0
 10
13.30017
 20
11.08444
 30
0.0
 10
13.31919
 20
11.07773
 30
0.0
 10
13.33319
 20
11.06443
 30
0.0
 10
13.33319
 20
11.06443
 30
0.0
 10
13.34724
 20
11.05107
 30
0.0
 10
13.35424
 20
11.03457
 30
0.0
 10
13.35424
 20
11.01485
 30
0.0
 10
13.35424
 20
11.01485
 30
0.0
 10
13.35424
 20
11.00482
 30
0.0
 10
13.3522
 20
10.99496
 30
0.0
 10
13.34806
 20
10.98527
 30
0.0
 10
13.34806
 20
10.98527
 30
0.0
 10
13.34398
 20
10.97559
 30
0.0
 10
13.33715
 20
10.96538
 30
0.0
 10
13.32764
 20
10.95471
 30
0.0
 10
13.32764
 20
10.95471
 30
0.0
 10
13.31814
 20
10.94397
 30
0.0
 10
13.30233
 20
10.92927
 30
0.0
 10
13.28022
 20
10.91061
 30
0.0
 10
13.28022
 20
10.91061
 30
0.0
 10
13.26179
 20
10.89509
 30
0.0
 10
13.24994
 20
10.88459
 30
0.0
 10
13.24469
 20
10.87905
 30
0.0
 10
13.24469
 20
10.87905
 30
0.0
 10
13.23944
 20
10.87357
 30
0.0
 10
13.23513
 20
10.86802
 30
0.0
 10
13.23169
 20
10.86242
 30
0.0
 10
13.23169
 20
10.86242
 30
0.0
 10
13.23169
 20
10.86242
 30
0.0
 10
13.35459
 20
10.86242
 30
0.0
 10
13.35459
 20
10.86242
 30
0.0
  0
SPLINE
  5
A7
330
1F
100
AcDbEntity
  8
0
100
AcDbSpline
210
0.0
220
0.0
230
1.0
 70
    11
 71
     3
 72
    52
 73
    48
 74
     0
 42
0.0000000001
 43
0.0000000001
 40
0.0
 40
0.0
 40
0.0
 40
0.0
 40
0.0769230769230769
 40
0.0769230769230769
 40
0.0769230769230769
 40
0.0769230769230769
 40
0.1538461538461539
 40
0.1538461538461539
 40
0.1538461538461539
 40
0.1538461538461539
 40
0.2307692307692308
 40
0.2307692307692308
 40
0.2307692307692308
 40
0.2307692307692308
 40
0.3076923076923077
 40
0.3076923076923077
 40
0.3076923076923077
 40
0.3076923076923077
 40
0.3846153846153846
 40
0.3846153846153846
 40
0.3846153846153846
 40
0.3846153846153846
 40
0.4615384615384616
 40
0.4615384615384616
 40
0.4615384615384616
 40
0.4615384615384616
 40
0.5384615384615384
 40
0.5384615384615384
 40
0.5384615384615384
 40
0.5384615384615384
 40
0.6153846153846154
 40
0.6153846153846154
 40
0.6153846153846154
 40
0.6153846153846154
 40
0.6923076923076923
 40
0.6923076923076923
 40
0.6923076923076923
 40
0.6923076923076923
 40
0.7692307692307693
 40
0.7692307692307693
 40
0.7692307692307693
 40
0.7692307692307693
 40
0.8461538461538461
 40
0.8461538461538461
 40
0.8461538461538461
 40
0.8461538461538461
 40
1.0
 40
1.0
 40
1.0
 40
1.0
 10
13.38755
 20
10.9564
 30
0.0
 10
13.38755
 20
10.98603
 30
0.0
 10
13.39059
 20
11.00989
 30
0.0
 10
13.39671
 20
11.02792
 30
0.0
 10
13.39671
 20
11.02792
 30
0.0
 10
13.40278
 20
11.046
 30
0.0
 10
13.41188
 20
11.05994
 30
0.0
 10
13.4239
 20
11.06974
 30
0.0
 10
13.4239
 20
11.06974
 30
0.0
 10
13.43591
 20
11.07954
 30
0.0
 10
13.45102
 20
11.08444
 30
0.0
 10
13.46922
 20
11.08444
 30
0.0
 10
13.46922
 20
11.08444
 30
0.0
 10
13.4827
 20
11.08444
 30
0.0
 10
13.49448
 20
11.0817
 30
0.0
 10
13.50463
 20
11.07627
 30
0.0
 10
13.50463
 20
11.07627
 30
0.0
 10
13.51478
 20
11.07091
 30
0.0
 10
13.52312
 20
11.06309
 30
0.0
 10
13.52977
 20
11.05288
 30
0.0
 10
13.52977
 20
11.05288
 30
0.0
 10
13.53636
 20
11.04267
 30
0.0
 10
13.54155
 20
11.03025
 30
0.0
 10
13.54529
 20
11.01561
 30
0.0
 10
13.54529
 20
11.01561
 30
0.0
 10
13.54908
 20
11.00097
 30
0.0
 10
13.55095
 20
10.98125
 30
0.0
 10
13.55095
 20
10.9564
 30
0.0
 10
13.55095
 20
10.9564
 30
0.0
 10
13.55095
 20
10.927
 30
0.0
 10
13.54791
 20
10.90332
 30
0.0
 10
13.5419
 20
10.88523
 30
0.0
 10
13.5419
 20
10.88523
 30
0.0
 10
13.53584
 20
10.86715
 30
0.0
 10
13.5268
 20
10.85321
 30
0.0
 10
13.51478
 20
10.84335
 30
0.0
 10
13.51478
 20
10.84335
 30
0.0
 10
13.50276
 20
10.83349
 30
0.0
 10
13.4876
 20
10.82859
 30
0.0
 10
13.46922
 20
10.82859
 30
0.0
 10
13.46922
 20
10.82859
 30
0.0
 10
13.44507
 20
10.82859
 30
0.0
 10
13.42611
 20
10.83722
 30
0.0
 10
13.41235
 20
10.85455
 30
0.0
 10
13.41235
 20
10.85455
 30
0.0
 10
13.39584
 20
10.87537
 30
0.0
 10
13.38755
 20
10.90938
 30
0.0
 10
13.38755
 20
10.9564
 30
0.0
  0
SPLINE
  5
A8
330
1F
100
AcDbEntity
  8
0
100
AcDbSpline
210
0.0
220
0.0
230
1.0
 70
    11
 71
     3
 72
    36
 73
    32
 74
     0
 42
0.0000000001
 43
0.0000000001
 40
0.0
 40
0.0
 40
0.0
 40
0.0
 40
0.1111111111111111
 40
0.1111111111111111
 40
0.1111111111111111
 40
0.1111111111111111
 40
0.2222222222222222
 40
0.2222222222222222
 40
0.2222222222222222
 40
0.2222222222222222
 40
0.3333333333333333
 40
0.3333333333333333
 40
0.3333333333333333
 40
0.3333333333333333
 40
0.4444444444444444
 40
0.4444444444444444
 40
0.4444444444444444
 40
0.4444444444444444
 40
0.5555555555555556
 40
0.5555555555555556
 40
0.5555555555555556
 40
0.5555555555555556
 40
0.6666666666666666
 40
0.6666666666666666
 40
0.6666666666666666
 40
0.6666666666666666
 40
0.7777777777777778
 40
0.7777777777777778
 40
0.7777777777777778
 40
0.7777777777777778
 40
1.0
 40
1.0
 40
1.0
 40
1.0
 10
13.41917
 20
10.9564
 30
0.0
 10
13.41917
 20
10.91527
 30
0.0
 10
13.42401
 20
10.88792
 30
0.0
 10
13.43364
 20
10.87427
 30
0.0
 10
13.43364
 20
10.87427
 30
0.0
 10
13.44326
 20
10.86067
 30
0.0
 10
13.4551
 20
10.85385
 30
0.0
 10
13.46922
 20
10.85385
 30
0.0
 10
13.46922
 20
10.85385
 30
0.0
 10
13.4834
 20
10.85385
 30
0.0
 10
13.49524
 20
10.86073
 30
0.0
 10
13.50486
 20
10.87438
 30
0.0
 10
13.50486
 20
10.87438
 30
0.0
 10
13.51449
 20
10.88803
 30
0.0
 10
13.51933
 20
10.91539
 30
0.0
 10
13.51933
 20
10.9564
 30
0.0
 10
13.51933
 20
10.9564
 30
0.0
 10
13.51933
 20
10.99764
 30
0.0
 10
13.51449
 20
11.02506
 30
0.0
 10
13.50486
 20
11.03859
 30
0.0
 10
13.50486
 20
11.03859
 30
0.0
 10
13.49524
 20
11.05218
 30
0.0
 10
13.48328
 20
11.05895
 30
0.0
 10
13.46893
 20
11.05895
 30
0.0
 10
13.46893
 20
11.05895
 30
0.0
 10
13.45475
 20
11.05895
 30
0.0
 10
13.4435
 20
11.05294
 30
0.0
 10
13.43504
 20
11.04098
 30
0.0
 10
13.43504
 20
11.04098
 30
0.0
 10
13.42448
 20
11.02576
 30
0.0
 10
13.41917
 20
10.99752
 30
0.0
 10
13.41917
 20
10.9564
 30
0.0
  0
SPLINE
  5
A9
330
1F
100
AcDbEntity
  8
0
100
AcDbSpline
210
0.0
220
0.0
230
1.0
 70
    27
 71
     3
 72
    12
 73
     8
 74
     0
 42
0.0000000001
 43
0.0000000001
 40
0.0
 40
0.0
 40
0.0
 40
0.0
 40
0.3333333333333333
 40
0.3333333333333333
 40
0.3333333333333333
 40
0.3333333333333333
 40
1.0
 40
1.0
 40
1.0
 40
1.0
 10
15.79656
 20
11.69746
 30
0.0
 10
15.79656
 20
11.69746
 30
0.0
 10
15.74576
 20
12.02766
 30
0.0
 10
15.74576
 20
12.02766
 30
0.0
 10
15.74576
 20
12.02766
 30
0.0
 10
15.74576
 20
12.02766
 30
0.0
 10
15.79656
 20
11.69746
 30
0.0
 10
15.79656
 20
11.69746
 30
0.0
  0
SPLINE
  5
AA
330
1F
100
AcDbEntity
  8
0
100
AcDbSpline
210
0.0
220
0.0
230
1.0
 70
     8
 71
     3
 72
    12
 73
     8
 74
     0
 42
0.0000000001
 43
0.0000000001
 40
0.0
 40
0.0
 40
0.0
 40
0.0
 40
0.3333333333333333
 40
0.3333333333333333
 40
0.3333333333333333
 40
0.3333333333333333
 40
1.0
 40
1.0
 40
1.0
 40
1.0
 10
15.74576
 20
12.02766
 30
0.0
 10
15.74576
 20
12.02766
 30
0.0
 10
15.84736
 20
12.02766
 30
0.0
 10
15.84736
 20
12.02766
 30
0.0
 10
15.84736
 20
12.02766
 30
0.0
 10
15.84736
 20
12.02766
 30
0.0
 10
15.79656
 20
11.69746
 30
0.0
 10
15.79656
 20
11.69746
 30
0.0
  0
SPLINE
  5
AB
330
1F
100
AcDbEntity
  8
0
370
     9
100
AcDbSpline
210
0.0
220
0.0
230
1.0
 70
    24
 71
     3
 72
     8
 73
     4
 74
     0
 42
0.0000000001
 43
0.0000000001
 40
0.0
 40
0.0
 40
0.0
 40
0.0
 40
1.0
 40
1.0
 40
1.0
 40
1.0
 10
15.79656
 20
11.69746
 30
0.0
 10
15.79656
 20
11.69746
 30
0.0
 10
15.74576
 20
12.02766
 30
0.0
 10
15.74576
 20
12.02766
 30
0.0
  0
SPLINE
  5
AC
330
1F
100
AcDbEntity
  8
0
370
     9
100
AcDbSpline
210
0.0
220
0.0
230
1.0
 70
     8
 71
     3
 72
    12
 73
     8
 74
     0
 42
0.0000000001
 43
0.0000000001
 40
0.0
 40
0.0
 40
0.0
 40
0.0
 40
0.3333333333333333
 40
0.3333333333333333
 40
0.3333333333333333
 40
0.3333333333333333
 40
1.0
 40
1.0
 40
1.0
 40
1.0
 10
15.74576
 20
12.02766
 30
0.0
 10
15.74576
 20
12.02766
 30
0.0
 10
15.84736
 20
12.02766
 30
0.0
 10
15.84736
 20
12.02766
 30
0.0
 10
15.84736
 20
12.02766
 30
0.0
 10
15.84736
 20
12.02766
 30
0.0
 10
15.79656
 20
11.69746
 30
0.0
 10
15.79656
 20
11.69746
 30
0.0
  0
SPLINE
  5
AD
330
1F
100
AcDbEntity
  8
0
100
AcDbSpline
210
0.0
220
0.0
230
1.0
 70
    27
 71
     3
 72
    12
 73
     8
 74
     0
 42
0.0000000001
 43
0.0000000001
 40
0.0
 40
0.0
 40
0.0
 40
0.0
 40
0.3333333333333333
 40
0.3333333333333333
 40
0.3333333333333333
 40
0.3333333333333333
 40
1.0
 40
1.0
 40
1.0
 40
1.0
 10
15.79656
 20
11.43079
 30
0.0
 10
15.79656
 20
11.43079
 30
0.0
 10
15.84736
 20
11.10059
 30
0.0
 10
15.84736
 20
11.10059
 30
0.0
 10
15.84736
 20
11.10059
 30
0.0
 10
15.84736
 20
11.10059
 30
0.0
 10
15.79656
 20
11.43079
 30
0.0
 10
15.79656
 20
11.43079
 30
0.0
  0
SPLINE
  5
AE
330
1F
100
AcDbEntity
  8
0
100
AcDbSpline
210
0.0
220
0.0
230
1.0
 70
     8
 71
     3
 72
    12
 73
     8
 74
     0
 42
0.0000000001
 43
0.0000000001
 40
0.0
 40
0.0
 40
0.0
 40
0.0
 40
0.3333333333333333
 40
0.3333333333333333
 40
0.3333333333333333
 40
0.3333333333333333
 40
1.0
 40
1.0
 40
1.0
 40
1.0
 10
15.84736
 20
11.10059
 30
0.0
 10
15.84736
 20
11.10059
 30
0.0
 10
15.74576
 20
11.10059
 30
0.0
 10
15.74576
 20
11.10059
 30
0.0
 10
15.74576
 20
11.10059
 30
0.0
 10
15.74576
 20
11.10059
 30
0.0
 10
15.79656
 20
11.43079
 30
0.0
 10
15.79656
 20
11.43079
 30
0.0
  0
SPLINE
  5
AF
330
1F
100
AcDbEntity
  8
0
370
     9
100
AcDbSpline
210
0.0
220
0.0
230
1.0
 70
    24
 71
     3
 72
     8
 73
     4
 74
     0
 42
0.0000000001
 43
0.0000000001
 40
0.0
 40
0.0
 40
0.0
 40
0.0
 40
1.0
 40
1.0
 40
1.0
 40
1.0
 10
15.79656
 20
11.43079
 30
0.0
 10
15.79656
 20
11.43079
 30
0.0
 10
15.84736
 20
11.10059
 30
0.0
 10
15.84736
 20
11.10059
 30
0.0
  0
SPLINE
  5
B0
330
1F
100
AcDbEntity
  8
0
370
     9
100
AcDbSpline
210
0.0
220
0.0
230
1.0
 70
     8
 71
     3
 72
    12
 73
     8
 74
     0
 42
0.0000000001
 43
0.0000000001
 40
0.0
 40
0.0
 40
0.0
 40
0.0
 40
0.3333333333333333
 40
0.3333333333333333
 40
0.3333333333333333
 40
0.3333333333333333
 40
1.0
 40
1.0
 40
1.0
 40
1.0
 10
15.84736
 20
11.10059
 30
0.0
 10
15.84736
 20
11.10059
 30
0.0
 10
15.74576
 20
11.10059
 30
0.0
 10
15.74576
 20
11.10059
 30
0.0
 10
15.74576
 20
11.10059
 30
0.0
 10
15.74576
 20
11.10059
 30
0.0
 10
15.79656
 20
11.43079
 30
0.0
 10
15.79656
 20
11.43079
 30
0.0
  0
SPLINE
  5
B1
330
1F
100
AcDbEntity
  8
0
370
     9
100
AcDbSpline
210
0.0
220
0.0
230
1.0
 70
    24
 71
     3
 72
     8
 73
     4
 74
     0
 42
0.0000000001
 43
0.0000000001
 40
0.0
 40
0.0
 40
0.0
 40
0.0
 40
1.0
 40
1.0
 40
1.0
 40
1.0
 10
15.28925
 20
11.69746
 30
0.0
 10
15.28925
 20
11.69746
 30
0.0
 10
15.89656
 20
11.69746
 30
0.0
 10
15.89656
 20
11.69746
 30
0.0
  0
SPLINE
  5
B2
330
1F
100
AcDbEntity
  8
0
370
     9
100
AcDbSpline
210
0.0
220
0.0
230
1.0
 70
    24
 71
     3
 72
     8
 73
     4
 74
     0
 42
0.0000000001
 43
0.0000000001
 40
0.0
 40
0.0
 40
0.0
 40
0.0
 40
1.0
 40
1.0
 40
1.0
 40
1.0
 10
15.28925
 20
11.43079
 30
0.0
 10
15.28925
 20
11.43079
 30
0.0
 10
15.89656
 20
11.43079
 30
0.0
 10
15.89656
 20
11.43079
 30
0.0
  0
SPLINE
  5
B3
330
1F
100
AcDbEntity
  8
0
370
     9
100
AcDbSpline
210
0.0
220
0.0
230
1.0
 70
    24
 71
     3
 72
     8
 73
     4
 74
     0
 42
0.0000000001
 43
0.0000000001
 40
0.0
 40
0.0
 40
0.0
 40
0.0
 40
1.0
 40
1.0
 40
1.0
 40
1.0
 10
15.79656
 20
11.69746
 30
0.0
 10
15.79656
 20
11.69746
 30
0.0
 10
15.79656
 20
12.49292
 30
0.0
 10
15.79656
 20
12.49292
 30
0.0
  0
SPLINE
  5
B4
330
1F
100
AcDbEntity
  8
0
370
     9
100
AcDbSpline
210
0.0
220
0.0
230
1.0
 70
    24
 71
     3
 72
     8
 73
     4
 74
     0
 42
0.0000000001
 43
0.0000000001
 40
0.0
 40
0.0
 40
0.0
 40
0.0
 40
1.0
 40
1.0
 40
1.0
 40
1.0
 10
15.79656
 20
11.69746
 30
0.0
 10
15.79656
 20
11.69746
 30
0.0
 10
15.79656
 20
11.43079
 30
0.0
 10
15.79656
 20
11.43079
 30
0.0
  0
SPLINE
  5
B5
330
1F
100
AcDbEntity
  8
0
370
     9
100
AcDbSpline
210
0.0
220
0.0
230
1.0
 70
    24
 71
     3
 72
     8
 73
     4
 74
     0
 42
0.0000000001
 43
0.0000000001
 40
0.0
 40
0.0
 40
0.0
 40
0.0
 40
1.0
 40
1.0
 40
1.0
 40
1.0
 10
15.79656
 20
11.43079
 30
0.0
 10
15.79656
 20
11.43079
 30
0.0
 10
15.79656
 20
10.79579
 30
0.0
 10
15.79656
 20
10.79579
 30
0.0
  0
SPLINE
  5
B6
330
1F
100
AcDbEntity
  8
0
100
AcDbSpline
210
0.0
220
0.0
230
1.0
 70
    11
 71
     3
 72
    68
 73
    64
 74
     0
 42
0.0000000001
 43
0.0000000001
 40
0.0
 40
0.0
 40
0.0
 40
0.0
 40
0.0588235294117647
 40
0.0588235294117647
 40
0.0588235294117647
 40
0.0588235294117647
 40
0.1176470588235294
 40
0.1176470588235294
 40
0.1176470588235294
 40
0.1176470588235294
 40
0.1764705882352941
 40
0.1764705882352941
 40
0.1764705882352941
 40
0.1764705882352941
 40
0.2352941176470588
 40
0.2352941176470588
 40
0.2352941176470588
 40
0.2352941176470588
 40
0.2941176470588235
 40
0.2941176470588235
 40
0.2941176470588235
 40
0.2941176470588235
 40
0.3529411764705883
 40
0.3529411764705883
 40
0.3529411764705883
 40
0.3529411764705883
 40
0.4117647058823529
 40
0.4117647058823529
 40
0.4117647058823529
 40
0.4117647058823529
 40
0.4705882352941176
 40
0.4705882352941176
 40
0.4705882352941176
 40
0.4705882352941176
 40
0.5294117647058824
 40
0.5294117647058824
 40
0.5294117647058824
 40
0.5294117647058824
 40
0.5882352941176471
 40
0.5882352941176471
 40
0.5882352941176471
 40
0.5882352941176471
 40
0.6470588235294118
 40
0.6470588235294118
 40
0.6470588235294118
 40
0.6470588235294118
 40
0.7058823529411765
 40
0.7058823529411765
 40
0.7058823529411765
 40
0.7058823529411765
 40
0.7647058823529411
 40
0.7647058823529411
 40
0.7647058823529411
 40
0.7647058823529411
 40
0.8235294117647058
 40
0.8235294117647058
 40
0.8235294117647058
 40
0.8235294117647058
 40
0.8823529411764706
 40
0.8823529411764706
 40
0.8823529411764706
 40
0.8823529411764706
 40
1.0
 40
1.0
 40
1.0
 40
1.0
 10
15.5264
 20
12.01183
 30
0.0
 10
15.52174
 20
11.99906
 30
0.0
 10
15.51509
 20
11.98961
 30
0.0
 10
15.50639
 20
11.98342
 30
0.0
 10
15.50639
 20
11.98342
 30
0.0
 10
15.49776
 20
11.9773
 30
0.0
 10
15.48738
 20
11.97421
 30
0.0
 10
15.4753
 20
11.97421
 30
0.0
 10
15.4753
 20
11.97421
 30
0.0
 10
15.45704
 20
11.97421
 30
0.0
 10
15.44176
 20
11.98074
 30
0.0
 10
15.42934
 20
11.99386
 30
0.0
 10
15.42934
 20
11.99386
 30
0.0
 10
15.41691
 20
12.00699
 30
0.0
 10
15.41073
 20
12.02437
 30
0.0
 10
15.41073
 20
12.04613
 30
0.0
 10
15.41073
 20
12.04613
 30
0.0
 10
15.41073
 20
12.06801
 30
0.0
 10
15.41703
 20
12.08562
 30
0.0
 10
15.42974
 20
12.09898
 30
0.0
 10
15.42974
 20
12.09898
 30
0.0
 10
15.44246
 20
12.11228
 30
0.0
 10
15.45792
 20
12.11893
 30
0.0
 10
15.47618
 20
12.11893
 30
0.0
 10
15.47618
 20
12.11893
 30
0.0
 10
15.48779
 20
12.11893
 30
0.0
 10
15.49788
 20
12.1159
 30
0.0
 10
15.50651
 20
12.10983
 30
0.0
 10
15.50651
 20
12.10983
 30
0.0
 10
15.51509
 20
12.10371
 30
0.0
 10
15.52174
 20
12.09449
 30
0.0
 10
15.5264
 20
12.08206
 30
0.0
 10
15.5264
 20
12.08206
 30
0.0
 10
15.53142
 20
12.09741
 30
0.0
 10
15.53953
 20
12.10913
 30
0.0
 10
15.55067
 20
12.11718
 30
0.0
 10
15.55067
 20
12.11718
 30
0.0
 10
15.56181
 20
12.12517
 30
0.0
 10
15.57517
 20
12.1292
 30
0.0
 10
15.59063
 20
12.1292
 30
0.0
 10
15.59063
 20
12.1292
 30
0.0
 10
15.61209
 20
12.1292
 30
0.0
 10
15.63006
 20
12.12161
 30
0.0
 10
15.64464
 20
12.10651
 30
0.0
 10
15.64464
 20
12.10651
 30
0.0
 10
15.65923
 20
12.09134
 30
0.0
 10
15.66652
 20
12.07139
 30
0.0
 10
15.66652
 20
12.04666
 30
0.0
 10
15.66652
 20
12.04666
 30
0.0
 10
15.66652
 20
12.02192
 30
0.0
 10
15.65923
 20
12.00203
 30
0.0
 10
15.64459
 20
11.98686
 30
0.0
 10
15.64459
 20
11.98686
 30
0.0
 10
15.62994
 20
11.9717
 30
0.0
 10
15.61169
 20
11.96411
 30
0.0
 10
15.58981
 20
11.96411
 30
0.0
 10
15.58981
 20
11.96411
 30
0.0
 10
15.57354
 20
11.96411
 30
0.0
 10
15.55989
 20
11.96826
 30
0.0
 10
15.54886
 20
11.97654
 30
0.0
 10
15.54886
 20
11.97654
 30
0.0
 10
15.53789
 20
11.98476
 30
0.0
 10
15.53037
 20
11.99655
 30
0.0
 10
15.5264
 20
12.01183
 30
0.0
  0
SPLINE
  5
B7
330
1F
100
AcDbEntity
  8
0
100
AcDbSpline
210
0.0
220
0.0
230
1.0
 70
    11
 71
     3
 72
    36
 73
    32
 74
     0
 42
0.0000000001
 43
0.0000000001
 40
0.0
 40
0.0
 40
0.0
 40
0.0
 40
0.1111111111111111
 40
0.1111111111111111
 40
0.1111111111111111
 40
0.1111111111111111
 40
0.2222222222222222
 40
0.2222222222222222
 40
0.2222222222222222
 40
0.2222222222222222
 40
0.3333333333333333
 40
0.3333333333333333
 40
0.3333333333333333
 40
0.3333333333333333
 40
0.4444444444444444
 40
0.4444444444444444
 40
0.4444444444444444
 40
0.4444444444444444
 40
0.5555555555555556
 40
0.5555555555555556
 40
0.5555555555555556
 40
0.5555555555555556
 40
0.6666666666666666
 40
0.6666666666666666
 40
0.6666666666666666
 40
0.6666666666666666
 40
0.7777777777777778
 40
0.7777777777777778
 40
0.7777777777777778
 40
0.7777777777777778
 40
1.0
 40
1.0
 40
1.0
 40
1.0
 10
15.47425
 20
12.00565
 30
0.0
 10
15.48609
 20
12.00565
 30
0.0
 10
15.49578
 20
12.0095
 30
0.0
 10
15.5033
 20
12.01708
 30
0.0
 10
15.5033
 20
12.01708
 30
0.0
 10
15.51083
 20
12.02472
 30
0.0
 10
15.51462
 20
12.03464
 30
0.0
 10
15.51462
 20
12.04683
 30
0.0
 10
15.51462
 20
12.04683
 30
0.0
 10
15.51462
 20
12.05867
 30
0.0
 10
15.51089
 20
12.06841
 30
0.0
 10
15.50342
 20
12.076
 30
0.0
 10
15.50342
 20
12.076
 30
0.0
 10
15.49595
 20
12.08358
 30
0.0
 10
15.48679
 20
12.08731
 30
0.0
 10
15.476
 20
12.08731
 30
0.0
 10
15.476
 20
12.08731
 30
0.0
 10
15.46469
 20
12.08731
 30
0.0
 10
15.45524
 20
12.08346
 30
0.0
 10
15.44754
 20
12.07565
 30
0.0
 10
15.44754
 20
12.07565
 30
0.0
 10
15.43984
 20
12.06783
 30
0.0
 10
15.43599
 20
12.05815
 30
0.0
 10
15.43599
 20
12.04648
 30
0.0
 10
15.43599
 20
12.04648
 30
0.0
 10
15.43599
 20
12.03476
 30
0.0
 10
15.43978
 20
12.02501
 30
0.0
 10
15.44724
 20
12.01726
 30
0.0
 10
15.44724
 20
12.01726
 30
0.0
 10
15.45477
 20
12.0095
 30
0.0
 10
15.46381
 20
12.00565
 30
0.0
 10
15.47425
 20
12.00565
 30
0.0
  0
SPLINE
  5
B8
330
1F
100
AcDbEntity
  8
0
100
AcDbSpline
210
0.0
220
0.0
230
1.0
 70
    11
 71
     3
 72
    40
 73
    36
 74
     0
 42
0.0000000001
 43
0.0000000001
 40
0.0
 40
0.0
 40
0.0
 40
0.0
 40
0.1
 40
0.1
 40
0.1
 40
0.1
 40
0.2
 40
0.2
 40
0.2
 40
0.2
 40
0.3
 40
0.3
 40
0.3
 40
0.3
 40
0.4
 40
0.4
 40
0.4
 40
0.4
 40
0.5
 40
0.5
 40
0.5
 40
0.5
 40
0.6
 40
0.6
 40
0.6
 40
0.6
 40
0.7
 40
0.7
 40
0.7
 40
0.7
 40
0.8
 40
0.8
 40
0.8
 40
0.8
 40
1.0
 40
1.0
 40
1.0
 40
1.0
 10
15.58999
 20
11.99573
 30
0.0
 10
15.59874
 20
11.99573
 30
0.0
 10
15.60725
 20
11.99783
 30
0.0
 10
15.61542
 20
12.00197
 30
0.0
 10
15.61542
 20
12.00197
 30
0.0
 10
15.62364
 20
12.00611
 30
0.0
 10
15.63
 20
12.0123
 30
0.0
 10
15.63449
 20
12.02052
 30
0.0
 10
15.63449
 20
12.02052
 30
0.0
 10
15.63899
 20
12.02875
 30
0.0
 10
15.64126
 20
12.03756
 30
0.0
 10
15.64126
 20
12.04701
 30
0.0
 10
15.64126
 20
12.04701
 30
0.0
 10
15.64126
 20
12.06171
 30
0.0
 10
15.63654
 20
12.07384
 30
0.0
 10
15.62703
 20
12.08341
 30
0.0
 10
15.62703
 20
12.08341
 30
0.0
 10
15.61758
 20
12.09297
 30
0.0
 10
15.60556
 20
12.09776
 30
0.0
 10
15.59098
 20
12.09776
 30
0.0
 10
15.59098
 20
12.09776
 30
0.0
 10
15.57616
 20
12.09776
 30
0.0
 10
15.56391
 20
12.09286
 30
0.0
 10
15.55423
 20
12.083
 30
0.0
 10
15.55423
 20
12.083
 30
0.0
 10
15.54454
 20
12.07314
 30
0.0
 10
15.5397
 20
12.06077
 30
0.0
 10
15.5397
 20
12.04596
 30
0.0
 10
15.5397
 20
12.04596
 30
0.0
 10
15.5397
 20
12.03149
 30
0.0
 10
15.54449
 20
12.01953
 30
0.0
 10
15.55411
 20
12.01002
 30
0.0
 10
15.55411
 20
12.01002
 30
0.0
 10
15.56368
 20
12.00051
 30
0.0
 10
15.57564
 20
11.99573
 30
0.0
 10
15.58999
 20
11.99573
 30
0.0
  0
SPLINE
  5
B9
330
1F
100
AcDbEntity
  8
0
370
    15
100
AcDbSpline
210
0.0
220
0.0
230
1.0
 70
    24
 71
     3
 72
     8
 73
     4
 74
     0
 42
0.0000000001
 43
0.0000000001
 40
0.0
 40
0.0
 40
0.0
 40
0.0
 40
1.0
 40
1.0
 40
1.0
 40
1.0
 10
4.32238
 20
3.10215
 30
0.0
 10
4.32238
 20
3.10215
 30
0.0
 10
4.32238
 20
6.10215
 30
0.0
 10
4.32238
 20
6.10215
 30
0.0
  0
SPLINE
  5
BA
330
1F
100
AcDbEntity
  8
0
370
    15
100
AcDbSpline
210
0.0
220
0.0
230
1.0
 70
    24
 71
     3
 72
     8
 73
     4
 74
     0
 42
0.0000000001
 43
0.0000000001
 40
0.0
 40
0.0
 40
0.0
 40
0.0
 40
1.0
 40
1.0
 40
1.0
 40
1.0
 10
4.33905
 20
6.10215
 30
0.0
 10
4.33905
 20
6.10215
 30
0.0
 10
4.33905
 20
3.10215
 30
0.0
 10
4.33905
 20
3.10215
 30
0.0
  0
SPLINE
  5
BB
330
1F
100
AcDbEntity
  8
0
370
    15
100
AcDbSpline
210
0.0
220
0.0
230
1.0
 70
    24
 71
     3
 72
     8
 73
     4
 74
     0
 42
0.0000000001
 43
0.0000000001
 40
0.0
 40
0.0
 40
0.0
 40
0.0
 40
1.0
 40
1.0
 40
1.0
 40
1.0
 10
4.32238
 20
3.10215
 30
0.0
 10
4.32238
 20
3.10215
 30
0.0
 10
4.33905
 20
3.10215
 30
0.0
 10
4.33905
 20
3.10215
 30
0.0
  0
SPLINE
  5
BC
330
1F
100
AcDbEntity
  8
0
370
    15
100
AcDbSpline
210
0.0
220
0.0
230
1.0
 70
    24
 71
     3
 72
     8
 73
     4
 74
     0
 42
0.0000000001
 43
0.0000000001
 40
0.0
 40
0.0
 40
0.0
 40
0.0
 40
1.0
 40
1.0
 40
1.0
 40
1.0
 10
-12.32762
 20
3.10215
 30
0.0
 10
-12.32762
 20
3.10215
 30
0.0
 10
-12.32762
 20
6.10215
 30
0.0
 10
-12.32762
 20
6.10215
 30
0.0
  0
SPLINE
  5
BD
330
1F
100
AcDbEntity
  8
0
370
    15
100
AcDbSpline
210
0.0
220
0.0
230
1.0
 70
    24
 71
     3
 72
     8
 73
     4
 74
     0
 42
0.0000000001
 43
0.0000000001
 40
0.0
 40
0.0
 40
0.0
 40
0.0
 40
1.0
 40
1.0
 40
1.0
 40
1.0
 10
-12.31095
 20
6.10215
 30
0.0
 10
-12.31095
 20
6.10215
 30
0.0
 10
-12.31095
 20
3.10215
 30
0.0
 10
-12.31095
 20
3.10215
 30
0.0
  0
SPLINE
  5
BE
330
1F
100
AcDbEntity
  8
0
370
    15
100
AcDbSpline
210
0.0
220
0.0
230
1.0
 70
    24
 71
     3
 72
     8
 73
     4
 74
     0
 42
0.0000000001
 43
0.0000000001
 40
0.0
 40
0.0
 40
0.0
 40
0.0
 40
1.0
 40
1.0
 40
1.0
 40
1.0
 10
-12.32762
 20
3.10215
 30
0.0
 10
-12.32762
 20
3.10215
 30
0.0
 10
-12.31095
 20
3.10215
 30
0.0
 10
-12.31095
 20
3.10215
 30
0.0
  0
SPLINE
  5
BF
330
1F
100
AcDbEntity
  8
0
370
    15
100
AcDbSpline
210
0.0
220
0.0
230
1.0
 70
     8
 71
     3
 72
     8
 73
     4
 74
     0
 42
0.0000000001
 43
0.0000000001
 40
0.0
 40
0.0
 40
0.0
 40
0.0
 40
1.0
 40
1.0
 40
1.0
 40
1.0
 10
3.93905
 20
2.71882
 30
0.0
 10
4.15075
 20
2.71882
 30
0.0
 10
4.32238
 20
2.89044
 30
0.0
 10
4.32238
 20
3.10215
 30
0.0
  0
SPLINE
  5
C0
330
1F
100
AcDbEntity
  8
0
370
    15
100
AcDbSpline
210
0.0
220
0.0
230
1.0
 70
    24
 71
     3
 72
     8
 73
     4
 74
     0
 42
0.0000000001
 43
0.0000000001
 40
0.0
 40
0.0
 40
0.0
 40
0.0
 40
1.0
 40
1.0
 40
1.0
 40
1.0
 10
-11.92762
 20
2.71882
 30
0.0
 10
-11.92762
 20
2.71882
 30
0.0
 10
3.93905
 20
2.71882
 30
0.0
 10
3.93905
 20
2.71882
 30
0.0
  0
SPLINE
  5
C1
330
1F
100
AcDbEntity
  8
0
370
    15
100
AcDbSpline
210
0.0
220
0.0
230
1.0
 70
     8
 71
     3
 72
    12
 73
     8
 74
     0
 42
0.0000000001
 43
0.0000000001
 40
0.0
 40
0.0
 40
0.0
 40
0.0
 40
0.3333333333333333
 40
0.3333333333333333
 40
0.3333333333333333
 40
0.3333333333333333
 40
1.0
 40
1.0
 40
1.0
 40
1.0
 10
-12.31095
 20
3.10215
 30
0.0
 10
-12.31095
 20
3.00048
 30
0.0
 10
-12.27057
 20
2.90298
 30
0.0
 10
-12.19868
 20
2.83109
 30
0.0
 10
-12.19868
 20
2.83109
 30
0.0
 10
-12.12679
 20
2.7592
 30
0.0
 10
-12.02929
 20
2.71882
 30
0.0
 10
-11.92762
 20
2.71882
 30
0.0
  0
SPLINE
  5
C2
330
1F
100
AcDbEntity
  8
0
370
    15
100
AcDbSpline
210
0.0
220
0.0
230
1.0
 70
     8
 71
     3
 72
     8
 73
     4
 74
     0
 42
0.0000000001
 43
0.0000000001
 40
0.0
 40
0.0
 40
0.0
 40
0.0
 40
1.0
 40
1.0
 40
1.0
 40
1.0
 10
3.93905
 20
2.70215
 30
0.0
 10
4.15996
 20
2.70215
 30
0.0
 10
4.33904
 20
2.88124
 30
0.0
 10
4.33905
 20
3.10215
 30
0.0
  0
SPLINE
  5
C3
330
1F
100
AcDbEntity
  8
0
370
    15
100
AcDbSpline
210
0.0
220
0.0
230
1.0
 70
    24
 71
     3
 72
     8
 73
     4
 74
     0
 42
0.0000000001
 43
0.0000000001
 40
0.0
 40
0.0
 40
0.0
 40
0.0
 40
1.0
 40
1.0
 40
1.0
 40
1.0
 10
3.93905
 20
2.71882
 30
0.0
 10
3.93905
 20
2.71882
 30
0.0
 10
3.93905
 20
2.70215
 30
0.0
 10
3.93905
 20
2.70215
 30
0.0
  0
SPLINE
  5
C4
330
1F
100
AcDbEntity
  8
0
370
    15
100
AcDbSpline
210
0.0
220
0.0
230
1.0
 70
     8
 71
     3
 72
    12
 73
     8
 74
     0
 42
0.0000000001
 43
0.0000000001
 40
0.0
 40
0.0
 40
0.0
 40
0.0
 40
0.3333333333333333
 40
0.3333333333333333
 40
0.3333333333333333
 40
0.3333333333333333
 40
1.0
 40
1.0
 40
1.0
 40
1.0
 10
-12.32762
 20
3.10215
 30
0.0
 10
-12.32762
 20
2.99606
 30
0.0
 10
-12.28548
 20
2.89432
 30
0.0
 10
-12.21046
 20
2.81931
 30
0.0
 10
-12.21046
 20
2.81931
 30
0.0
 10
-12.13545
 20
2.74429
 30
0.0
 10
-12.03371
 20
2.70215
 30
0.0
 10
-11.92762
 20
2.70215
 30
0.0
  0
SPLINE
  5
C5
330
1F
100
AcDbEntity
  8
0
370
    15
100
AcDbSpline
210
0.0
220
0.0
230
1.0
 70
    24
 71
     3
 72
     8
 73
     4
 74
     0
 42
0.0000000001
 43
0.0000000001
 40
0.0
 40
0.0
 40
0.0
 40
0.0
 40
1.0
 40
1.0
 40
1.0
 40
1.0
 10
-11.92762
 20
2.70215
 30
0.0
 10
-11.92762
 20
2.70215
 30
0.0
 10
-11.92762
 20
2.71882
 30
0.0
 10
-11.92762
 20
2.71882
 30
0.0
  0
SPLINE
  5
C6
330
1F
100
AcDbEntity
  8
0
370
    15
100
AcDbSpline
210
0.0
220
0.0
230
1.0
 70
    24
 71
     3
 72
     8
 73
     4
 74
     0
 42
0.0000000001
 43
0.0000000001
 40
0.0
 40
0.0
 40
0.0
 40
0.0
 40
1.0
 40
1.0
 40
1.0
 40
1.0
 10
3.93905
 20
2.70215
 30
0.0
 10
3.93905
 20
2.70215
 30
0.0
 10
-11.92762
 20
2.70215
 30
0.0
 10
-11.92762
 20
2.70215
 30
0.0
  0
SPLINE
  5
C7
330
1F
100
AcDbEntity
  8
0
370
    15
100
AcDbSpline
210
0.0
220
0.0
230
1.0
 70
    24
 71
     3
 72
     8
 73
     4
 74
     0
 42
0.0000000001
 43
0.0000000001
 40
0.0
 40
0.0
 40
0.0
 40
0.0
 40
1.0
 40
1.0
 40
1.0
 40
1.0
 10
-12.32762
 20
6.10215
 30
0.0
 10
-12.32762
 20
6.10215
 30
0.0
 10
4.33905
 20
6.10215
 30
0.0
 10
4.33905
 20
6.10215
 30
0.0
  0
SPLINE
  5
C8
330
1F
100
AcDbEntity
  8
0
370
    15
100
AcDbSpline
210
0.0
220
0.0
230
1.0
 70
    24
 71
     3
 72
     8
 73
     4
 74
     0
 42
0.0000000001
 43
0.0000000001
 40
0.0
 40
0.0
 40
0.0
 40
0.0
 40
1.0
 40
1.0
 40
1.0
 40
1.0
 10
-12.32762
 20
6.10215
 30
0.0
 10
-12.32762
 20
6.10215
 30
0.0
 10
-12.32762
 20
6.93548
 30
0.0
 10
-12.32762
 20
6.93548
 30
0.0
  0
SPLINE
  5
C9
330
1F
100
AcDbEntity
  8
0
370
    15
100
AcDbSpline
210
0.0
220
0.0
230
1.0
 70
    24
 71
     3
 72
     8
 73
     4
 74
     0
 42
0.0000000001
 43
0.0000000001
 40
0.0
 40
0.0
 40
0.0
 40
0.0
 40
1.0
 40
1.0
 40
1.0
 40
1.0
 10
-12.32762
 20
6.93548
 30
0.0
 10
-12.32762
 20
6.93548
 30
0.0
 10
4.33905
 20
6.93548
 30
0.0
 10
4.33905
 20
6.93548
 30
0.0
  0
SPLINE
  5
CA
330
1F
100
AcDbEntity
  8
0
370
    15
100
AcDbSpline
210
0.0
220
0.0
230
1.0
 70
    24
 71
     3
 72
     8
 73
     4
 74
     0
 42
0.0000000001
 43
0.0000000001
 40
0.0
 40
0.0
 40
0.0
 40
0.0
 40
1.0
 40
1.0
 40
1.0
 40
1.0
 10
4.33905
 20
6.10215
 30
0.0
 10
4.33905
 20
6.10215
 30
0.0
 10
4.33905
 20
6.93548
 30
0.0
 10
4.33905
 20
6.93548
 30
0.0
  0
SPLINE
  5
CB
330
1F
100
AcDbEntity
  8
0
100
AcDbSpline
210
0.0
220
0.0
230
1.0
 70
    27
 71
     3
 72
    12
 73
     8
 74
     0
 42
0.0000000001
 43
0.0000000001
 40
0.0
 40
0.0
 40
0.0
 40
0.0
 40
0.3333333333333333
 40
0.3333333333333333
 40
0.3333333333333333
 40
0.3333333333333333
 40
1.0
 40
1.0
 40
1.0
 40
1.0
 10
-12.32762
 20
1.13925
 30
0.0
 10
-12.32762
 20
1.13925
 30
0.0
 10
-11.99742
 20
1.19005
 30
0.0
 10
-11.99742
 20
1.19005
 30
0.0
 10
-11.99742
 20
1.19005
 30
0.0
 10
-11.99742
 20
1.19005
 30
0.0
 10
-12.32762
 20
1.13925
 30
0.0
 10
-12.32762
 20
1.13925
 30
0.0
  0
SPLINE
  5
CC
330
1F
100
AcDbEntity
  8
0
100
AcDbSpline
210
0.0
220
0.0
230
1.0
 70
     8
 71
     3
 72
    12
 73
     8
 74
     0
 42
0.0000000001
 43
0.0000000001
 40
0.0
 40
0.0
 40
0.0
 40
0.0
 40
0.3333333333333333
 40
0.3333333333333333
 40
0.3333333333333333
 40
0.3333333333333333
 40
1.0
 40
1.0
 40
1.0
 40
1.0
 10
-11.99742
 20
1.19005
 30
0.0
 10
-11.99742
 20
1.19005
 30
0.0
 10
-11.99742
 20
1.08845
 30
0.0
 10
-11.99742
 20
1.08845
 30
0.0
 10
-11.99742
 20
1.08845
 30
0.0
 10
-11.99742
 20
1.08845
 30
0.0
 10
-12.32762
 20
1.13925
 30
0.0
 10
-12.32762
 20
1.13925
 30
0.0
  0
SPLINE
  5
CD
330
1F
100
AcDbEntity
  8
0
370
     9
100
AcDbSpline
210
0.0
220
0.0
230
1.0
 70
    24
 71
     3
 72
     8
 73
     4
 74
     0
 42
0.0000000001
 43
0.0000000001
 40
0.0
 40
0.0
 40
0.0
 40
0.0
 40
1.0
 40
1.0
 40
1.0
 40
1.0
 10
-12.32762
 20
1.13925
 30
0.0
 10
-12.32762
 20
1.13925
 30
0.0
 10
-11.99742
 20
1.19005
 30
0.0
 10
-11.99742
 20
1.19005
 30
0.0
  0
SPLINE
  5
CE
330
1F
100
AcDbEntity
  8
0
370
     9
100
AcDbSpline
210
0.0
220
0.0
230
1.0
 70
     8
 71
     3
 72
    12
 73
     8
 74
     0
 42
0.0000000001
 43
0.0000000001
 40
0.0
 40
0.0
 40
0.0
 40
0.0
 40
0.3333333333333333
 40
0.3333333333333333
 40
0.3333333333333333
 40
0.3333333333333333
 40
1.0
 40
1.0
 40
1.0
 40
1.0
 10
-11.99742
 20
1.19005
 30
0.0
 10
-11.99742
 20
1.19005
 30
0.0
 10
-11.99742
 20
1.08845
 30
0.0
 10
-11.99742
 20
1.08845
 30
0.0
 10
-11.99742
 20
1.08845
 30
0.0
 10
-11.99742
 20
1.08845
 30
0.0
 10
-12.32762
 20
1.13925
 30
0.0
 10
-12.32762
 20
1.13925
 30
0.0
  0
SPLINE
  5
CF
330
1F
100
AcDbEntity
  8
0
100
AcDbSpline
210
0.0
220
0.0
230
1.0
 70
    27
 71
     3
 72
    12
 73
     8
 74
     0
 42
0.0000000001
 43
0.0000000001
 40
0.0
 40
0.0
 40
0.0
 40
0.0
 40
0.3333333333333333
 40
0.3333333333333333
 40
0.3333333333333333
 40
0.3333333333333333
 40
1.0
 40
1.0
 40
1.0
 40
1.0
 10
4.33905
 20
1.13925
 30
0.0
 10
4.33905
 20
1.13925
 30
0.0
 10
4.00885
 20
1.08845
 30
0.0
 10
4.00885
 20
1.08845
 30
0.0
 10
4.00885
 20
1.08845
 30
0.0
 10
4.00885
 20
1.08845
 30
0.0
 10
4.33905
 20
1.13925
 30
0.0
 10
4.33905
 20
1.13925
 30
0.0
  0
SPLINE
  5
D0
330
1F
100
AcDbEntity
  8
0
100
AcDbSpline
210
0.0
220
0.0
230
1.0
 70
     8
 71
     3
 72
    12
 73
     8
 74
     0
 42
0.0000000001
 43
0.0000000001
 40
0.0
 40
0.0
 40
0.0
 40
0.0
 40
0.3333333333333333
 40
0.3333333333333333
 40
0.3333333333333333
 40
0.3333333333333333
 40
1.0
 40
1.0
 40
1.0
 40
1.0
 10
4.00885
 20
1.08845
 30
0.0
 10
4.00885
 20
1.08845
 30
0.0
 10
4.00885
 20
1.19005
 30
0.0
 10
4.00885
 20
1.19005
 30
0.0
 10
4.00885
 20
1.19005
 30
0.0
 10
4.00885
 20
1.19005
 30
0.0
 10
4.33905
 20
1.13925
 30
0.0
 10
4.33905
 20
1.13925
 30
0.0
  0
SPLINE
  5
D1
330
1F
100
AcDbEntity
  8
0
370
     9
100
AcDbSpline
210
0.0
220
0.0
230
1.0
 70
    24
 71
     3
 72
     8
 73
     4
 74
     0
 42
0.0000000001
 43
0.0000000001
 40
0.0
 40
0.0
 40
0.0
 40
0.0
 40
1.0
 40
1.0
 40
1.0
 40
1.0
 10
4.33905
 20
1.13925
 30
0.0
 10
4.33905
 20
1.13925
 30
0.0
 10
4.00885
 20
1.08845
 30
0.0
 10
4.00885
 20
1.08845
 30
0.0
  0
SPLINE
  5
D2
330
1F
100
AcDbEntity
  8
0
370
     9
100
AcDbSpline
210
0.0
220
0.0
230
1.0
 70
     8
 71
     3
 72
    12
 73
     8
 74
     0
 42
0.0000000001
 43
0.0000000001
 40
0.0
 40
0.0
 40
0.0
 40
0.0
 40
0.3333333333333333
 40
0.3333333333333333
 40
0.3333333333333333
 40
0.3333333333333333
 40
1.0
 40
1.0
 40
1.0
 40
1.0
 10
4.00885
 20
1.08845
 30
0.0
 10
4.00885
 20
1.08845
 30
0.0
 10
4.00885
 20
1.19005
 30
0.0
 10
4.00885
 20
1.19005
 30
0.0
 10
4.00885
 20
1.19005
 30
0.0
 10
4.00885
 20
1.19005
 30
0.0
 10
4.33905
 20
1.13925
 30
0.0
 10
4.33905
 20
1.13925
 30
0.0
  0
SPLINE
  5
D3
330
1F
100
AcDbEntity
  8
0
370
     9
100
AcDbSpline
210
0.0
220
0.0
230
1.0
 70
    24
 71
     3
 72
     8
 73
     4
 74
     0
 42
0.0000000001
 43
0.0000000001
 40
0.0
 40
0.0
 40
0.0
 40
0.0
 40
1.0
 40
1.0
 40
1.0
 40
1.0
 10
-12.32762
 20
3.00215
 30
0.0
 10
-12.32762
 20
3.00215
 30
0.0
 10
-12.32762
 20
1.03925
 30
0.0
 10
-12.32762
 20
1.03925
 30
0.0
  0
SPLINE
  5
D4
330
1F
100
AcDbEntity
  8
0
370
     9
100
AcDbSpline
210
0.0
220
0.0
230
1.0
 70
    24
 71
     3
 72
     8
 73
     4
 74
     0
 42
0.0000000001
 43
0.0000000001
 40
0.0
 40
0.0
 40
0.0
 40
0.0
 40
1.0
 40
1.0
 40
1.0
 40
1.0
 10
4.33905
 20
3.00215
 30
0.0
 10
4.33905
 20
3.00215
 30
0.0
 10
4.33905
 20
1.03925
 30
0.0
 10
4.33905
 20
1.03925
 30
0.0
  0
SPLINE
  5
D5
330
1F
100
AcDbEntity
  8
0
370
     9
100
AcDbSpline
210
0.0
220
0.0
230
1.0
 70
    24
 71
     3
 72
     8
 73
     4
 74
     0
 42
0.0000000001
 43
0.0000000001
 40
0.0
 40
0.0
 40
0.0
 40
0.0
 40
1.0
 40
1.0
 40
1.0
 40
1.0
 10
-12.32762
 20
1.13925
 30
0.0
 10
-12.32762
 20
1.13925
 30
0.0
 10
4.33905
 20
1.13925
 30
0.0
 10
4.33905
 20
1.13925
 30
0.0
  0
SPLINE
  5
D6
330
1F
100
AcDbEntity
  8
0
100
AcDbSpline
210
0.0
220
0.0
230
1.0
 70
    11
 71
     3
 72
    92
 73
    88
 74
     0
 42
0.0000000001
 43
0.0000000001
 40
0.0
 40
0.0
 40
0.0
 40
0.0
 40
0.0434782608695652
 40
0.0434782608695652
 40
0.0434782608695652
 40
0.0434782608695652
 40
0.0869565217391304
 40
0.0869565217391304
 40
0.0869565217391304
 40
0.0869565217391304
 40
0.1304347826086956
 40
0.1304347826086956
 40
0.1304347826086956
 40
0.1304347826086956
 40
0.1739130434782609
 40
0.1739130434782609
 40
0.1739130434782609
 40
0.1739130434782609
 40
0.2173913043478261
 40
0.2173913043478261
 40
0.2173913043478261
 40
0.2173913043478261
 40
0.2608695652173913
 40
0.2608695652173913
 40
0.2608695652173913
 40
0.2608695652173913
 40
0.3043478260869565
 40
0.3043478260869565
 40
0.3043478260869565
 40
0.3043478260869565
 40
0.3478260869565217
 40
0.3478260869565217
 40
0.3478260869565217
 40
0.3478260869565217
 40
0.391304347826087
 40
0.391304347826087
 40
0.391304347826087
 40
0.391304347826087
 40
0.4347826086956522
 40
0.4347826086956522
 40
0.4347826086956522
 40
0.4347826086956522
 40
0.4782608695652174
 40
0.4782608695652174
 40
0.4782608695652174
 40
0.4782608695652174
 40
0.5217391304347826
 40
0.5217391304347826
 40
0.5217391304347826
 40
0.5217391304347826
 40
0.5652173913043478
 40
0.5652173913043478
 40
0.5652173913043478
 40
0.5652173913043478
 40
0.6086956521739131
 40
0.6086956521739131
 40
0.6086956521739131
 40
0.6086956521739131
 40
0.6521739130434783
 40
0.6521739130434783
 40
0.6521739130434783
 40
0.6521739130434783
 40
0.6956521739130435
 40
0.6956521739130435
 40
0.6956521739130435
 40
0.6956521739130435
 40
0.7391304347826086
 40
0.7391304347826086
 40
0.7391304347826086
 40
0.7391304347826086
 40
0.782608695652174
 40
0.782608695652174
 40
0.782608695652174
 40
0.782608695652174
 40
0.8260869565217391
 40
0.8260869565217391
 40
0.8260869565217391
 40
0.8260869565217391
 40
0.8695652173913043
 40
0.8695652173913043
 40
0.8695652173913043
 40
0.8695652173913043
 40
0.9130434782608695
 40
0.9130434782608695
 40
0.9130434782608695
 40
0.9130434782608695
 40
1.0
 40
1.0
 40
1.0
 40
1.0
 10
-4.80917
 20
1.33917
 30
0.0
 10
-4.80917
 20
1.33917
 30
0.0
 10
-4.77685
 20
1.34192
 30
0.0
 10
-4.77685
 20
1.34192
 30
0.0
 10
-4.77685
 20
1.34192
 30
0.0
 10
-4.77446
 20
1.32617
 30
0.0
 10
-4.76892
 20
1.31438
 30
0.0
 10
-4.76022
 20
1.30645
 30
0.0
 10
-4.76022
 20
1.30645
 30
0.0
 10
-4.75147
 20
1.29852
 30
0.0
 10
-4.74097
 20
1.29455
 30
0.0
 10
-4.72867
 20
1.29455
 30
0.0
 10
-4.72867
 20
1.29455
 30
0.0
 10
-4.71385
 20
1.29455
 30
0.0
 10
-4.70131
 20
1.30015
 30
0.0
 10
-4.6911
 20
1.31129
 30
0.0
 10
-4.6911
 20
1.31129
 30
0.0
 10
-4.68083
 20
1.32249
 30
0.0
 10
-4.6757
 20
1.33731
 30
0.0
 10
-4.6757
 20
1.35574
 30
0.0
 10
-4.6757
 20
1.35574
 30
0.0
 10
-4.6757
 20
1.3733
 30
0.0
 10
-4.6806
 20
1.38712
 30
0.0
 10
-4.69046
 20
1.39727
 30
0.0
 10
-4.69046
 20
1.39727
 30
0.0
 10
-4.70032
 20
1.40742
 30
0.0
 10
-4.71321
 20
1.4125
 30
0.0
 10
-4.72919
 20
1.4125
 30
0.0
 10
-4.72919
 20
1.4125
 30
0.0
 10
-4.73911
 20
1.4125
 30
0.0
 10
-4.74803
 20
1.41022
 30
0.0
 10
-4.75602
 20
1.40573
 30
0.0
 10
-4.75602
 20
1.40573
 30
0.0
 10
-4.76402
 20
1.40124
 30
0.0
 10
-4.77026
 20
1.39541
 30
0.0
 10
-4.77481
 20
1.38823
 30
0.0
 10
-4.77481
 20
1.38823
 30
0.0
 10
-4.77481
 20
1.38823
 30
0.0
 10
-4.80368
 20
1.39197
 30
0.0
 10
-4.80368
 20
1.39197
 30
0.0
 10
-4.80368
 20
1.39197
 30
0.0
 10
-4.80368
 20
1.39197
 30
0.0
 10
-4.77942
 20
1.52065
 30
0.0
 10
-4.77942
 20
1.52065
 30
0.0
 10
-4.77942
 20
1.52065
 30
0.0
 10
-4.77942
 20
1.52065
 30
0.0
 10
-4.65482
 20
1.52065
 30
0.0
 10
-4.65482
 20
1.52065
 30
0.0
 10
-4.65482
 20
1.52065
 30
0.0
 10
-4.65482
 20
1.52065
 30
0.0
 10
-4.65482
 20
1.49125
 30
0.0
 10
-4.65482
 20
1.49125
 30
0.0
 10
-4.65482
 20
1.49125
 30
0.0
 10
-4.65482
 20
1.49125
 30
0.0
 10
-4.7548
 20
1.49125
 30
0.0
 10
-4.7548
 20
1.49125
 30
0.0
 10
-4.7548
 20
1.49125
 30
0.0
 10
-4.7548
 20
1.49125
 30
0.0
 10
-4.76833
 20
1.42393
 30
0.0
 10
-4.76833
 20
1.42393
 30
0.0
 10
-4.76833
 20
1.42393
 30
0.0
 10
-4.75328
 20
1.43443
 30
0.0
 10
-4.73747
 20
1.43968
 30
0.0
 10
-4.72097
 20
1.43968
 30
0.0
 10
-4.72097
 20
1.43968
 30
0.0
 10
-4.69909
 20
1.43968
 30
0.0
 10
-4.68066
 20
1.4321
 30
0.0
 10
-4.66561
 20
1.41693
 30
0.0
 10
-4.66561
 20
1.41693
 30
0.0
 10
-4.65056
 20
1.40177
 30
0.0
 10
-4.64303
 20
1.38228
 30
0.0
 10
-4.64303
 20
1.35848
 30
0.0
 10
-4.64303
 20
1.35848
 30
0.0
 10
-4.64303
 20
1.33579
 30
0.0
 10
-4.64968
 20
1.31619
 30
0.0
 10
-4.66287
 20
1.29968
 30
0.0
 10
-4.66287
 20
1.29968
 30
0.0
 10
-4.67897
 20
1.27944
 30
0.0
 10
-4.7009
 20
1.26929
 30
0.0
 10
-4.72867
 20
1.26929
 30
0.0
 10
-4.72867
 20
1.26929
 30
0.0
 10
-4.75147
 20
1.26929
 30
0.0
 10
-4.77008
 20
1.27565
 30
0.0
 10
-4.78449
 20
1.28842
 30
0.0
 10
-4.78449
 20
1.28842
 30
0.0
 10
-4.7989
 20
1.3012
 30
0.0
 10
-4.80712
 20
1.31812
 30
0.0
 10
-4.80917
 20
1.33917
 30
0.0
  0
SPLINE
  5
D7
330
1F
100
AcDbEntity
  8
0
100
AcDbSpline
210
0.0
220
0.0
230
1.0
 70
    11
 71
     3
 72
    52
 73
    48
 74
     0
 42
0.0000000001
 43
0.0000000001
 40
0.0
 40
0.0
 40
0.0
 40
0.0
 40
0.0769230769230769
 40
0.0769230769230769
 40
0.0769230769230769
 40
0.0769230769230769
 40
0.1538461538461539
 40
0.1538461538461539
 40
0.1538461538461539
 40
0.1538461538461539
 40
0.2307692307692308
 40
0.2307692307692308
 40
0.2307692307692308
 40
0.2307692307692308
 40
0.3076923076923077
 40
0.3076923076923077
 40
0.3076923076923077
 40
0.3076923076923077
 40
0.3846153846153846
 40
0.3846153846153846
 40
0.3846153846153846
 40
0.3846153846153846
 40
0.4615384615384616
 40
0.4615384615384616
 40
0.4615384615384616
 40
0.4615384615384616
 40
0.5384615384615384
 40
0.5384615384615384
 40
0.5384615384615384
 40
0.5384615384615384
 40
0.6153846153846154
 40
0.6153846153846154
 40
0.6153846153846154
 40
0.6153846153846154
 40
0.6923076923076923
 40
0.6923076923076923
 40
0.6923076923076923
 40
0.6923076923076923
 40
0.7692307692307693
 40
0.7692307692307693
 40
0.7692307692307693
 40
0.7692307692307693
 40
0.8461538461538461
 40
0.8461538461538461
 40
0.8461538461538461
 40
0.8461538461538461
 40
1.0
 40
1.0
 40
1.0
 40
1.0
 10
-4.61451
 20
1.3971
 30
0.0
 10
-4.61451
 20
1.42673
 30
0.0
 10
-4.61147
 20
1.45059
 30
0.0
 10
-4.60535
 20
1.46862
 30
0.0
 10
-4.60535
 20
1.46862
 30
0.0
 10
-4.59928
 20
1.4867
 30
0.0
 10
-4.59018
 20
1.50064
 30
0.0
 10
-4.57816
 20
1.51044
 30
0.0
 10
-4.57816
 20
1.51044
 30
0.0
 10
-4.56615
 20
1.52024
 30
0.0
 10
-4.55104
 20
1.52514
 30
0.0
 10
-4.53284
 20
1.52514
 30
0.0
 10
-4.53284
 20
1.52514
 30
0.0
 10
-4.51936
 20
1.52514
 30
0.0
 10
-4.50758
 20
1.5224
 30
0.0
 10
-4.49743
 20
1.51697
 30
0.0
 10
-4.49743
 20
1.51697
 30
0.0
 10
-4.48728
 20
1.51161
 30
0.0
 10
-4.47894
 20
1.50379
 30
0.0
 10
-4.47229
 20
1.49358
 30
0.0
 10
-4.47229
 20
1.49358
 30
0.0
 10
-4.4657
 20
1.48337
 30
0.0
 10
-4.46051
 20
1.47095
 30
0.0
 10
-4.45677
 20
1.45631
 30
0.0
 10
-4.45677
 20
1.45631
 30
0.0
 10
-4.45298
 20
1.44167
 30
0.0
 10
-4.45111
 20
1.42195
 30
0.0
 10
-4.45111
 20
1.3971
 30
0.0
 10
-4.45111
 20
1.3971
 30
0.0
 10
-4.45111
 20
1.3677
 30
0.0
 10
-4.45415
 20
1.34402
 30
0.0
 10
-4.46016
 20
1.32593
 30
0.0
 10
-4.46016
 20
1.32593
 30
0.0
 10
-4.46622
 20
1.30785
 30
0.0
 10
-4.47526
 20
1.29391
 30
0.0
 10
-4.48728
 20
1.28405
 30
0.0
 10
-4.48728
 20
1.28405
 30
0.0
 10
-4.4993
 20
1.27419
 30
0.0
 10
-4.51446
 20
1.26929
 30
0.0
 10
-4.53284
 20
1.26929
 30
0.0
 10
-4.53284
 20
1.26929
 30
0.0
 10
-4.55699
 20
1.26929
 30
0.0
 10
-4.57595
 20
1.27792
 30
0.0
 10
-4.58971
 20
1.29525
 30
0.0
 10
-4.58971
 20
1.29525
 30
0.0
 10
-4.60622
 20
1.31607
 30
0.0
 10
-4.61451
 20
1.35008
 30
0.0
 10
-4.61451
 20
1.3971
 30
0.0
  0
SPLINE
  5
D8
330
1F
100
AcDbEntity
  8
0
100
AcDbSpline
210
0.0
220
0.0
230
1.0
 70
    11
 71
     3
 72
    36
 73
    32
 74
     0
 42
0.0000000001
 43
0.0000000001
 40
0.0
 40
0.0
 40
0.0
 40
0.0
 40
0.1111111111111111
 40
0.1111111111111111
 40
0.1111111111111111
 40
0.1111111111111111
 40
0.2222222222222222
 40
0.2222222222222222
 40
0.2222222222222222
 40
0.2222222222222222
 40
0.3333333333333333
 40
0.3333333333333333
 40
0.3333333333333333
 40
0.3333333333333333
 40
0.4444444444444444
 40
0.4444444444444444
 40
0.4444444444444444
 40
0.4444444444444444
 40
0.5555555555555556
 40
0.5555555555555556
 40
0.5555555555555556
 40
0.5555555555555556
 40
0.6666666666666666
 40
0.6666666666666666
 40
0.6666666666666666
 40
0.6666666666666666
 40
0.7777777777777778
 40
0.7777777777777778
 40
0.7777777777777778
 40
0.7777777777777778
 40
1.0
 40
1.0
 40
1.0
 40
1.0
 10
-4.58289
 20
1.3971
 30
0.0
 10
-4.58289
 20
1.35597
 30
0.0
 10
-4.57805
 20
1.32862
 30
0.0
 10
-4.56842
 20
1.31497
 30
0.0
 10
-4.56842
 20
1.31497
 30
0.0
 10
-4.5588
 20
1.30137
 30
0.0
 10
-4.54696
 20
1.29455
 30
0.0
 10
-4.53284
 20
1.29455
 30
0.0
 10
-4.53284
 20
1.29455
 30
0.0
 10
-4.51866
 20
1.29455
 30
0.0
 10
-4.50682
 20
1.30143
 30
0.0
 10
-4.4972
 20
1.31508
 30
0.0
 10
-4.4972
 20
1.31508
 30
0.0
 10
-4.48757
 20
1.32873
 30
0.0
 10
-4.48273
 20
1.35609
 30
0.0
 10
-4.48273
 20
1.3971
 30
0.0
 10
-4.48273
 20
1.3971
 30
0.0
 10
-4.48273
 20
1.43834
 30
0.0
 10
-4.48757
 20
1.46576
 30
0.0
 10
-4.4972
 20
1.47929
 30
0.0
 10
-4.4972
 20
1.47929
 30
0.0
 10
-4.50682
 20
1.49288
 30
0.0
 10
-4.51878
 20
1.49965
 30
0.0
 10
-4.53313
 20
1.49965
 30
0.0
 10
-4.53313
 20
1.49965
 30
0.0
 10
-4.54731
 20
1.49965
 30
0.0
 10
-4.55856
 20
1.49364
 30
0.0
 10
-4.56702
 20
1.48168
 30
0.0
 10
-4.56702
 20
1.48168
 30
0.0
 10
-4.57758
 20
1.46646
 30
0.0
 10
-4.58289
 20
1.43822
 30
0.0
 10
-4.58289
 20
1.3971
 30
0.0
  0
SPLINE
  5
D9
330
1F
100
AcDbEntity
  8
0
100
AcDbSpline
210
0.0
220
0.0
230
1.0
 70
    11
 71
     3
 72
    52
 73
    48
 74
     0
 42
0.0000000001
 43
0.0000000001
 40
0.0
 40
0.0
 40
0.0
 40
0.0
 40
0.0769230769230769
 40
0.0769230769230769
 40
0.0769230769230769
 40
0.0769230769230769
 40
0.1538461538461539
 40
0.1538461538461539
 40
0.1538461538461539
 40
0.1538461538461539
 40
0.2307692307692308
 40
0.2307692307692308
 40
0.2307692307692308
 40
0.2307692307692308
 40
0.3076923076923077
 40
0.3076923076923077
 40
0.3076923076923077
 40
0.3076923076923077
 40
0.3846153846153846
 40
0.3846153846153846
 40
0.3846153846153846
 40
0.3846153846153846
 40
0.4615384615384616
 40
0.4615384615384616
 40
0.4615384615384616
 40
0.4615384615384616
 40
0.5384615384615384
 40
0.5384615384615384
 40
0.5384615384615384
 40
0.5384615384615384
 40
0.6153846153846154
 40
0.6153846153846154
 40
0.6153846153846154
 40
0.6153846153846154
 40
0.6923076923076923
 40
0.6923076923076923
 40
0.6923076923076923
 40
0.6923076923076923
 40
0.7692307692307693
 40
0.7692307692307693
 40
0.7692307692307693
 40
0.7692307692307693
 40
0.8461538461538461
 40
0.8461538461538461
 40
0.8461538461538461
 40
0.8461538461538461
 40
1.0
 40
1.0
 40
1.0
 40
1.0
 10
-4.41985
 20
1.3971
 30
0.0
 10
-4.41985
 20
1.42673
 30
0.0
 10
-4.41681
 20
1.45059
 30
0.0
 10
-4.41069
 20
1.46862
 30
0.0
 10
-4.41069
 20
1.46862
 30
0.0
 10
-4.40462
 20
1.4867
 30
0.0
 10
-4.39552
 20
1.50064
 30
0.0
 10
-4.3835
 20
1.51044
 30
0.0
 10
-4.3835
 20
1.51044
 30
0.0
 10
-4.37149
 20
1.52024
 30
0.0
 10
-4.35638
 20
1.52514
 30
0.0
 10
-4.33818
 20
1.52514
 30
0.0
 10
-4.33818
 20
1.52514
 30
0.0
 10
-4.3247
 20
1.52514
 30
0.0
 10
-4.31292
 20
1.5224
 30
0.0
 10
-4.30277
 20
1.51697
 30
0.0
 10
-4.30277
 20
1.51697
 30
0.0
 10
-4.29262
 20
1.51161
 30
0.0
 10
-4.28428
 20
1.50379
 30
0.0
 10
-4.27763
 20
1.49358
 30
0.0
 10
-4.27763
 20
1.49358
 30
0.0
 10
-4.27104
 20
1.48337
 30
0.0
 10
-4.26585
 20
1.47095
 30
0.0
 10
-4.26211
 20
1.45631
 30
0.0
 10
-4.26211
 20
1.45631
 30
0.0
 10
-4.25832
 20
1.44167
 30
0.0
 10
-4.25645
 20
1.42195
 30
0.0
 10
-4.25645
 20
1.3971
 30
0.0
 10
-4.25645
 20
1.3971
 30
0.0
 10
-4.25645
 20
1.3677
 30
0.0
 10
-4.25949
 20
1.34402
 30
0.0
 10
-4.2655
 20
1.32593
 30
0.0
 10
-4.2655
 20
1.32593
 30
0.0
 10
-4.27156
 20
1.30785
 30
0.0
 10
-4.2806
 20
1.29391
 30
0.0
 10
-4.29262
 20
1.28405
 30
0.0
 10
-4.29262
 20
1.28405
 30
0.0
 10
-4.30464
 20
1.27419
 30
0.0
 10
-4.3198
 20
1.26929
 30
0.0
 10
-4.33818
 20
1.26929
 30
0.0
 10
-4.33818
 20
1.26929
 30
0.0
 10
-4.36233
 20
1.26929
 30
0.0
 10
-4.38129
 20
1.27792
 30
0.0
 10
-4.39505
 20
1.29525
 30
0.0
 10
-4.39505
 20
1.29525
 30
0.0
 10
-4.41156
 20
1.31607
 30
0.0
 10
-4.41985
 20
1.35008
 30
0.0
 10
-4.41985
 20
1.3971
 30
0.0
  0
SPLINE
  5
DA
330
1F
100
AcDbEntity
  8
0
100
AcDbSpline
210
0.0
220
0.0
230
1.0
 70
    11
 71
     3
 72
    36
 73
    32
 74
     0
 42
0.0000000001
 43
0.0000000001
 40
0.0
 40
0.0
 40
0.0
 40
0.0
 40
0.1111111111111111
 40
0.1111111111111111
 40
0.1111111111111111
 40
0.1111111111111111
 40
0.2222222222222222
 40
0.2222222222222222
 40
0.2222222222222222
 40
0.2222222222222222
 40
0.3333333333333333
 40
0.3333333333333333
 40
0.3333333333333333
 40
0.3333333333333333
 40
0.4444444444444444
 40
0.4444444444444444
 40
0.4444444444444444
 40
0.4444444444444444
 40
0.5555555555555556
 40
0.5555555555555556
 40
0.5555555555555556
 40
0.5555555555555556
 40
0.6666666666666666
 40
0.6666666666666666
 40
0.6666666666666666
 40
0.6666666666666666
 40
0.7777777777777778
 40
0.7777777777777778
 40
0.7777777777777778
 40
0.7777777777777778
 40
1.0
 40
1.0
 40
1.0
 40
1.0
 10
-4.38823
 20
1.3971
 30
0.0
 10
-4.38823
 20
1.35597
 30
0.0
 10
-4.38339
 20
1.32862
 30
0.0
 10
-4.37376
 20
1.31497
 30
0.0
 10
-4.37376
 20
1.31497
 30
0.0
 10
-4.36414
 20
1.30137
 30
0.0
 10
-4.3523
 20
1.29455
 30
0.0
 10
-4.33818
 20
1.29455
 30
0.0
 10
-4.33818
 20
1.29455
 30
0.0
 10
-4.324
 20
1.29455
 30
0.0
 10
-4.31216
 20
1.30143
 30
0.0
 10
-4.30254
 20
1.31508
 30
0.0
 10
-4.30254
 20
1.31508
 30
0.0
 10
-4.29291
 20
1.32873
 30
0.0
 10
-4.28807
 20
1.35609
 30
0.0
 10
-4.28807
 20
1.3971
 30
0.0
 10
-4.28807
 20
1.3971
 30
0.0
 10
-4.28807
 20
1.43834
 30
0.0
 10
-4.29291
 20
1.46576
 30
0.0
 10
-4.30254
 20
1.47929
 30
0.0
 10
-4.30254
 20
1.47929
 30
0.0
 10
-4.31216
 20
1.49288
 30
0.0
 10
-4.32412
 20
1.49965
 30
0.0
 10
-4.33847
 20
1.49965
 30
0.0
 10
-4.33847
 20
1.49965
 30
0.0
 10
-4.35265
 20
1.49965
 30
0.0
 10
-4.3639
 20
1.49364
 30
0.0
 10
-4.37236
 20
1.48168
 30
0.0
 10
-4.37236
 20
1.48168
 30
0.0
 10
-4.38292
 20
1.46646
 30
0.0
 10
-4.38823
 20
1.43822
 30
0.0
 10
-4.38823
 20
1.3971
 30
0.0
  0
SPLINE
  5
DB
330
1F
100
AcDbEntity
  8
0
100
AcDbSpline
210
0.0
220
0.0
230
1.0
 70
    27
 71
     3
 72
    12
 73
     8
 74
     0
 42
0.0000000001
 43
0.0000000001
 40
0.0
 40
0.0
 40
0.0
 40
0.0
 40
0.3333333333333333
 40
0.3333333333333333
 40
0.3333333333333333
 40
0.3333333333333333
 40
1.0
 40
1.0
 40
1.0
 40
1.0
 10
5.95571
 20
2.70215
 30
0.0
 10
5.95571
 20
2.70215
 30
0.0
 10
5.90491
 20
3.03235
 30
0.0
 10
5.90491
 20
3.03235
 30
0.0
 10
5.90491
 20
3.03235
 30
0.0
 10
5.90491
 20
3.03235
 30
0.0
 10
5.95571
 20
2.70215
 30
0.0
 10
5.95571
 20
2.70215
 30
0.0
  0
SPLINE
  5
DC
330
1F
100
AcDbEntity
  8
0
100
AcDbSpline
210
0.0
220
0.0
230
1.0
 70
     8
 71
     3
 72
    12
 73
     8
 74
     0
 42
0.0000000001
 43
0.0000000001
 40
0.0
 40
0.0
 40
0.0
 40
0.0
 40
0.3333333333333333
 40
0.3333333333333333
 40
0.3333333333333333
 40
0.3333333333333333
 40
1.0
 40
1.0
 40
1.0
 40
1.0
 10
5.90491
 20
3.03235
 30
0.0
 10
5.90491
 20
3.03235
 30
0.0
 10
6.00651
 20
3.03235
 30
0.0
 10
6.00651
 20
3.03235
 30
0.0
 10
6.00651
 20
3.03235
 30
0.0
 10
6.00651
 20
3.03235
 30
0.0
 10
5.95571
 20
2.70215
 30
0.0
 10
5.95571
 20
2.70215
 30
0.0
  0
SPLINE
  5
DD
330
1F
100
AcDbEntity
  8
0
370
     9
100
AcDbSpline
210
0.0
220
0.0
230
1.0
 70
    24
 71
     3
 72
     8
 73
     4
 74
     0
 42
0.0000000001
 43
0.0000000001
 40
0.0
 40
0.0
 40
0.0
 40
0.0
 40
1.0
 40
1.0
 40
1.0
 40
1.0
 10
5.95571
 20
2.70215
 30
0.0
 10
5.95571
 20
2.70215
 30
0.0
 10
5.90491
 20
3.03235
 30
0.0
 10
5.90491
 20
3.03235
 30
0.0
  0
SPLINE
  5
DE
330
1F
100
AcDbEntity
  8
0
370
     9
100
AcDbSpline
210
0.0
220
0.0
230
1.0
 70
     8
 71
     3
 72
    12
 73
     8
 74
     0
 42
0.0000000001
 43
0.0000000001
 40
0.0
 40
0.0
 40
0.0
 40
0.0
 40
0.3333333333333333
 40
0.3333333333333333
 40
0.3333333333333333
 40
0.3333333333333333
 40
1.0
 40
1.0
 40
1.0
 40
1.0
 10
5.90491
 20
3.03235
 30
0.0
 10
5.90491
 20
3.03235
 30
0.0
 10
6.00651
 20
3.03235
 30
0.0
 10
6.00651
 20
3.03235
 30
0.0
 10
6.00651
 20
3.03235
 30
0.0
 10
6.00651
 20
3.03235
 30
0.0
 10
5.95571
 20
2.70215
 30
0.0
 10
5.95571
 20
2.70215
 30
0.0
  0
SPLINE
  5
DF
330
1F
100
AcDbEntity
  8
0
100
AcDbSpline
210
0.0
220
0.0
230
1.0
 70
    27
 71
     3
 72
    12
 73
     8
 74
     0
 42
0.0000000001
 43
0.0000000001
 40
0.0
 40
0.0
 40
0.0
 40
0.0
 40
0.3333333333333333
 40
0.3333333333333333
 40
0.3333333333333333
 40
0.3333333333333333
 40
1.0
 40
1.0
 40
1.0
 40
1.0
 10
5.95571
 20
6.93548
 30
0.0
 10
5.95571
 20
6.93548
 30
0.0
 10
6.00651
 20
6.60528
 30
0.0
 10
6.00651
 20
6.60528
 30
0.0
 10
6.00651
 20
6.60528
 30
0.0
 10
6.00651
 20
6.60528
 30
0.0
 10
5.95571
 20
6.93548
 30
0.0
 10
5.95571
 20
6.93548
 30
0.0
  0
SPLINE
  5
E0
330
1F
100
AcDbEntity
  8
0
100
AcDbSpline
210
0.0
220
0.0
230
1.0
 70
     8
 71
     3
 72
    12
 73
     8
 74
     0
 42
0.0000000001
 43
0.0000000001
 40
0.0
 40
0.0
 40
0.0
 40
0.0
 40
0.3333333333333333
 40
0.3333333333333333
 40
0.3333333333333333
 40
0.3333333333333333
 40
1.0
 40
1.0
 40
1.0
 40
1.0
 10
6.00651
 20
6.60528
 30
0.0
 10
6.00651
 20
6.60528
 30
0.0
 10
5.90491
 20
6.60528
 30
0.0
 10
5.90491
 20
6.60528
 30
0.0
 10
5.90491
 20
6.60528
 30
0.0
 10
5.90491
 20
6.60528
 30
0.0
 10
5.95571
 20
6.93548
 30
0.0
 10
5.95571
 20
6.93548
 30
0.0
  0
SPLINE
  5
E1
330
1F
100
AcDbEntity
  8
0
370
     9
100
AcDbSpline
210
0.0
220
0.0
230
1.0
 70
    24
 71
     3
 72
     8
 73
     4
 74
     0
 42
0.0000000001
 43
0.0000000001
 40
0.0
 40
0.0
 40
0.0
 40
0.0
 40
1.0
 40
1.0
 40
1.0
 40
1.0
 10
5.95571
 20
6.93548
 30
0.0
 10
5.95571
 20
6.93548
 30
0.0
 10
6.00651
 20
6.60528
 30
0.0
 10
6.00651
 20
6.60528
 30
0.0
  0
SPLINE
  5
E2
330
1F
100
AcDbEntity
  8
0
370
     9
100
AcDbSpline
210
0.0
220
0.0
230
1.0
 70
     8
 71
     3
 72
    12
 73
     8
 74
     0
 42
0.0000000001
 43
0.0000000001
 40
0.0
 40
0.0
 40
0.0
 40
0.0
 40
0.3333333333333333
 40
0.3333333333333333
 40
0.3333333333333333
 40
0.3333333333333333
 40
1.0
 40
1.0
 40
1.0
 40
1.0
 10
6.00651
 20
6.60528
 30
0.0
 10
6.00651
 20
6.60528
 30
0.0
 10
5.90491
 20
6.60528
 30
0.0
 10
5.90491
 20
6.60528
 30
0.0
 10
5.90491
 20
6.60528
 30
0.0
 10
5.90491
 20
6.60528
 30
0.0
 10
5.95571
 20
6.93548
 30
0.0
 10
5.95571
 20
6.93548
 30
0.0
  0
SPLINE
  5
E3
330
1F
100
AcDbEntity
  8
0
370
     9
100
AcDbSpline
210
0.0
220
0.0
230
1.0
 70
    24
 71
     3
 72
     8
 73
     4
 74
     0
 42
0.0000000001
 43
0.0000000001
 40
0.0
 40
0.0
 40
0.0
 40
0.0
 40
1.0
 40
1.0
 40
1.0
 40
1.0
 10
4.03905
 20
2.70215
 30
0.0
 10
4.03905
 20
2.70215
 30
0.0
 10
6.05571
 20
2.70215
 30
0.0
 10
6.05571
 20
2.70215
 30
0.0
  0
SPLINE
  5
E4
330
1F
100
AcDbEntity
  8
0
370
     9
100
AcDbSpline
210
0.0
220
0.0
230
1.0
 70
    24
 71
     3
 72
     8
 73
     4
 74
     0
 42
0.0000000001
 43
0.0000000001
 40
0.0
 40
0.0
 40
0.0
 40
0.0
 40
1.0
 40
1.0
 40
1.0
 40
1.0
 10
4.43905
 20
6.93548
 30
0.0
 10
4.43905
 20
6.93548
 30
0.0
 10
6.05571
 20
6.93548
 30
0.0
 10
6.05571
 20
6.93548
 30
0.0
  0
SPLINE
  5
E5
330
1F
100
AcDbEntity
  8
0
370
     9
100
AcDbSpline
210
0.0
220
0.0
230
1.0
 70
    24
 71
     3
 72
     8
 73
     4
 74
     0
 42
0.0000000001
 43
0.0000000001
 40
0.0
 40
0.0
 40
0.0
 40
0.0
 40
1.0
 40
1.0
 40
1.0
 40
1.0
 10
5.95571
 20
2.70215
 30
0.0
 10
5.95571
 20
2.70215
 30
0.0
 10
5.95571
 20
6.93548
 30
0.0
 10
5.95571
 20
6.93548
 30
0.0
  0
SPLINE
  5
E6
330
1F
100
AcDbEntity
  8
0
100
AcDbSpline
210
0.0
220
0.0
230
1.0
 70
    11
 71
     3
 72
    40
 73
    36
 74
     0
 42
0.0000000001
 43
0.0000000001
 40
0.0
 40
0.0
 40
0.0
 40
0.0
 40
0.1
 40
0.1
 40
0.1
 40
0.1
 40
0.2
 40
0.2
 40
0.2
 40
0.2
 40
0.3
 40
0.3
 40
0.3
 40
0.3
 40
0.4
 40
0.4
 40
0.4
 40
0.4
 40
0.5
 40
0.5
 40
0.5
 40
0.5
 40
0.6
 40
0.6
 40
0.6
 40
0.6
 40
0.7
 40
0.7
 40
0.7
 40
0.7
 40
0.8
 40
0.8
 40
0.8
 40
0.8
 40
1.0
 40
1.0
 40
1.0
 40
1.0
 10
5.82141
 20
4.29899
 30
0.0
 10
5.82141
 20
4.29899
 30
0.0
 10
5.82141
 20
4.26825
 30
0.0
 10
5.82141
 20
4.26825
 30
0.0
 10
5.82141
 20
4.26825
 30
0.0
 10
5.82141
 20
4.26825
 30
0.0
 10
5.62541
 20
4.26825
 30
0.0
 10
5.62541
 20
4.26825
 30
0.0
 10
5.62541
 20
4.26825
 30
0.0
 10
5.63247
 20
4.26084
 30
0.0
 10
5.63953
 20
4.25116
 30
0.0
 10
5.64659
 20
4.23914
 30
0.0
 10
5.64659
 20
4.23914
 30
0.0
 10
5.65364
 20
4.22707
 30
0.0
 10
5.65895
 20
4.21628
 30
0.0
 10
5.66245
 20
4.20671
 30
0.0
 10
5.66245
 20
4.20671
 30
0.0
 10
5.66245
 20
4.20671
 30
0.0
 10
5.63276
 20
4.20671
 30
0.0
 10
5.63276
 20
4.20671
 30
0.0
 10
5.63276
 20
4.20671
 30
0.0
 10
5.62465
 20
4.22392
 30
0.0
 10
5.61485
 20
4.23897
 30
0.0
 10
5.60336
 20
4.25186
 30
0.0
 10
5.60336
 20
4.25186
 30
0.0
 10
5.59181
 20
4.26469
 30
0.0
 10
5.58067
 20
4.27385
 30
0.0
 10
5.56988
 20
4.27922
 30
0.0
 10
5.56988
 20
4.27922
 30
0.0
 10
5.56988
 20
4.27922
 30
0.0
 10
5.56988
 20
4.29899
 30
0.0
 10
5.56988
 20
4.29899
 30
0.0
 10
5.56988
 20
4.29899
 30
0.0
 10
5.56988
 20
4.29899
 30
0.0
 10
5.82141
 20
4.29899
 30
0.0
 10
5.82141
 20
4.29899
 30
0.0
  0
SPLINE
  5
E7
330
1F
100
AcDbEntity
  8
0
100
AcDbSpline
210
0.0
220
0.0
230
1.0
 70
    11
 71
     3
 72
    92
 73
    88
 74
     0
 42
0.0000000001
 43
0.0000000001
 40
0.0
 40
0.0
 40
0.0
 40
0.0
 40
0.0434782608695652
 40
0.0434782608695652
 40
0.0434782608695652
 40
0.0434782608695652
 40
0.0869565217391304
 40
0.0869565217391304
 40
0.0869565217391304
 40
0.0869565217391304
 40
0.1304347826086956
 40
0.1304347826086956
 40
0.1304347826086956
 40
0.1304347826086956
 40
0.1739130434782609
 40
0.1739130434782609
 40
0.1739130434782609
 40
0.1739130434782609
 40
0.2173913043478261
 40
0.2173913043478261
 40
0.2173913043478261
 40
0.2173913043478261
 40
0.2608695652173913
 40
0.2608695652173913
 40
0.2608695652173913
 40
0.2608695652173913
 40
0.3043478260869565
 40
0.3043478260869565
 40
0.3043478260869565
 40
0.3043478260869565
 40
0.3478260869565217
 40
0.3478260869565217
 40
0.3478260869565217
 40
0.3478260869565217
 40
0.391304347826087
 40
0.391304347826087
 40
0.391304347826087
 40
0.391304347826087
 40
0.4347826086956522
 40
0.4347826086956522
 40
0.4347826086956522
 40
0.4347826086956522
 40
0.4782608695652174
 40
0.4782608695652174
 40
0.4782608695652174
 40
0.4782608695652174
 40
0.5217391304347826
 40
0.5217391304347826
 40
0.5217391304347826
 40
0.5217391304347826
 40
0.5652173913043478
 40
0.5652173913043478
 40
0.5652173913043478
 40
0.5652173913043478
 40
0.6086956521739131
 40
0.6086956521739131
 40
0.6086956521739131
 40
0.6086956521739131
 40
0.6521739130434783
 40
0.6521739130434783
 40
0.6521739130434783
 40
0.6521739130434783
 40
0.6956521739130435
 40
0.6956521739130435
 40
0.6956521739130435
 40
0.6956521739130435
 40
0.7391304347826086
 40
0.7391304347826086
 40
0.7391304347826086
 40
0.7391304347826086
 40
0.782608695652174
 40
0.782608695652174
 40
0.782608695652174
 40
0.782608695652174
 40
0.8260869565217391
 40
0.8260869565217391
 40
0.8260869565217391
 40
0.8260869565217391
 40
0.8695652173913043
 40
0.8695652173913043
 40
0.8695652173913043
 40
0.8695652173913043
 40
0.9130434782608695
 40
0.9130434782608695
 40
0.9130434782608695
 40
0.9130434782608695
 40
1.0
 40
1.0
 40
1.0
 40
1.0
 10
5.79184
 20
4.5395
 30
0.0
 10
5.79184
 20
4.5395
 30
0.0
 10
5.82141
 20
4.5395
 30
0.0
 10
5.82141
 20
4.5395
 30
0.0
 10
5.82141
 20
4.5395
 30
0.0
 10
5.82141
 20
4.5395
 30
0.0
 10
5.82141
 20
4.3739
 30
0.0
 10
5.82141
 20
4.3739
 30
0.0
 10
5.82141
 20
4.3739
 30
0.0
 10
5.814
 20
4.37366
 30
0.0
 10
5.80689
 20
4.37483
 30
0.0
 10
5.80006
 20
4.37745
 30
0.0
 10
5.80006
 20
4.37745
 30
0.0
 10
5.78874
 20
4.38165
 30
0.0
 10
5.77766
 20
4.38842
 30
0.0
 10
5.76675
 20
4.3977
 30
0.0
 10
5.76675
 20
4.3977
 30
0.0
 10
5.75579
 20
4.40703
 30
0.0
 10
5.74313
 20
4.42045
 30
0.0
 10
5.72878
 20
4.43795
 30
0.0
 10
5.72878
 20
4.43795
 30
0.0
 10
5.70644
 20
4.46519
 30
0.0
 10
5.68876
 20
4.48362
 30
0.0
 10
5.67569
 20
4.49319
 30
0.0
 10
5.67569
 20
4.49319
 30
0.0
 10
5.66269
 20
4.50275
 30
0.0
 10
5.65032
 20
4.50754
 30
0.0
 10
5.63871
 20
4.50754
 30
0.0
 10
5.63871
 20
4.50754
 30
0.0
 10
5.62652
 20
4.50754
 30
0.0
 10
5.61625
 20
4.50316
 30
0.0
 10
5.60785
 20
4.49447
 30
0.0
 10
5.60785
 20
4.49447
 30
0.0
 10
5.59951
 20
4.48572
 30
0.0
 10
5.59531
 20
4.47435
 30
0.0
 10
5.59531
 20
4.46035
 30
0.0
 10
5.59531
 20
4.46035
 30
0.0
 10
5.59531
 20
4.44553
 30
0.0
 10
5.59974
 20
4.43369
 30
0.0
 10
5.60867
 20
4.42482
 30
0.0
 10
5.60867
 20
4.42482
 30
0.0
 10
5.61754
 20
4.4159
 30
0.0
 10
5.62984
 20
4.4114
 30
0.0
 10
5.64554
 20
4.41129
 30
0.0
 10
5.64554
 20
4.41129
 30
0.0
 10
5.64554
 20
4.41129
 30
0.0
 10
5.64233
 20
4.37967
 30
0.0
 10
5.64233
 20
4.37967
 30
0.0
 10
5.64233
 20
4.37967
 30
0.0
 10
5.6187
 20
4.38183
 30
0.0
 10
5.60074
 20
4.39
 30
0.0
 10
5.58837
 20
4.40411
 30
0.0
 10
5.58837
 20
4.40411
 30
0.0
 10
5.576
 20
4.41823
 30
0.0
 10
5.56988
 20
4.43725
 30
0.0
 10
5.56988
 20
4.46105
 30
0.0
 10
5.56988
 20
4.46105
 30
0.0
 10
5.56988
 20
4.48508
 30
0.0
 10
5.57653
 20
4.5041
 30
0.0
 10
5.58983
 20
4.5181
 30
0.0
 10
5.58983
 20
4.5181
 30
0.0
 10
5.60319
 20
4.53215
 30
0.0
 10
5.61969
 20
4.53915
 30
0.0
 10
5.63941
 20
4.53915
 30
0.0
 10
5.63941
 20
4.53915
 30
0.0
 10
5.64944
 20
4.53915
 30
0.0
 10
5.6593
 20
4.53711
 30
0.0
 10
5.66899
 20
4.53297
 30
0.0
 10
5.66899
 20
4.53297
 30
0.0
 10
5.67867
 20
4.52889
 30
0.0
 10
5.68888
 20
4.52206
 30
0.0
 10
5.69955
 20
4.51255
 30
0.0
 10
5.69955
 20
4.51255
 30
0.0
 10
5.71029
 20
4.50305
 30
0.0
 10
5.72499
 20
4.48724
 30
0.0
 10
5.74365
 20
4.46513
 30
0.0
 10
5.74365
 20
4.46513
 30
0.0
 10
5.75917
 20
4.4467
 30
0.0
 10
5.76967
 20
4.43485
 30
0.0
 10
5.77521
 20
4.4296
 30
0.0
 10
5.77521
 20
4.4296
 30
0.0
 10
5.78069
 20
4.42435
 30
0.0
 10
5.78624
 20
4.42004
 30
0.0
 10
5.79184
 20
4.4166
 30
0.0
 10
5.79184
 20
4.4166
 30
0.0
 10
5.79184
 20
4.4166
 30
0.0
 10
5.79184
 20
4.5395
 30
0.0
 10
5.79184
 20
4.5395
 30
0.0
  0
SPLINE
  5
E8
330
1F
100
AcDbEntity
  8
0
100
AcDbSpline
210
0.0
220
0.0
230
1.0
 70
    11
 71
     3
 72
    48
 73
    44
 74
     0
 42
0.0000000001
 43
0.0000000001
 40
0.0
 40
0.0
 40
0.0
 40
0.0
 40
0.0833333333333333
 40
0.0833333333333333
 40
0.0833333333333333
 40
0.0833333333333333
 40
0.1666666666666667
 40
0.1666666666666667
 40
0.1666666666666667
 40
0.1666666666666667
 40
0.25
 40
0.25
 40
0.25
 40
0.25
 40
0.3333333333333333
 40
0.3333333333333333
 40
0.3333333333333333
 40
0.3333333333333333
 40
0.4166666666666667
 40
0.4166666666666667
 40
0.4166666666666667
 40
0.4166666666666667
 40
0.5
 40
0.5
 40
0.5
 40
0.5
 40
0.5833333333333334
 40
0.5833333333333334
 40
0.5833333333333334
 40
0.5833333333333334
 40
0.6666666666666666
 40
0.6666666666666666
 40
0.6666666666666666
 40
0.6666666666666666
 40
0.75
 40
0.75
 40
0.75
 40
0.75
 40
0.8333333333333334
 40
0.8333333333333334
 40
0.8333333333333334
 40
0.8333333333333334
 40
1.0
 40
1.0
 40
1.0
 40
1.0
 10
5.60371
 20
4.57451
 30
0.0
 10
5.60371
 20
4.57451
 30
0.0
 10
5.57414
 20
4.57451
 30
0.0
 10
5.57414
 20
4.57451
 30
0.0
 10
5.57414
 20
4.57451
 30
0.0
 10
5.57414
 20
4.57451
 30
0.0
 10
5.57414
 20
4.73667
 30
0.0
 10
5.57414
 20
4.73667
 30
0.0
 10
5.57414
 20
4.73667
 30
0.0
 10
5.57414
 20
4.73667
 30
0.0
 10
5.59805
 20
4.73667
 30
0.0
 10
5.59805
 20
4.73667
 30
0.0
 10
5.59805
 20
4.73667
 30
0.0
 10
5.61503
 20
4.72075
 30
0.0
 10
5.6376
 20
4.70494
 30
0.0
 10
5.66572
 20
4.68925
 30
0.0
 10
5.66572
 20
4.68925
 30
0.0
 10
5.69384
 20
4.67361
 30
0.0
 10
5.72283
 20
4.66148
 30
0.0
 10
5.75252
 20
4.65296
 30
0.0
 10
5.75252
 20
4.65296
 30
0.0
 10
5.77352
 20
4.64678
 30
0.0
 10
5.79644
 20
4.64287
 30
0.0
 10
5.82141
 20
4.64118
 30
0.0
 10
5.82141
 20
4.64118
 30
0.0
 10
5.82141
 20
4.64118
 30
0.0
 10
5.82141
 20
4.60956
 30
0.0
 10
5.82141
 20
4.60956
 30
0.0
 10
5.82141
 20
4.60956
 30
0.0
 10
5.80169
 20
4.60991
 30
0.0
 10
5.77789
 20
4.61376
 30
0.0
 10
5.74995
 20
4.62117
 30
0.0
 10
5.74995
 20
4.62117
 30
0.0
 10
5.72207
 20
4.62858
 30
0.0
 10
5.69512
 20
4.6392
 30
0.0
 10
5.66922
 20
4.65302
 30
0.0
 10
5.66922
 20
4.65302
 30
0.0
 10
5.64332
 20
4.66691
 30
0.0
 10
5.62144
 20
4.68161
 30
0.0
 10
5.60371
 20
4.69724
 30
0.0
 10
5.60371
 20
4.69724
 30
0.0
 10
5.60371
 20
4.69724
 30
0.0
 10
5.60371
 20
4.57451
 30
0.0
 10
5.60371
 20
4.57451
 30
0.0
  0
SPLINE
  5
E9
330
1F
100
AcDbEntity
  8
0
100
AcDbSpline
210
0.0
220
0.0
230
1.0
 70
    27
 71
     3
 72
    12
 73
     8
 74
     0
 42
0.0000000001
 43
0.0000000001
 40
0.0
 40
0.0
 40
0.0
 40
0.0
 40
0.3333333333333333
 40
0.3333333333333333
 40
0.3333333333333333
 40
0.3333333333333333
 40
1.0
 40
1.0
 40
1.0
 40
1.0
 10
-13.58542
 20
6.10215
 30
0.0
 10
-13.58542
 20
6.10215
 30
0.0
 10
-13.53462
 20
5.77195
 30
0.0
 10
-13.53462
 20
5.77195
 30
0.0
 10
-13.53462
 20
5.77195
 30
0.0
 10
-13.53462
 20
5.77195
 30
0.0
 10
-13.58542
 20
6.10215
 30
0.0
 10
-13.58542
 20
6.10215
 30
0.0
  0
SPLINE
  5
EA
330
1F
100
AcDbEntity
  8
0
100
AcDbSpline
210
0.0
220
0.0
230
1.0
 70
     8
 71
     3
 72
    12
 73
     8
 74
     0
 42
0.0000000001
 43
0.0000000001
 40
0.0
 40
0.0
 40
0.0
 40
0.0
 40
0.3333333333333333
 40
0.3333333333333333
 40
0.3333333333333333
 40
0.3333333333333333
 40
1.0
 40
1.0
 40
1.0
 40
1.0
 10
-13.53462
 20
5.77195
 30
0.0
 10
-13.53462
 20
5.77195
 30
0.0
 10
-13.63622
 20
5.77195
 30
0.0
 10
-13.63622
 20
5.77195
 30
0.0
 10
-13.63622
 20
5.77195
 30
0.0
 10
-13.63622
 20
5.77195
 30
0.0
 10
-13.58542
 20
6.10215
 30
0.0
 10
-13.58542
 20
6.10215
 30
0.0
  0
SPLINE
  5
EB
330
1F
100
AcDbEntity
  8
0
370
     9
100
AcDbSpline
210
0.0
220
0.0
230
1.0
 70
    24
 71
     3
 72
     8
 73
     4
 74
     0
 42
0.0000000001
 43
0.0000000001
 40
0.0
 40
0.0
 40
0.0
 40
0.0
 40
1.0
 40
1.0
 40
1.0
 40
1.0
 10
-13.58542
 20
6.10215
 30
0.0
 10
-13.58542
 20
6.10215
 30
0.0
 10
-13.53462
 20
5.77195
 30
0.0
 10
-13.53462
 20
5.77195
 30
0.0
  0
SPLINE
  5
EC
330
1F
100
AcDbEntity
  8
0
370
     9
100
AcDbSpline
210
0.0
220
0.0
230
1.0
 70
     8
 71
     3
 72
    12
 73
     8
 74
     0
 42
0.0000000001
 43
0.0000000001
 40
0.0
 40
0.0
 40
0.0
 40
0.0
 40
0.3333333333333333
 40
0.3333333333333333
 40
0.3333333333333333
 40
0.3333333333333333
 40
1.0
 40
1.0
 40
1.0
 40
1.0
 10
-13.53462
 20
5.77195
 30
0.0
 10
-13.53462
 20
5.77195
 30
0.0
 10
-13.63622
 20
5.77195
 30
0.0
 10
-13.63622
 20
5.77195
 30
0.0
 10
-13.63622
 20
5.77195
 30
0.0
 10
-13.63622
 20
5.77195
 30
0.0
 10
-13.58542
 20
6.10215
 30
0.0
 10
-13.58542
 20
6.10215
 30
0.0
  0
SPLINE
  5
ED
330
1F
100
AcDbEntity
  8
0
100
AcDbSpline
210
0.0
220
0.0
230
1.0
 70
    27
 71
     3
 72
    12
 73
     8
 74
     0
 42
0.0000000001
 43
0.0000000001
 40
0.0
 40
0.0
 40
0.0
 40
0.0
 40
0.3333333333333333
 40
0.3333333333333333
 40
0.3333333333333333
 40
0.3333333333333333
 40
1.0
 40
1.0
 40
1.0
 40
1.0
 10
-13.58542
 20
2.70215
 30
0.0
 10
-13.58542
 20
2.70215
 30
0.0
 10
-13.63622
 20
3.03235
 30
0.0
 10
-13.63622
 20
3.03235
 30
0.0
 10
-13.63622
 20
3.03235
 30
0.0
 10
-13.63622
 20
3.03235
 30
0.0
 10
-13.58542
 20
2.70215
 30
0.0
 10
-13.58542
 20
2.70215
 30
0.0
  0
SPLINE
  5
EE
330
1F
100
AcDbEntity
  8
0
100
AcDbSpline
210
0.0
220
0.0
230
1.0
 70
     8
 71
     3
 72
    12
 73
     8
 74
     0
 42
0.0000000001
 43
0.0000000001
 40
0.0
 40
0.0
 40
0.0
 40
0.0
 40
0.3333333333333333
 40
0.3333333333333333
 40
0.3333333333333333
 40
0.3333333333333333
 40
1.0
 40
1.0
 40
1.0
 40
1.0
 10
-13.63622
 20
3.03235
 30
0.0
 10
-13.63622
 20
3.03235
 30
0.0
 10
-13.53462
 20
3.03235
 30
0.0
 10
-13.53462
 20
3.03235
 30
0.0
 10
-13.53462
 20
3.03235
 30
0.0
 10
-13.53462
 20
3.03235
 30
0.0
 10
-13.58542
 20
2.70215
 30
0.0
 10
-13.58542
 20
2.70215
 30
0.0
  0
SPLINE
  5
EF
330
1F
100
AcDbEntity
  8
0
370
     9
100
AcDbSpline
210
0.0
220
0.0
230
1.0
 70
    24
 71
     3
 72
     8
 73
     4
 74
     0
 42
0.0000000001
 43
0.0000000001
 40
0.0
 40
0.0
 40
0.0
 40
0.0
 40
1.0
 40
1.0
 40
1.0
 40
1.0
 10
-13.58542
 20
2.70215
 30
0.0
 10
-13.58542
 20
2.70215
 30
0.0
 10
-13.63622
 20
3.03235
 30
0.0
 10
-13.63622
 20
3.03235
 30
0.0
  0
SPLINE
  5
F0
330
1F
100
AcDbEntity
  8
0
370
     9
100
AcDbSpline
210
0.0
220
0.0
230
1.0
 70
     8
 71
     3
 72
    12
 73
     8
 74
     0
 42
0.0000000001
 43
0.0000000001
 40
0.0
 40
0.0
 40
0.0
 40
0.0
 40
0.3333333333333333
 40
0.3333333333333333
 40
0.3333333333333333
 40
0.3333333333333333
 40
1.0
 40
1.0
 40
1.0
 40
1.0
 10
-13.63622
 20
3.03235
 30
0.0
 10
-13.63622
 20
3.03235
 30
0.0
 10
-13.53462
 20
3.03235
 30
0.0
 10
-13.53462
 20
3.03235
 30
0.0
 10
-13.53462
 20
3.03235
 30
0.0
 10
-13.53462
 20
3.03235
 30
0.0
 10
-13.58542
 20
2.70215
 30
0.0
 10
-13.58542
 20
2.70215
 30
0.0
  0
SPLINE
  5
F1
330
1F
100
AcDbEntity
  8
0
370
     9
100
AcDbSpline
210
0.0
220
0.0
230
1.0
 70
    24
 71
     3
 72
     8
 73
     4
 74
     0
 42
0.0000000001
 43
0.0000000001
 40
0.0
 40
0.0
 40
0.0
 40
0.0
 40
1.0
 40
1.0
 40
1.0
 40
1.0
 10
-12.42762
 20
6.10215
 30
0.0
 10
-12.42762
 20
6.10215
 30
0.0
 10
-13.68542
 20
6.10215
 30
0.0
 10
-13.68542
 20
6.10215
 30
0.0
  0
SPLINE
  5
F2
330
1F
100
AcDbEntity
  8
0
370
     9
100
AcDbSpline
210
0.0
220
0.0
230
1.0
 70
    24
 71
     3
 72
     8
 73
     4
 74
     0
 42
0.0000000001
 43
0.0000000001
 40
0.0
 40
0.0
 40
0.0
 40
0.0
 40
1.0
 40
1.0
 40
1.0
 40
1.0
 10
-12.02762
 20
2.70215
 30
0.0
 10
-12.02762
 20
2.70215
 30
0.0
 10
-13.68542
 20
2.70215
 30
0.0
 10
-13.68542
 20
2.70215
 30
0.0
  0
SPLINE
  5
F3
330
1F
100
AcDbEntity
  8
0
370
     9
100
AcDbSpline
210
0.0
220
0.0
230
1.0
 70
    24
 71
     3
 72
     8
 73
     4
 74
     0
 42
0.0000000001
 43
0.0000000001
 40
0.0
 40
0.0
 40
0.0
 40
0.0
 40
1.0
 40
1.0
 40
1.0
 40
1.0
 10
-13.58542
 20
6.10215
 30
0.0
 10
-13.58542
 20
6.10215
 30
0.0
 10
-13.58542
 20
2.70215
 30
0.0
 10
-13.58542
 20
2.70215
 30
0.0
  0
SPLINE
  5
F4
330
1F
100
AcDbEntity
  8
0
100
AcDbSpline
210
0.0
220
0.0
230
1.0
 70
    11
 71
     3
 72
    40
 73
    36
 74
     0
 42
0.0000000001
 43
0.0000000001
 40
0.0
 40
0.0
 40
0.0
 40
0.0
 40
0.1
 40
0.1
 40
0.1
 40
0.1
 40
0.2
 40
0.2
 40
0.2
 40
0.2
 40
0.3
 40
0.3
 40
0.3
 40
0.3
 40
0.4
 40
0.4
 40
0.4
 40
0.4
 40
0.5
 40
0.5
 40
0.5
 40
0.5
 40
0.6
 40
0.6
 40
0.6
 40
0.6
 40
0.7
 40
0.7
 40
0.7
 40
0.7
 40
0.8
 40
0.8
 40
0.8
 40
0.8
 40
1.0
 40
1.0
 40
1.0
 40
1.0
 10
-13.71972
 20
4.11885
 30
0.0
 10
-13.71972
 20
4.11885
 30
0.0
 10
-13.71972
 20
4.08811
 30
0.0
 10
-13.71972
 20
4.08811
 30
0.0
 10
-13.71972
 20
4.08811
 30
0.0
 10
-13.71972
 20
4.08811
 30
0.0
 10
-13.91572
 20
4.08811
 30
0.0
 10
-13.91572
 20
4.08811
 30
0.0
 10
-13.91572
 20
4.08811
 30
0.0
 10
-13.90866
 20
4.0807
 30
0.0
 10
-13.9016
 20
4.07102
 30
0.0
 10
-13.89454
 20
4.059
 30
0.0
 10
-13.89454
 20
4.059
 30
0.0
 10
-13.88749
 20
4.04693
 30
0.0
 10
-13.88218
 20
4.03614
 30
0.0
 10
-13.87868
 20
4.02657
 30
0.0
 10
-13.87868
 20
4.02657
 30
0.0
 10
-13.87868
 20
4.02657
 30
0.0
 10
-13.90837
 20
4.02657
 30
0.0
 10
-13.90837
 20
4.02657
 30
0.0
 10
-13.90837
 20
4.02657
 30
0.0
 10
-13.91648
 20
4.04378
 30
0.0
 10
-13.92628
 20
4.05883
 30
0.0
 10
-13.93777
 20
4.07172
 30
0.0
 10
-13.93777
 20
4.07172
 30
0.0
 10
-13.94932
 20
4.08455
 30
0.0
 10
-13.96046
 20
4.09371
 30
0.0
 10
-13.97125
 20
4.09908
 30
0.0
 10
-13.97125
 20
4.09908
 30
0.0
 10
-13.97125
 20
4.09908
 30
0.0
 10
-13.97125
 20
4.11885
 30
0.0
 10
-13.97125
 20
4.11885
 30
0.0
 10
-13.97125
 20
4.11885
 30
0.0
 10
-13.97125
 20
4.11885
 30
0.0
 10
-13.71972
 20
4.11885
 30
0.0
 10
-13.71972
 20
4.11885
 30
0.0
  0
SPLINE
  5
F5
330
1F
100
AcDbEntity
  8
0
100
AcDbSpline
210
0.0
220
0.0
230
1.0
 70
    11
 71
     3
 72
    52
 73
    48
 74
     0
 42
0.0000000001
 43
0.0000000001
 40
0.0
 40
0.0
 40
0.0
 40
0.0
 40
0.0769230769230769
 40
0.0769230769230769
 40
0.0769230769230769
 40
0.0769230769230769
 40
0.1538461538461539
 40
0.1538461538461539
 40
0.1538461538461539
 40
0.1538461538461539
 40
0.2307692307692308
 40
0.2307692307692308
 40
0.2307692307692308
 40
0.2307692307692308
 40
0.3076923076923077
 40
0.3076923076923077
 40
0.3076923076923077
 40
0.3076923076923077
 40
0.3846153846153846
 40
0.3846153846153846
 40
0.3846153846153846
 40
0.3846153846153846
 40
0.4615384615384616
 40
0.4615384615384616
 40
0.4615384615384616
 40
0.4615384615384616
 40
0.5384615384615384
 40
0.5384615384615384
 40
0.5384615384615384
 40
0.5384615384615384
 40
0.6153846153846154
 40
0.6153846153846154
 40
0.6153846153846154
 40
0.6153846153846154
 40
0.6923076923076923
 40
0.6923076923076923
 40
0.6923076923076923
 40
0.6923076923076923
 40
0.7692307692307693
 40
0.7692307692307693
 40
0.7692307692307693
 40
0.7692307692307693
 40
0.8461538461538461
 40
0.8461538461538461
 40
0.8461538461538461
 40
0.8461538461538461
 40
1.0
 40
1.0
 40
1.0
 40
1.0
 10
-13.84327
 20
4.19766
 30
0.0
 10
-13.8729
 20
4.19766
 30
0.0
 10
-13.89676
 20
4.2007
 30
0.0
 10
-13.91479
 20
4.20682
 30
0.0
 10
-13.91479
 20
4.20682
 30
0.0
 10
-13.93287
 20
4.21289
 30
0.0
 10
-13.94681
 20
4.22199
 30
0.0
 10
-13.95661
 20
4.23401
 30
0.0
 10
-13.95661
 20
4.23401
 30
0.0
 10
-13.96641
 20
4.24602
 30
0.0
 10
-13.97125
 20
4.26113
 30
0.0
 10
-13.97125
 20
4.27933
 30
0.0
 10
-13.97125
 20
4.27933
 30
0.0
 10
-13.97125
 20
4.29281
 30
0.0
 10
-13.96857
 20
4.30459
 30
0.0
 10
-13.96314
 20
4.31474
 30
0.0
 10
-13.96314
 20
4.31474
 30
0.0
 10
-13.95778
 20
4.32489
 30
0.0
 10
-13.94996
 20
4.33323
 30
0.0
 10
-13.93975
 20
4.33988
 30
0.0
 10
-13.93975
 20
4.33988
 30
0.0
 10
-13.92954
 20
4.34647
 30
0.0
 10
-13.91712
 20
4.35166
 30
0.0
 10
-13.90248
 20
4.3554
 30
0.0
 10
-13.90248
 20
4.3554
 30
0.0
 10
-13.88784
 20
4.35919
 30
0.0
 10
-13.86812
 20
4.36106
 30
0.0
 10
-13.84327
 20
4.36106
 30
0.0
 10
-13.84327
 20
4.36106
 30
0.0
 10
-13.81387
 20
4.36106
 30
0.0
 10
-13.79019
 20
4.35802
 30
0.0
 10
-13.7721
 20
4.35201
 30
0.0
 10
-13.7721
 20
4.35201
 30
0.0
 10
-13.75402
 20
4.34595
 30
0.0
 10
-13.74008
 20
4.33691
 30
0.0
 10
-13.73022
 20
4.32489
 30
0.0
 10
-13.73022
 20
4.32489
 30
0.0
 10
-13.72036
 20
4.31287
 30
0.0
 10
-13.71546
 20
4.29771
 30
0.0
 10
-13.71546
 20
4.27933
 30
0.0
 10
-13.71546
 20
4.27933
 30
0.0
 10
-13.71546
 20
4.25518
 30
0.0
 10
-13.72409
 20
4.23622
 30
0.0
 10
-13.74142
 20
4.22246
 30
0.0
 10
-13.74142
 20
4.22246
 30
0.0
 10
-13.76224
 20
4.20595
 30
0.0
 10
-13.79625
 20
4.19766
 30
0.0
 10
-13.84327
 20
4.19766
 30
0.0
  0
SPLINE
  5
F6
330
1F
100
AcDbEntity
  8
0
100
AcDbSpline
210
0.0
220
0.0
230
1.0
 70
    11
 71
     3
 72
    36
 73
    32
 74
     0
 42
0.0000000001
 43
0.0000000001
 40
0.0
 40
0.0
 40
0.0
 40
0.0
 40
0.1111111111111111
 40
0.1111111111111111
 40
0.1111111111111111
 40
0.1111111111111111
 40
0.2222222222222222
 40
0.2222222222222222
 40
0.2222222222222222
 40
0.2222222222222222
 40
0.3333333333333333
 40
0.3333333333333333
 40
0.3333333333333333
 40
0.3333333333333333
 40
0.4444444444444444
 40
0.4444444444444444
 40
0.4444444444444444
 40
0.4444444444444444
 40
0.5555555555555556
 40
0.5555555555555556
 40
0.5555555555555556
 40
0.5555555555555556
 40
0.6666666666666666
 40
0.6666666666666666
 40
0.6666666666666666
 40
0.6666666666666666
 40
0.7777777777777778
 40
0.7777777777777778
 40
0.7777777777777778
 40
0.7777777777777778
 40
1.0
 40
1.0
 40
1.0
 40
1.0
 10
-13.84327
 20
4.22928
 30
0.0
 10
-13.80214
 20
4.22928
 30
0.0
 10
-13.77479
 20
4.23412
 30
0.0
 10
-13.76114
 20
4.24375
 30
0.0
 10
-13.76114
 20
4.24375
 30
0.0
 10
-13.74754
 20
4.25337
 30
0.0
 10
-13.74072
 20
4.26521
 30
0.0
 10
-13.74072
 20
4.27933
 30
0.0
 10
-13.74072
 20
4.27933
 30
0.0
 10
-13.74072
 20
4.29351
 30
0.0
 10
-13.7476
 20
4.30535
 30
0.0
 10
-13.76125
 20
4.31497
 30
0.0
 10
-13.76125
 20
4.31497
 30
0.0
 10
-13.7749
 20
4.3246
 30
0.0
 10
-13.80226
 20
4.32944
 30
0.0
 10
-13.84327
 20
4.32944
 30
0.0
 10
-13.84327
 20
4.32944
 30
0.0
 10
-13.88451
 20
4.32944
 30
0.0
 10
-13.91193
 20
4.3246
 30
0.0
 10
-13.92546
 20
4.31497
 30
0.0
 10
-13.92546
 20
4.31497
 30
0.0
 10
-13.93905
 20
4.30535
 30
0.0
 10
-13.94582
 20
4.29339
 30
0.0
 10
-13.94582
 20
4.27904
 30
0.0
 10
-13.94582
 20
4.27904
 30
0.0
 10
-13.94582
 20
4.26486
 30
0.0
 10
-13.93981
 20
4.25361
 30
0.0
 10
-13.92785
 20
4.24515
 30
0.0
 10
-13.92785
 20
4.24515
 30
0.0
 10
-13.91263
 20
4.23459
 30
0.0
 10
-13.88439
 20
4.22928
 30
0.0
 10
-13.84327
 20
4.22928
 30
0.0
  0
SPLINE
  5
F7
330
1F
100
AcDbEntity
  8
0
100
AcDbSpline
210
0.0
220
0.0
230
1.0
 70
    11
 71
     3
 72
    92
 73
    88
 74
     0
 42
0.0000000001
 43
0.0000000001
 40
0.0
 40
0.0
 40
0.0
 40
0.0
 40
0.0434782608695652
 40
0.0434782608695652
 40
0.0434782608695652
 40
0.0434782608695652
 40
0.0869565217391304
 40
0.0869565217391304
 40
0.0869565217391304
 40
0.0869565217391304
 40
0.1304347826086956
 40
0.1304347826086956
 40
0.1304347826086956
 40
0.1304347826086956
 40
0.1739130434782609
 40
0.1739130434782609
 40
0.1739130434782609
 40
0.1739130434782609
 40
0.2173913043478261
 40
0.2173913043478261
 40
0.2173913043478261
 40
0.2173913043478261
 40
0.2608695652173913
 40
0.2608695652173913
 40
0.2608695652173913
 40
0.2608695652173913
 40
0.3043478260869565
 40
0.3043478260869565
 40
0.3043478260869565
 40
0.3043478260869565
 40
0.3478260869565217
 40
0.3478260869565217
 40
0.3478260869565217
 40
0.3478260869565217
 40
0.391304347826087
 40
0.391304347826087
 40
0.391304347826087
 40
0.391304347826087
 40
0.4347826086956522
 40
0.4347826086956522
 40
0.4347826086956522
 40
0.4347826086956522
 40
0.4782608695652174
 40
0.4782608695652174
 40
0.4782608695652174
 40
0.4782608695652174
 40
0.5217391304347826
 40
0.5217391304347826
 40
0.5217391304347826
 40
0.5217391304347826
 40
0.5652173913043478
 40
0.5652173913043478
 40
0.5652173913043478
 40
0.5652173913043478
 40
0.6086956521739131
 40
0.6086956521739131
 40
0.6086956521739131
 40
0.6086956521739131
 40
0.6521739130434783
 40
0.6521739130434783
 40
0.6521739130434783
 40
0.6521739130434783
 40
0.6956521739130435
 40
0.6956521739130435
 40
0.6956521739130435
 40
0.6956521739130435
 40
0.7391304347826086
 40
0.7391304347826086
 40
0.7391304347826086
 40
0.7391304347826086
 40
0.782608695652174
 40
0.782608695652174
 40
0.782608695652174
 40
0.782608695652174
 40
0.8260869565217391
 40
0.8260869565217391
 40
0.8260869565217391
 40
0.8260869565217391
 40
0.8695652173913043
 40
0.8695652173913043
 40
0.8695652173913043
 40
0.8695652173913043
 40
0.9130434782608695
 40
0.9130434782608695
 40
0.9130434782608695
 40
0.9130434782608695
 40
1.0
 40
1.0
 40
1.0
 40
1.0
 10
-13.74929
 20
4.55402
 30
0.0
 10
-13.74929
 20
4.55402
 30
0.0
 10
-13.71972
 20
4.55402
 30
0.0
 10
-13.71972
 20
4.55402
 30
0.0
 10
-13.71972
 20
4.55402
 30
0.0
 10
-13.71972
 20
4.55402
 30
0.0
 10
-13.71972
 20
4.38842
 30
0.0
 10
-13.71972
 20
4.38842
 30
0.0
 10
-13.71972
 20
4.38842
 30
0.0
 10
-13.72713
 20
4.38818
 30
0.0
 10
-13.73424
 20
4.38935
 30
0.0
 10
-13.74107
 20
4.39197
 30
0.0
 10
-13.74107
 20
4.39197
 30
0.0
 10
-13.75239
 20
4.39617
 30
0.0
 10
-13.76347
 20
4.40294
 30
0.0
 10
-13.77438
 20
4.41222
 30
0.0
 10
-13.77438
 20
4.41222
 30
0.0
 10
-13.78534
 20
4.42155
 30
0.0
 10
-13.798
 20
4.43497
 30
0.0
 10
-13.81235
 20
4.45247
 30
0.0
 10
-13.81235
 20
4.45247
 30
0.0
 10
-13.83469
 20
4.47971
 30
0.0
 10
-13.85237
 20
4.49814
 30
0.0
 10
-13.86544
 20
4.50771
 30
0.0
 10
-13.86544
 20
4.50771
 30
0.0
 10
-13.87844
 20
4.51727
 30
0.0
 10
-13.89081
 20
4.52206
 30
0.0
 10
-13.90242
 20
4.52206
 30
0.0
 10
-13.90242
 20
4.52206
 30
0.0
 10
-13.91461
 20
4.52206
 30
0.0
 10
-13.92488
 20
4.51768
 30
0.0
 10
-13.93328
 20
4.50899
 30
0.0
 10
-13.93328
 20
4.50899
 30
0.0
 10
-13.94162
 20
4.50024
 30
0.0
 10
-13.94582
 20
4.48887
 30
0.0
 10
-13.94582
 20
4.47487
 30
0.0
 10
-13.94582
 20
4.47487
 30
0.0
 10
-13.94582
 20
4.46005
 30
0.0
 10
-13.94139
 20
4.44821
 30
0.0
 10
-13.93246
 20
4.43934
 30
0.0
 10
-13.93246
 20
4.43934
 30
0.0
 10
-13.92359
 20
4.43042
 30
0.0
 10
-13.91129
 20
4.42592
 30
0.0
 10
-13.89559
 20
4.42581
 30
0.0
 10
-13.89559
 20
4.42581
 30
0.0
 10
-13.89559
 20
4.42581
 30
0.0
 10
-13.8988
 20
4.39419
 30
0.0
 10
-13.8988
 20
4.39419
 30
0.0
 10
-13.8988
 20
4.39419
 30
0.0
 10
-13.92243
 20
4.39635
 30
0.0
 10
-13.94039
 20
4.40452
 30
0.0
 10
-13.95276
 20
4.41863
 30
0.0
 10
-13.95276
 20
4.41863
 30
0.0
 10
-13.96513
 20
4.43275
 30
0.0
 10
-13.97125
 20
4.45177
 30
0.0
 10
-13.97125
 20
4.47557
 30
0.0
 10
-13.97125
 20
4.47557
 30
0.0
 10
-13.97125
 20
4.4996
 30
0.0
 10
-13.9646
 20
4.51862
 30
0.0
 10
-13.9513
 20
4.53262
 30
0.0
 10
-13.9513
 20
4.53262
 30
0.0
 10
-13.93794
 20
4.54667
 30
0.0
 10
-13.92144
 20
4.55367
 30
0.0
 10
-13.90172
 20
4.55367
 30
0.0
 10
-13.90172
 20
4.55367
 30
0.0
 10
-13.89169
 20
4.55367
 30
0.0
 10
-13.88183
 20
4.55163
 30
0.0
 10
-13.87214
 20
4.54749
 30
0.0
 10
-13.87214
 20
4.54749
 30
0.0
 10
-13.86246
 20
4.54341
 30
0.0
 10
-13.85225
 20
4.53658
 30
0.0
 10
-13.84158
 20
4.52707
 30
0.0
 10
-13.84158
 20
4.52707
 30
0.0
 10
-13.83084
 20
4.51757
 30
0.0
 10
-13.81614
 20
4.50176
 30
0.0
 10
-13.79748
 20
4.47965
 30
0.0
 10
-13.79748
 20
4.47965
 30
0.0
 10
-13.78196
 20
4.46122
 30
0.0
 10
-13.77146
 20
4.44937
 30
0.0
 10
-13.76592
 20
4.44412
 30
0.0
 10
-13.76592
 20
4.44412
 30
0.0
 10
-13.76044
 20
4.43887
 30
0.0
 10
-13.75489
 20
4.43456
 30
0.0
 10
-13.74929
 20
4.43112
 30
0.0
 10
-13.74929
 20
4.43112
 30
0.0
 10
-13.74929
 20
4.43112
 30
0.0
 10
-13.74929
 20
4.55402
 30
0.0
 10
-13.74929
 20
4.55402
 30
0.0
  0
ENDSEC
  0
SECTION
  2
OBJECTS
  0
DICTIONARY
  5
C
330
0
100
AcDbDictionary
281
     1
  3
ACAD_GROUP
350
D
  3
ACAD_LAYOUT
350
1A
  3
ACAD_MATERIAL
350
3B
  3
ACAD_MLEADERSTYLE
350
119
  3
ACAD_MLINESTYLE
350
17
  3
ACAD_PLOTSETTINGS
350
19
  3
ACAD_PLOTSTYLENAME
350
E
  3
ACAD_TABLESTYLE
350
118
  3
ACAD_VISUALSTYLE
350
2A
  0
DICTIONARY
  5
D
102
{ACAD_REACTORS
330
C
102
}
330
C
100
AcDbDictionary
281
     1
  0
DICTIONARY
  5
1A
102
{ACAD_REACTORS
330
C
102
}
330
C
100
AcDbDictionary
281
     1
  3
Layout1
350
1E
  3
Layout2
350
26
  3
Model
350
22
  0
DICTIONARY
  5
3B
102
{ACAD_REACTORS
330
C
102
}
330
C
100
AcDbDictionary
281
     1
  3
ByBlock
350
3D
  3
ByLayer
350
3C
  3
Global
350
3E
  0
DICTIONARY
  5
119
102
{ACAD_REACTORS
330
C
102
}
330
C
100
AcDbDictionary
281
     1
  0
DICTIONARY
  5
17
102
{ACAD_REACTORS
330
C
102
}
330
C
100
AcDbDictionary
281
     1
  3
Standard
350
18
  0
DICTIONARY
  5
19
102
{ACAD_REACTORS
330
C
102
}
330
C
100
AcDbDictionary
281
     1
  0
ACDBDICTIONARYWDFLT
  5
E
102
{ACAD_REACTORS
330
C
102
}
330
C
100
AcDbDictionary
281
     1
  3
Normal
350
F
100
AcDbDictionaryWithDefault
340
F
  0
DICTIONARY
  5
118
102
{ACAD_REACTORS
330
C
102
}
330
C
100
AcDbDictionary
281
     1
  0
DICTIONARY
  5
2A
102
{ACAD_REACTORS
330
C
102
}
330
C
100
AcDbDictionary
281
     1
  3
2dWireframe
350
2F
  3
3D Hidden
350
31
  3
3dWireframe
350
30
  3
Basic
350
32
  3
Brighten
350
36
  3
ColorChange
350
3A
  3
Conceptual
350
34
  3
Dim
350
35
  3
Facepattern
350
39
  3
Flat
350
2B
  3
FlatWithEdges
350
2C
  3
Gouraud
350
2D
  3
GouraudWithEdges
350
2E
  3
Linepattern
350
38
  3
Realistic
350
33
  3
Thicken
350
37
  0
LAYOUT
  5
1E
102
{ACAD_REACTORS
330
1A
102
}
330
1A
100
AcDbPlotSettings
  1

  2
none_device
  4

  6

 40
0.0
 41
0.0
 42
0.0
 43
0.0
 44
0.0
 45
0.0
 46
0.0
 47
0.0
 48
0.0
 49
0.0
140
0.0
141
0.0
142
1.0
143
1.0
 70
   688
 72
     0
 73
     0
 74
     5
  7

 75
    16
 76
     0
 77
     2
 78
   300
147
1.0
148
0.0
149
0.0
100
AcDbLayout
  1
Layout1
 70
     1
 71
     1
 10
0.0
 20
0.0
 11
12.0
 21
9.0
 12
0.0
 22
0.0
 32
0.0
 14
1.000000000000000E+20
 24
1.000000000000000E+20
 34
1.000000000000000E+20
 15
-1.000000000000000E+20
 25
-1.000000000000000E+20
 35
-1.000000000000000E+20
146
0.0
 13
0.0
 23
0.0
 33
0.0
 16
1.0
 26
0.0
 36
0.0
 17
0.0
 27
1.0
 37
0.0
 76
     0
330
1B
  0
LAYOUT
  5
26
102
{ACAD_REACTORS
330
1A
102
}
330
1A
100
AcDbPlotSettings
  1

  2
none_device
  4

  6

 40
0.0
 41
0.0
 42
0.0
 43
0.0
 44
0.0
 45
0.0
 46
0.0
 47
0.0
 48
0.0
 49
0.0
140
0.0
141
0.0
142
1.0
143
1.0
 70
   688
 72
     0
 73
     0
 74
     5
  7

 75
    16
 76
     0
 77
     2
 78
   300
147
1.0
148
0.0
149
0.0
100
AcDbLayout
  1
Layout2
 70
     1
 71
     2
 10
0.0
 20
0.0
 11
0.0
 21
0.0
 12
0.0
 22
0.0
 32
0.0
 14
0.0
 24
0.0
 34
0.0
 15
0.0
 25
0.0
 35
0.0
146
0.0
 13
0.0
 23
0.0
 33
0.0
 16
1.0
 26
0.0
 36
0.0
 17
0.0
 27
1.0
 37
0.0
 76
     0
330
23
  0
LAYOUT
  5
22
102
{ACAD_REACTORS
330
1A
102
}
330
1A
100
AcDbPlotSettings
  1

  2
none_device
  4

  6

 40
0.0
 41
0.0
 42
0.0
 43
0.0
 44
0.0
 45
0.0
 46
0.0
 47
0.0
 48
0.0
 49
0.0
140
0.0
141
0.0
142
1.0
143
1.0
 70
  1712
 72
     0
 73
     0
 74
     0
  7

 75
     0
 76
     0
 77
     2
 78
   300
147
1.0
148
0.0
149
0.0
100
AcDbLayout
  1
Model
 70
     1
 71
     0
 10
0.0
 20
0.0
 11
12.0
 21
9.0
 12
0.0
 22
0.0
 32
0.0
 14
-14.03659
 24
1.03925
 34
0.0
 15
15.89656
 25
13.07532
 35
0.0
146
0.0
 13
0.0
 23
0.0
 33
0.0
 16
1.0
 26
0.0
 36
0.0
 17
0.0
 27
1.0
 37
0.0
 76
     0
330
1F
331
29
  0
MATERIAL
  5
3D
102
{ACAD_REACTORS
330
3B
102
}
330
3B
100
AcDbMaterial
  1
ByBlock
 72
     1
 94
      127
  0
MATERIAL
  5
3C
102
{ACAD_REACTORS
330
3B
102
}
330
3B
100
AcDbMaterial
  1
ByLayer
 72
     1
 94
      127
  0
MATERIAL
  5
3E
102
{ACAD_REACTORS
330
3B
102
}
330
3B
100
AcDbMaterial
  1
Global
 72
     1
 94
      127
  0
MLINESTYLE
  5
18
102
{ACAD_REACTORS
330
17
102
}
330
17
100
AcDbMlineStyle
  2
Standard
 70
     0
  3

 62
   256
 51
90.0
 52
90.0
 71
     2
 49
0.5
 62
   256
  6
BYLAYER
 49
-0.5
 62
   256
  6
BYLAYER
  0
ACDBPLACEHOLDER
  5
F
102
{ACAD_REACTORS
330
E
102
}
330
E
  0
VISUALSTYLE
  5
2F
102
{ACAD_REACTORS
330
2A
102
}
102
{ACAD_XDICTIONARY
360
100
102
}
330
2A
100
AcDbVisualStyle
  2
2dWireframe
 70
     4
 71
     0
 72
     2
 73
     0
 90
        0
 40
-0.6
 41
-30.0
 62
     5
 63
     7
421
 16777215
 74
     1
 91
        4
 64
     7
 65
   257
 75
     1
175
     1
 42
1.0
 92
        0
 66
   257
 43
1.0
 76
     1
 77
     6
 78
     2
 67
     7
 79
     5
170
     0
171
     0
290
     0
174
     0
 93
        1
 44
0.0
173
     0
291
     0
 45
0.0
  0
VISUALSTYLE
  5
31
102
{ACAD_REACTORS
330
2A
102
}
102
{ACAD_XDICTIONARY
360
104
102
}
330
2A
100
AcDbVisualStyle
  2
3D Hidden
 70
     6
 71
     1
 72
     2
 73
     2
 90
        0
 40
-0.6
 41
-30.0
 62
     5
 63
     7
421
 16777215
 74
     2
 91
        2
 64
     7
 65
   257
 75
     2
175
     1
 42
40.0
 92
        0
 66
   257
 43
1.0
 76
     1
 77
     6
 78
     2
 67
     7
 79
     3
170
     0
171
     0
290
     0
174
     0
 93
        1
 44
0.0
173
     0
291
     0
 45
0.0
  0
VISUALSTYLE
  5
30
102
{ACAD_REACTORS
330
2A
102
}
102
{ACAD_XDICTIONARY
360
102
102
}
330
2A
100
AcDbVisualStyle
  2
3dWireframe
 70
     5
 71
     0
 72
     2
 73
     0
 90
        0
 40
-0.6
 41
-30.0
 62
     5
 63
     7
421
 16777215
 74
     1
 91
        4
 64
     7
 65
   257
 75
     1
175
     1
 42
1.0
 92
        0
 66
   257
 43
1.0
 76
     1
 77
     6
 78
     2
 67
     7
 79
     5
170
     0
171
     0
290
     0
174
     0
 93
        1
 44
0.0
173
     0
291
     0
 45
0.0
  0
VISUALSTYLE
  5
32
102
{ACAD_REACTORS
330
2A
102
}
102
{ACAD_XDICTIONARY
360
106
102
}
330
2A
100
AcDbVisualStyle
  2
Basic
 70
     7
 71
     1
 72
     0
 73
     1
 90
        0
 40
-0.6
 41
-30.0
 62
     5
 63
     7
421
 16777215
 74
     0
 91
        4
 64
     7
 65
   257
 75
     1
175
     1
 42
1.0
 92
        8
 66
     7
 43
1.0
 76
     1
 77
     6
 78
     2
 67
     7
 79
     5
170
     0
171
     0
290
     0
174
     0
 93
        1
 44
0.0
173
     0
291
     1
 45
0.0
  0
VISUALSTYLE
  5
36
102
{ACAD_REACTORS
330
2A
102
}
102
{ACAD_XDICTIONARY
360
10E
102
}
330
2A
100
AcDbVisualStyle
  2
Brighten
 70
    12
 71
     2
 72
     2
 73
     0
 90
        0
 40
-0.6
 41
-30.0
 62
     5
 63
     7
421
 16777215
 74
     1
 91
        4
 64
     7
 65
   257
 75
     1
175
     1
 42
1.0
 92
        8
 66
     7
 43
1.0
 76
     1
 77
     6
 78
     2
 67
     7
 79
     5
170
     0
171
     0
290
     0
174
     0
 93
        1
 44
50.0
173
     0
291
     1
 45
0.0
  0
VISUALSTYLE
  5
3A
102
{ACAD_REACTORS
330
2A
102
}
102
{ACAD_XDICTIONARY
360
116
102
}
330
2A
100
AcDbVisualStyle
  2
ColorChange
 70
    16
 71
     2
 72
     2
 73
     3
 90
        0
 40
-0.6
 41
-30.0
 62
     5
 63
     8
421
  8421504
 74
     1
 91
        4
 64
     7
 65
   257
 75
     1
175
     1
 42
1.0
 92
        8
 66
     8
424
  8421504
 43
1.0
 76
     1
 77
     6
 78
     2
 67
     7
 79
     5
170
     0
171
     0
290
     0
174
     0
 93
        1
 44
0.0
173
     0
291
     1
 45
0.0
  0
VISUALSTYLE
  5
34
102
{ACAD_REACTORS
330
2A
102
}
102
{ACAD_XDICTIONARY
360
10A
102
}
330
2A
100
AcDbVisualStyle
  2
Conceptual
 70
     9
 71
     3
 72
     2
 73
     0
 90
        0
 40
-0.6
 41
-30.0
 62
     5
 63
     7
421
 16777215
 74
     2
 91
        2
 64
     7
 65
   257
 75
     1
175
     1
 42
40.0
 92
        8
 66
     7
 43
1.0
 76
     1
 77
     6
 78
     2
 67
     7
 79
     3
170
     0
171
     0
290
     0
174
     0
 93
        1
 44
0.0
173
     0
291
     0
 45
0.0
  0
VISUALSTYLE
  5
35
102
{ACAD_REACTORS
330
2A
102
}
102
{ACAD_XDICTIONARY
360
10C
102
}
330
2A
100
AcDbVisualStyle
  2
Dim
 70
    11
 71
     2
 72
     2
 73
     0
 90
        0
 40
-0.6
 41
-30.0
 62
     5
 63
     7
421
 16777215
 74
     1
 91
        4
 64
     7
 65
   257
 75
     1
175
     1
 42
1.0
 92
        8
 66
     7
 43
1.0
 76
     1
 77
     6
 78
     2
 67
     7
 79
     5
170
     0
171
     0
290
     0
174
     0
 93
        1
 44
-50.0
173
     0
291
     1
 45
0.0
  0
VISUALSTYLE
  5
39
102
{ACAD_REACTORS
330
2A
102
}
102
{ACAD_XDICTIONARY
360
114
102
}
330
2A
100
AcDbVisualStyle
  2
Facepattern
 70
    15
 71
     2
 72
     2
 73
     0
 90
        0
 40
-0.6
 41
-30.0
 62
     5
 63
     7
421
 16777215
 74
     1
 91
        4
 64
     7
 65
   257
 75
     1
175
     1
 42
1.0
 92
        8
 66
     7
 43
1.0
 76
     1
 77
     6
 78
     2
 67
     7
 79
     5
170
     0
171
     0
290
     0
174
     0
 93
        1
 44
0.0
173
     0
291
     1
 45
0.0
  0
VISUALSTYLE
  5
2B
102
{ACAD_REACTORS
330
2A
102
}
102
{ACAD_XDICTIONARY
360
F8
102
}
330
2A
100
AcDbVisualStyle
  2
Flat
 70
     0
 71
     2
 72
     1
 73
     1
 90
        2
 40
-0.6
 41
30.0
 62
     5
 63
     7
421
 16777215
 74
     0
 91
        4
 64
     7
 65
   257
 75
     1
175
     1
 42
1.0
 92
        8
 66
     7
 43
1.0
 76
     1
 77
     6
 78
     2
 67
     7
 79
     5
170
     0
171
     0
290
     0
174
     0
 93
       13
 44
0.0
173
     0
291
     1
 45
0.0
  0
VISUALSTYLE
  5
2C
102
{ACAD_REACTORS
330
2A
102
}
102
{ACAD_XDICTIONARY
360
FA
102
}
330
2A
100
AcDbVisualStyle
  2
FlatWithEdges
 70
     1
 71
     2
 72
     1
 73
     1
 90
        2
 40
-0.6
 41
30.0
 62
     5
 63
     7
421
 16777215
 74
     1
 91
        4
 64
     7
 65
   257
 75
     1
175
     1
 42
1.0
 92
        0
 66
   257
 43
1.0
 76
     1
 77
     6
 78
     2
 67
     7
 79
     5
170
     0
171
     0
290
     0
174
     0
 93
       13
 44
0.0
173
     0
291
     1
 45
0.0
  0
VISUALSTYLE
  5
2D
102
{ACAD_REACTORS
330
2A
102
}
102
{ACAD_XDICTIONARY
360
FC
102
}
330
2A
100
AcDbVisualStyle
  2
Gouraud
 70
     2
 71
     2
 72
     2
 73
     1
 90
        2
 40
-0.6
 41
30.0
 62
     5
 63
     7
421
 16777215
 74
     0
 91
        4
 64
     7
 65
   257
 75
     1
175
     1
 42
1.0
 92
        0
 66
     7
 43
1.0
 76
     1
 77
     6
 78
     2
 67
     7
 79
     5
170
     0
171
     0
290
     0
174
     0
 93
       13
 44
0.0
173
     0
291
     1
 45
0.0
  0
VISUALSTYLE
  5
2E
102
{ACAD_REACTORS
330
2A
102
}
102
{ACAD_XDICTIONARY
360
FE
102
}
330
2A
100
AcDbVisualStyle
  2
GouraudWithEdges
 70
     3
 71
     2
 72
     2
 73
     1
 90
        2
 40
-0.6
 41
30.0
 62
     5
 63
     7
421
 16777215
 74
     1
 91
        4
 64
     7
 65
   257
 75
     1
175
     1
 42
1.0
 92
        0
 66
   257
 43
1.0
 76
     1
 77
     6
 78
     2
 67
     7
 79
     5
170
     0
171
     0
290
     0
174
     0
 93
       13
 44
0.0
173
     0
291
     1
 45
0.0
  0
VISUALSTYLE
  5
38
102
{ACAD_REACTORS
330
2A
102
}
102
{ACAD_XDICTIONARY
360
112
102
}
330
2A
100
AcDbVisualStyle
  2
Linepattern
 70
    14
 71
     2
 72
     2
 73
     0
 90
        0
 40
-0.6
 41
-30.0
 62
     5
 63
     7
421
 16777215
 74
     1
 91
        4
 64
     7
 65
   257
 75
     7
175
     7
 42
1.0
 92
        8
 66
     7
 43
1.0
 76
     1
 77
     6
 78
     2
 67
     7
 79
     5
170
     0
171
     0
290
     0
174
     0
 93
        1
 44
0.0
173
     0
291
     1
 45
0.0
  0
VISUALSTYLE
  5
33
102
{ACAD_REACTORS
330
2A
102
}
102
{ACAD_XDICTIONARY
360
108
102
}
330
2A
100
AcDbVisualStyle
  2
Realistic
 70
     8
 71
     2
 72
     2
 73
     0
 90
        0
 40
-0.6
 41
-30.0
 62
     5
 63
     7
421
 16777215
 74
     1
 91
        0
 64
     7
 65
   257
 75
     1
175
     1
 42
1.0
 92
        8
 66
     8
424
  7895160
 43
1.0
 76
     1
 77
     6
 78
     2
 67
     7
 79
     5
170
     0
171
     0
290
     0
174
     0
 93
       13
 44
0.0
173
     0
291
     0
 45
0.0
  0
VISUALSTYLE
  5
37
102
{ACAD_REACTORS
330
2A
102
}
102
{ACAD_XDICTIONARY
360
110
102
}
330
2A
100
AcDbVisualStyle
  2
Thicken
 70
    13
 71
     2
 72
     2
 73
     0
 90
        0
 40
-0.6
 41
-30.0
 62
     5
 63
     7
421
 16777215
 74
     1
 91
        4
 64
     7
 65
   257
 75
     1
175
     1
 42
1.0
 92
       12
 66
     7
 43
1.0
 76
     1
 77
     6
 78
     2
 67
     7
 79
     5
170
     0
171
     0
290
     0
174
     0
 93
        1
 44
0.0
173
     0
291
     1
 45
0.0
  0
DICTIONARY
  5
100
330
2F
100
AcDbDictionary
280
     1
281
     1
  3
ACAD_XREC_ROUNDTRIP
360
101
  0
DICTIONARY
  5
104
330
31
100
AcDbDictionary
280
     1
281
     1
  3
ACAD_XREC_ROUNDTRIP
360
105
  0
DICTIONARY
  5
102
330
30
100
AcDbDictionary
280
     1
281
     1
  3
ACAD_XREC_ROUNDTRIP
360
103
  0
DICTIONARY
  5
106
330
32
100
AcDbDictionary
280
     1
281
     1
  3
ACAD_XREC_ROUNDTRIP
360
107
  0
DICTIONARY
  5
10E
330
36
100
AcDbDictionary
280
     1
281
     1
  3
ACAD_XREC_ROUNDTRIP
360
10F
  0
DICTIONARY
  5
116
330
3A
100
AcDbDictionary
280
     1
281
     1
  3
ACAD_XREC_ROUNDTRIP
360
117
  0
DICTIONARY
  5
10A
330
34
100
AcDbDictionary
280
     1
281
     1
  3
ACAD_XREC_ROUNDTRIP
360
10B
  0
DICTIONARY
  5
10C
330
35
100
AcDbDictionary
280
     1
281
     1
  3
ACAD_XREC_ROUNDTRIP
360
10D
  0
DICTIONARY
  5
114
330
39
100
AcDbDictionary
280
     1
281
     1
  3
ACAD_XREC_ROUNDTRIP
360
115
  0
DICTIONARY
  5
F8
330
2B
100
AcDbDictionary
280
     1
281
     1
  3
ACAD_XREC_ROUNDTRIP
360
F9
  0
DICTIONARY
  5
FA
330
2C
100
AcDbDictionary
280
     1
281
     1
  3
ACAD_XREC_ROUNDTRIP
360
FB
  0
DICTIONARY
  5
FC
330
2D
100
AcDbDictionary
280
     1
281
     1
  3
ACAD_XREC_ROUNDTRIP
360
FD
  0
DICTIONARY
  5
FE
330
2E
100
AcDbDictionary
280
     1
281
     1
  3
ACAD_XREC_ROUNDTRIP
360
FF
  0
DICTIONARY
  5
112
330
38
100
AcDbDictionary
280
     1
281
     1
  3
ACAD_XREC_ROUNDTRIP
360
113
  0
DICTIONARY
  5
108
330
33
100
AcDbDictionary
280
     1
281
     1
  3
ACAD_XREC_ROUNDTRIP
360
109
  0
DICTIONARY
  5
110
330
37
100
AcDbDictionary
280
     1
281
     1
  3
ACAD_XREC_ROUNDTRIP
360
111
  0
XRECORD
  5
101
102
{ACAD_REACTORS
330
100
102
}
330
100
100
AcDbXrecord
280
     1
102
RTVSPropertyOp0
 70
     1
102
RTVSPropertyOp1
 70
     1
102
RTVSPropertyOp2
 70
     1
102
RTVSPropertyOp3
 70
     1
102
RTVSPropertyOp4
 70
     1
102
RTVSPropertyOp5
 70
     1
102
RTVSPropertyOp6
 70
     1
102
RTVSPropertyOp7
 70
     1
102
RTVSPropertyOp8
 70
     1
102
RTVSPropertyOp9
 70
     1
102
RTVSPropertyOp10
 70
     1
102
RTVSPropertyOp11
 70
     1
102
RTVSPropertyOp12
 70
     1
102
RTVSPropertyOp13
 70
     1
102
RTVSPropertyOp14
 70
     1
102
RTVSPropertyOp15
 70
     1
102
RTVSPropertyOp16
 70
     1
102
RTVSPropertyOp17
 70
     1
102
RTVSPropertyOp18
 70
     1
102
RTVSPropertyOp19
 70
     1
102
RTVSPropertyOp20
 70
     1
102
RTVSPropertyOp21
 70
     1
102
RTVSPropertyOp22
 70
     1
102
RTVSPropertyOp23
 70
     1
102
RTVSPropertyOp24
 70
     1
102
RTVSPropertyOp25
 70
     1
102
RTVSPropertyOp26
 70
     1
102
RTVSPropertyOp27
 70
     1
  0
XRECORD
  5
105
102
{ACAD_REACTORS
330
104
102
}
330
104
100
AcDbXrecord
280
     1
102
RTVSPropertyOp0
 70
     1
102
RTVSPropertyOp1
 70
     1
102
RTVSPropertyOp2
 70
     1
102
RTVSPropertyOp3
 70
     1
102
RTVSPropertyOp4
 70
     1
102
RTVSPropertyOp5
 70
     1
102
RTVSPropertyOp6
 70
     1
102
RTVSPropertyOp7
 70
     1
102
RTVSPropertyOp8
 70
     1
102
RTVSPropertyOp9
 70
     1
102
RTVSPropertyOp10
 70
     1
102
RTVSPropertyOp11
 70
     1
102
RTVSPropertyOp12
 70
     1
102
RTVSPropertyOp13
 70
     1
102
RTVSPropertyOp14
 70
     1
102
RTVSPropertyOp15
 70
     1
102
RTVSPropertyOp16
 70
     1
102
RTVSPropertyOp17
 70
     1
102
RTVSPropertyOp18
 70
     1
102
RTVSPropertyOp19
 70
     1
102
RTVSPropertyOp20
 70
     1
102
RTVSPropertyOp21
 70
     1
102
RTVSPropertyOp22
 70
     1
102
RTVSPropertyOp23
 70
     1
102
RTVSPropertyOp24
 70
     1
102
RTVSPropertyOp25
 70
     1
102
RTVSPropertyOp26
 70
     1
102
RTVSPropertyOp27
 70
     1
  0
XRECORD
  5
103
102
{ACAD_REACTORS
330
102
102
}
330
102
100
AcDbXrecord
280
     1
102
RTVSPropertyOp0
 70
     1
102
RTVSPropertyOp1
 70
     1
102
RTVSPropertyOp2
 70
     1
102
RTVSPropertyOp3
 70
     1
102
RTVSPropertyOp4
 70
     1
102
RTVSPropertyOp5
 70
     1
102
RTVSPropertyOp6
 70
     1
102
RTVSPropertyOp7
 70
     1
102
RTVSPropertyOp8
 70
     1
102
RTVSPropertyOp9
 70
     1
102
RTVSPropertyOp10
 70
     1
102
RTVSPropertyOp11
 70
     1
102
RTVSPropertyOp12
 70
     1
102
RTVSPropertyOp13
 70
     1
102
RTVSPropertyOp14
 70
     1
102
RTVSPropertyOp15
 70
     1
102
RTVSPropertyOp16
 70
     1
102
RTVSPropertyOp17
 70
     1
102
RTVSPropertyOp18
 70
     1
102
RTVSPropertyOp19
 70
     1
102
RTVSPropertyOp20
 70
     1
102
RTVSPropertyOp21
 70
     1
102
RTVSPropertyOp22
 70
     1
102
RTVSPropertyOp23
 70
     1
102
RTVSPropertyOp24
 70
     1
102
RTVSPropertyOp25
 70
     1
102
RTVSPropertyOp26
 70
     1
102
RTVSPropertyOp27
 70
     1
  0
XRECORD
  5
107
102
{ACAD_REACTORS
330
106
102
}
330
106
100
AcDbXrecord
280
     1
102
RTVSPropertyOp0
 70
     1
102
RTVSPropertyOp1
 70
     1
102
RTVSPropertyOp2
 70
     1
102
RTVSPropertyOp3
 70
     1
102
RTVSPropertyOp4
 70
     1
102
RTVSPropertyOp5
 70
     1
102
RTVSPropertyOp6
 70
     1
102
RTVSPropertyOp7
 70
     1
102
RTVSPropertyOp8
 70
     1
102
RTVSPropertyOp9
 70
     1
102
RTVSPropertyOp10
 70
     1
102
RTVSPropertyOp11
 70
     1
102
RTVSPropertyOp12
 70
     1
102
RTVSPropertyOp13
 70
     1
102
RTVSPropertyOp14
 70
     1
102
RTVSPropertyOp15
 70
     1
102
RTVSPropertyOp16
 70
     1
102
RTVSPropertyOp17
 70
     1
102
RTVSPropertyOp18
 70
     1
102
RTVSPropertyOp19
 70
     1
102
RTVSPropertyOp20
 70
     1
102
RTVSPropertyOp21
 70
     1
102
RTVSPropertyOp22
 70
     1
102
RTVSPropertyOp23
 70
     1
102
RTVSPropertyOp24
 70
     1
102
RTVSPropertyOp25
 70
     1
102
RTVSPropertyOp26
 70
     1
102
RTVSPropertyOp27
 70
     1
  0
XRECORD
  5
10F
102
{ACAD_REACTORS
330
10E
102
}
330
10E
100
AcDbXrecord
280
     1
102
RTVSPropertyOp0
 70
     1
102
RTVSPropertyOp1
 70
     1
102
RTVSPropertyOp2
 70
     1
102
RTVSPropertyOp3
 70
     1
102
RTVSPropertyOp4
 70
     1
102
RTVSPropertyOp5
 70
     1
102
RTVSPropertyOp6
 70
     1
102
RTVSPropertyOp7
 70
     1
102
RTVSPropertyOp8
 70
     1
102
RTVSPropertyOp9
 70
     1
102
RTVSPropertyOp10
 70
     1
102
RTVSPropertyOp11
 70
     1
102
RTVSPropertyOp12
 70
     1
102
RTVSPropertyOp13
 70
     1
102
RTVSPropertyOp14
 70
     1
102
RTVSPropertyOp15
 70
     1
102
RTVSPropertyOp16
 70
     1
102
RTVSPropertyOp17
 70
     1
102
RTVSPropertyOp18
 70
     1
102
RTVSPropertyOp19
 70
     1
102
RTVSPropertyOp20
 70
     1
102
RTVSPropertyOp21
 70
     1
102
RTVSPropertyOp22
 70
     1
102
RTVSPropertyOp23
 70
     1
102
RTVSPropertyOp24
 70
     1
102
RTVSPropertyOp25
 70
     1
102
RTVSPropertyOp26
 70
     1
102
RTVSPropertyOp27
 70
     1
  0
XRECORD
  5
117
102
{ACAD_REACTORS
330
116
102
}
330
116
100
AcDbXrecord
280
     1
102
RTVSPropertyOp0
 70
     1
102
RTVSPropertyOp1
 70
     1
102
RTVSPropertyOp2
 70
     1
102
RTVSPropertyOp3
 70
     1
102
RTVSPropertyOp4
 70
     1
102
RTVSPropertyOp5
 70
     1
102
RTVSPropertyOp6
 70
     1
102
RTVSPropertyOp7
 70
     1
102
RTVSPropertyOp8
 70
     1
102
RTVSPropertyOp9
 70
     1
102
RTVSPropertyOp10
 70
     1
102
RTVSPropertyOp11
 70
     1
102
RTVSPropertyOp12
 70
     1
102
RTVSPropertyOp13
 70
     1
102
RTVSPropertyOp14
 70
     1
102
RTVSPropertyOp15
 70
     1
102
RTVSPropertyOp16
 70
     1
102
RTVSPropertyOp17
 70
     1
102
RTVSPropertyOp18
 70
     1
102
RTVSPropertyOp19
 70
     1
102
RTVSPropertyOp20
 70
     1
102
RTVSPropertyOp21
 70
     1
102
RTVSPropertyOp22
 70
     1
102
RTVSPropertyOp23
 70
     1
102
RTVSPropertyOp24
 70
     1
102
RTVSPropertyOp25
 70
     1
102
RTVSPropertyOp26
 70
     1
102
RTVSPropertyOp27
 70
     1
  0
XRECORD
  5
10B
102
{ACAD_REACTORS
330
10A
102
}
330
10A
100
AcDbXrecord
280
     1
102
RTVSPropertyOp0
 70
     1
102
RTVSPropertyOp1
 70
     1
102
RTVSPropertyOp2
 70
     1
102
RTVSPropertyOp3
 70
     1
102
RTVSPropertyOp4
 70
     1
102
RTVSPropertyOp5
 70
     1
102
RTVSPropertyOp6
 70
     1
102
RTVSPropertyOp7
 70
     1
102
RTVSPropertyOp8
 70
     1
102
RTVSPropertyOp9
 70
     1
102
RTVSPropertyOp10
 70
     1
102
RTVSPropertyOp11
 70
     1
102
RTVSPropertyOp12
 70
     1
102
RTVSPropertyOp13
 70
     1
102
RTVSPropertyOp14
 70
     1
102
RTVSPropertyOp15
 70
     1
102
RTVSPropertyOp16
 70
     1
102
RTVSPropertyOp17
 70
     1
102
RTVSPropertyOp18
 70
     1
102
RTVSPropertyOp19
 70
     1
102
RTVSPropertyOp20
 70
     1
102
RTVSPropertyOp21
 70
     1
102
RTVSPropertyOp22
 70
     1
102
RTVSPropertyOp23
 70
     1
102
RTVSPropertyOp24
 70
     1
102
RTVSPropertyOp25
 70
     1
102
RTVSPropertyOp26
 70
     1
102
RTVSPropertyOp27
 70
     1
  0
XRECORD
  5
10D
102
{ACAD_REACTORS
330
10C
102
}
330
10C
100
AcDbXrecord
280
     1
102
RTVSPropertyOp0
 70
     1
102
RTVSPropertyOp1
 70
     1
102
RTVSPropertyOp2
 70
     1
102
RTVSPropertyOp3
 70
     1
102
RTVSPropertyOp4
 70
     1
102
RTVSPropertyOp5
 70
     1
102
RTVSPropertyOp6
 70
     1
102
RTVSPropertyOp7
 70
     1
102
RTVSPropertyOp8
 70
     1
102
RTVSPropertyOp9
 70
     1
102
RTVSPropertyOp10
 70
     1
102
RTVSPropertyOp11
 70
     1
102
RTVSPropertyOp12
 70
     1
102
RTVSPropertyOp13
 70
     1
102
RTVSPropertyOp14
 70
     1
102
RTVSPropertyOp15
 70
     1
102
RTVSPropertyOp16
 70
     1
102
RTVSPropertyOp17
 70
     1
102
RTVSPropertyOp18
 70
     1
102
RTVSPropertyOp19
 70
     1
102
RTVSPropertyOp20
 70
     1
102
RTVSPropertyOp21
 70
     1
102
RTVSPropertyOp22
 70
     1
102
RTVSPropertyOp23
 70
     1
102
RTVSPropertyOp24
 70
     1
102
RTVSPropertyOp25
 70
     1
102
RTVSPropertyOp26
 70
     1
102
RTVSPropertyOp27
 70
     1
  0
XRECORD
  5
115
102
{ACAD_REACTORS
330
114
102
}
330
114
100
AcDbXrecord
280
     1
102
RTVSPropertyOp0
 70
     1
102
RTVSPropertyOp1
 70
     1
102
RTVSPropertyOp2
 70
     1
102
RTVSPropertyOp3
 70
     1
102
RTVSPropertyOp4
 70
     1
102
RTVSPropertyOp5
 70
     1
102
RTVSPropertyOp6
 70
     1
102
RTVSPropertyOp7
 70
     1
102
RTVSPropertyOp8
 70
     1
102
RTVSPropertyOp9
 70
     1
102
RTVSPropertyOp10
 70
     1
102
RTVSPropertyOp11
 70
     1
102
RTVSPropertyOp12
 70
     1
102
RTVSPropertyOp13
 70
     1
102
RTVSPropertyOp14
 70
     1
102
RTVSPropertyOp15
 70
     1
102
RTVSPropertyOp16
 70
     1
102
RTVSPropertyOp17
 70
     1
102
RTVSPropertyOp18
 70
     1
102
RTVSPropertyOp19
 70
     1
102
RTVSPropertyOp20
 70
     1
102
RTVSPropertyOp21
 70
     1
102
RTVSPropertyOp22
 70
     1
102
RTVSPropertyOp23
 70
     1
102
RTVSPropertyOp24
 70
     1
102
RTVSPropertyOp25
 70
     1
102
RTVSPropertyOp26
 70
     1
102
RTVSPropertyOp27
 70
     1
  0
XRECORD
  5
F9
102
{ACAD_REACTORS
330
F8
102
}
330
F8
100
AcDbXrecord
280
     1
102
RTVSPropertyOp0
 70
     1
102
RTVSPropertyOp1
 70
     1
102
RTVSPropertyOp2
 70
     1
102
RTVSPropertyOp3
 70
     1
102
RTVSPropertyOp4
 70
     1
102
RTVSPropertyOp5
 70
     1
102
RTVSPropertyOp6
 70
     1
102
RTVSPropertyOp7
 70
     1
102
RTVSPropertyOp8
 70
     1
102
RTVSPropertyOp9
 70
     1
102
RTVSPropertyOp10
 70
     1
102
RTVSPropertyOp11
 70
     1
102
RTVSPropertyOp12
 70
     1
102
RTVSPropertyOp13
 70
     1
102
RTVSPropertyOp14
 70
     1
102
RTVSPropertyOp15
 70
     1
102
RTVSPropertyOp16
 70
     1
102
RTVSPropertyOp17
 70
     1
102
RTVSPropertyOp18
 70
     1
102
RTVSPropertyOp19
 70
     1
102
RTVSPropertyOp20
 70
     1
102
RTVSPropertyOp21
 70
     1
102
RTVSPropertyOp22
 70
     1
102
RTVSPropertyOp23
 70
     1
102
RTVSPropertyOp24
 70
     1
102
RTVSPropertyOp25
 70
     1
102
RTVSPropertyOp26
 70
     1
102
RTVSPropertyOp27
 70
     1
  0
XRECORD
  5
FB
102
{ACAD_REACTORS
330
FA
102
}
330
FA
100
AcDbXrecord
280
     1
102
RTVSPropertyOp0
 70
     1
102
RTVSPropertyOp1
 70
     1
102
RTVSPropertyOp2
 70
     1
102
RTVSPropertyOp3
 70
     1
102
RTVSPropertyOp4
 70
     1
102
RTVSPropertyOp5
 70
     1
102
RTVSPropertyOp6
 70
     1
102
RTVSPropertyOp7
 70
     1
102
RTVSPropertyOp8
 70
     1
102
RTVSPropertyOp9
 70
     1
102
RTVSPropertyOp10
 70
     1
102
RTVSPropertyOp11
 70
     1
102
RTVSPropertyOp12
 70
     1
102
RTVSPropertyOp13
 70
     1
102
RTVSPropertyOp14
 70
     1
102
RTVSPropertyOp15
 70
     1
102
RTVSPropertyOp16
 70
     1
102
RTVSPropertyOp17
 70
     1
102
RTVSPropertyOp18
 70
     1
102
RTVSPropertyOp19
 70
     1
102
RTVSPropertyOp20
 70
     1
102
RTVSPropertyOp21
 70
     1
102
RTVSPropertyOp22
 70
     1
102
RTVSPropertyOp23
 70
     1
102
RTVSPropertyOp24
 70
     1
102
RTVSPropertyOp25
 70
     1
102
RTVSPropertyOp26
 70
     1
102
RTVSPropertyOp27
 70
     1
  0
XRECORD
  5
FD
102
{ACAD_REACTORS
330
FC
102
}
330
FC
100
AcDbXrecord
280
     1
102
RTVSPropertyOp0
 70
     1
102
RTVSPropertyOp1
 70
     1
102
RTVSPropertyOp2
 70
     1
102
RTVSPropertyOp3
 70
     1
102
RTVSPropertyOp4
 70
     1
102
RTVSPropertyOp5
 70
     1
102
RTVSPropertyOp6
 70
     1
102
RTVSPropertyOp7
 70
     1
102
RTVSPropertyOp8
 70
     1
102
RTVSPropertyOp9
 70
     1
102
RTVSPropertyOp10
 70
     1
102
RTVSPropertyOp11
 70
     1
102
RTVSPropertyOp12
 70
     1
102
RTVSPropertyOp13
 70
     1
102
RTVSPropertyOp14
 70
     1
102
RTVSPropertyOp15
 70
     1
102
RTVSPropertyOp16
 70
     1
102
RTVSPropertyOp17
 70
     1
102
RTVSPropertyOp18
 70
     1
102
RTVSPropertyOp19
 70
     1
102
RTVSPropertyOp20
 70
     1
102
RTVSPropertyOp21
 70
     1
102
RTVSPropertyOp22
 70
     1
102
RTVSPropertyOp23
 70
     1
102
RTVSPropertyOp24
 70
     1
102
RTVSPropertyOp25
 70
     1
102
RTVSPropertyOp26
 70
     1
102
RTVSPropertyOp27
 70
     1
  0
XRECORD
  5
FF
102
{ACAD_REACTORS
330
FE
102
}
330
FE
100
AcDbXrecord
280
     1
102
RTVSPropertyOp0
 70
     1
102
RTVSPropertyOp1
 70
     1
102
RTVSPropertyOp2
 70
     1
102
RTVSPropertyOp3
 70
     1
102
RTVSPropertyOp4
 70
     1
102
RTVSPropertyOp5
 70
     1
102
RTVSPropertyOp6
 70
     1
102
RTVSPropertyOp7
 70
     1
102
RTVSPropertyOp8
 70
     1
102
RTVSPropertyOp9
 70
     1
102
RTVSPropertyOp10
 70
     1
102
RTVSPropertyOp11
 70
     1
102
RTVSPropertyOp12
 70
     1
102
RTVSPropertyOp13
 70
     1
102
RTVSPropertyOp14
 70
     1
102
RTVSPropertyOp15
 70
     1
102
RTVSPropertyOp16
 70
     1
102
RTVSPropertyOp17
 70
     1
102
RTVSPropertyOp18
 70
     1
102
RTVSPropertyOp19
 70
     1
102
RTVSPropertyOp20
 70
     1
102
RTVSPropertyOp21
 70
     1
102
RTVSPropertyOp22
 70
     1
102
RTVSPropertyOp23
 70
     1
102
RTVSPropertyOp24
 70
     1
102
RTVSPropertyOp25
 70
     1
102
RTVSPropertyOp26
 70
     1
102
RTVSPropertyOp27
 70
     1
  0
XRECORD
  5
113
102
{ACAD_REACTORS
330
112
102
}
330
112
100
AcDbXrecord
280
     1
102
RTVSPropertyOp0
 70
     1
102
RTVSPropertyOp1
 70
     1
102
RTVSPropertyOp2
 70
     1
102
RTVSPropertyOp3
 70
     1
102
RTVSPropertyOp4
 70
     1
102
RTVSPropertyOp5
 70
     1
102
RTVSPropertyOp6
 70
     1
102
RTVSPropertyOp7
 70
     1
102
RTVSPropertyOp8
 70
     1
102
RTVSPropertyOp9
 70
     1
102
RTVSPropertyOp10
 70
     1
102
RTVSPropertyOp11
 70
     1
102
RTVSPropertyOp12
 70
     1
102
RTVSPropertyOp13
 70
     1
102
RTVSPropertyOp14
 70
     1
102
RTVSPropertyOp15
 70
     1
102
RTVSPropertyOp16
 70
     1
102
RTVSPropertyOp17
 70
     1
102
RTVSPropertyOp18
 70
     1
102
RTVSPropertyOp19
 70
     1
102
RTVSPropertyOp20
 70
     1
102
RTVSPropertyOp21
 70
     1
102
RTVSPropertyOp22
 70
     1
102
RTVSPropertyOp23
 70
     1
102
RTVSPropertyOp24
 70
     1
102
RTVSPropertyOp25
 70
     1
102
RTVSPropertyOp26
 70
     1
102
RTVSPropertyOp27
 70
     1
  0
XRECORD
  5
109
102
{ACAD_REACTORS
330
108
102
}
330
108
100
AcDbXrecord
280
     1
102
RTVSPropertyOp0
 70
     1
102
RTVSPropertyOp1
 70
     1
102
RTVSPropertyOp2
 70
     1
102
RTVSPropertyOp3
 70
     1
102
RTVSPropertyOp4
 70
     1
102
RTVSPropertyOp5
 70
     1
102
RTVSPropertyOp6
 70
     1
102
RTVSPropertyOp7
 70
     1
102
RTVSPropertyOp8
 70
     1
102
RTVSPropertyOp9
 70
     1
102
RTVSPropertyOp10
 70
     1
102
RTVSPropertyOp11
 70
     1
102
RTVSPropertyOp12
 70
     1
102
RTVSPropertyOp13
 70
     1
102
RTVSPropertyOp14
 70
     1
102
RTVSPropertyOp15
 70
     1
102
RTVSPropertyOp16
 70
     1
102
RTVSPropertyOp17
 70
     1
102
RTVSPropertyOp18
 70
     1
102
RTVSPropertyOp19
 70
     1
102
RTVSPropertyOp20
 70
     1
102
RTVSPropertyOp21
 70
     1
102
RTVSPropertyOp22
 70
     1
102
RTVSPropertyOp23
 70
     1
102
RTVSPropertyOp24
 70
     1
102
RTVSPropertyOp25
 70
     1
102
RTVSPropertyOp26
 70
     1
102
RTVSPropertyOp27
 70
     1
  0
XRECORD
  5
111
102
{ACAD_REACTORS
330
110
102
}
330
110
100
AcDbXrecord
280
     1
102
RTVSPropertyOp0
 70
     1
102
RTVSPropertyOp1
 70
     1
102
RTVSPropertyOp2
 70
     1
102
RTVSPropertyOp3
 70
     1
102
RTVSPropertyOp4
 70
     1
102
RTVSPropertyOp5
 70
     1
102
RTVSPropertyOp6
 70
     1
102
RTVSPropertyOp7
 70
     1
102
RTVSPropertyOp8
 70
     1
102
RTVSPropertyOp9
 70
     1
102
RTVSPropertyOp10
 70
     1
102
RTVSPropertyOp11
 70
     1
102
RTVSPropertyOp12
 70
     1
102
RTVSPropertyOp13
 70
     1
102
RTVSPropertyOp14
 70
     1
102
RTVSPropertyOp15
 70
     1
102
RTVSPropertyOp16
 70
     1
102
RTVSPropertyOp17
 70
     1
102
RTVSPropertyOp18
 70
     1
102
RTVSPropertyOp19
 70
     1
102
RTVSPropertyOp20
 70
     1
102
RTVSPropertyOp21
 70
     1
102
RTVSPropertyOp22
 70
     1
102
RTVSPropertyOp23
 70
     1
102
RTVSPropertyOp24
 70
     1
102
RTVSPropertyOp25
 70
     1
102
RTVSPropertyOp26
 70
     1
102
RTVSPropertyOp27
 70
     1
  0
ENDSEC
  0
EOF
