  0
SECTION
  2
HEADER
  9
$ACADVER
  1
AC1021
  9
$ACADMAINTVER
 70
    25
  9
$DWGCODEPAGE
  3
ANSI_1252
  9
$INSBASE
 10
0.0
 20
0.0
 30
0.0
  9
$EXTMIN
 10
-15.70326
 20
1.03925
 30
0.0
  9
$EXTMAX
 10
15.82508
 20
13.07532
 30
0.0
  9
$LIMMIN
 10
0.0
 20
0.0
  9
$LIMMAX
 10
12.0
 20
9.0
  9
$ORTHOMODE
 70
     0
  9
$REGENMODE
 70
     1
  9
$FILLMODE
 70
     1
  9
$QTEXTMODE
 70
     0
  9
$MIRRTEXT
 70
     1
  9
$LTSCALE
 40
1.0
  9
$ATTMODE
 70
     1
  9
$TEXTSIZE
 40
0.2
  9
$TRACEWID
 40
0.05
  9
$TEXTSTYLE
  7
Standard
  9
$CLAYER
  8
0
  9
$CELTYPE
  6
ByLayer
  9
$CECOLOR
 62
   256
  9
$CELTSCALE
 40
1.0
  9
$DISPSILH
 70
     0
  9
$DIMSCALE
 40
1.0
  9
$DIMASZ
 40
0.18
  9
$DIMEXO
 40
0.0625
  9
$DIMDLI
 40
0.38
  9
$DIMRND
 40
0.0
  9
$DIMDLE
 40
0.0
  9
$DIMEXE
 40
0.18
  9
$DIMTP
 40
0.0
  9
$DIMTM
 40
0.0
  9
$DIMTXT
 40
0.18
  9
$DIMCEN
 40
0.09
  9
$DIMTSZ
 40
0.0
  9
$DIMTOL
 70
     0
  9
$DIMLIM
 70
     0
  9
$DIMTIH
 70
     1
  9
$DIMTOH
 70
     1
  9
$DIMSE1
 70
     0
  9
$DIMSE2
 70
     0
  9
$DIMTAD
 70
     0
  9
$DIMZIN
 70
     0
  9
$DIMBLK
  1

  9
$DIMASO
 70
     1
  9
$DIMSHO
 70
     1
  9
$DIMPOST
  1

  9
$DIMAPOST
  1

  9
$DIMALT
 70
     0
  9
$DIMALTD
 70
     2
  9
$DIMALTF
 40
25.4
  9
$DIMLFAC
 40
1.0
  9
$DIMTOFL
 70
     0
  9
$DIMTVP
 40
0.0
  9
$DIMTIX
 70
     0
  9
$DIMSOXD
 70
     0
  9
$DIMSAH
 70
     0
  9
$DIMBLK1
  1

  9
$DIMBLK2
  1

  9
$DIMSTYLE
  2
Standard
  9
$DIMCLRD
 70
     0
  9
$DIMCLRE
 70
     0
  9
$DIMCLRT
 70
     0
  9
$DIMTFAC
 40
1.0
  9
$DIMGAP
 40
0.09
  9
$DIMJUST
 70
     0
  9
$DIMSD1
 70
     0
  9
$DIMSD2
 70
     0
  9
$DIMTOLJ
 70
     1
  9
$DIMTZIN
 70
     0
  9
$DIMALTZ
 70
     0
  9
$DIMALTTZ
 70
     0
  9
$DIMUPT
 70
     0
  9
$DIMDEC
 70
     4
  9
$DIMTDEC
 70
     4
  9
$DIMALTU
 70
     2
  9
$DIMALTTD
 70
     2
  9
$DIMTXSTY
  7
Standard
  9
$DIMAUNIT
 70
     0
  9
$DIMADEC
 70
     0
  9
$DIMALTRND
 40
0.0
  9
$DIMAZIN
 70
     0
  9
$DIMDSEP
 70
    46
  9
$DIMATFIT
 70
     3
  9
$DIMFRAC
 70
     0
  9
$DIMLDRBLK
  1

  9
$DIMLUNIT
 70
     2
  9
$DIMLWD
 70
    -2
  9
$DIMLWE
 70
    -2
  9
$DIMTMOVE
 70
     0
  9
$DIMFXL
 40
1.0
  9
$DIMFXLON
 70
     0
  9
$DIMJOGANG
 40
0.7853981633974483
  9
$DIMTFILL
 70
     0
  9
$DIMTFILLCLR
 70
     0
  9
$DIMARCSYM
 70
     0
  9
$DIMLTYPE
  6

  9
$DIMLTEX1
  6

  9
$DIMLTEX2
  6

  9
$LUNITS
 70
     2
  9
$LUPREC
 70
     4
  9
$SKETCHINC
 40
0.1
  9
$FILLETRAD
 40
0.5
  9
$AUNITS
 70
     0
  9
$AUPREC
 70
     0
  9
$MENU
  1
.
  9
$ELEVATION
 40
0.0
  9
$PELEVATION
 40
0.0
  9
$THICKNESS
 40
0.0
  9
$LIMCHECK
 70
     0
  9
$CHAMFERA
 40
0.5
  9
$CHAMFERB
 40
0.5
  9
$CHAMFERC
 40
1.0
  9
$CHAMFERD
 40
0.0
  9
$SKPOLY
 70
     0
  9
$TDCREATE
 40
2456615.395703773
  9
$TDUCREATE
 40
2456615.354037107
  9
$TDUPDATE
 40
2456615.395703785
  9
$TDUUPDATE
 40
2456615.354037118
  9
$TDINDWG
 40
0.0000000116
  9
$TDUSRTIMER
 40
0.0000000116
  9
$USRTIMER
 70
     1
  9
$ANGBASE
 50
0.0
  9
$ANGDIR
 70
     0
  9
$PDMODE
 70
     0
  9
$PDSIZE
 40
0.0
  9
$PLINEWID
 40
0.0
  9
$SPLFRAME
 70
     0
  9
$SPLINETYPE
 70
     6
  9
$SPLINESEGS
 70
     8
  9
$HANDSEED
  5
11B
  9
$SURFTAB1
 70
     6
  9
$SURFTAB2
 70
     6
  9
$SURFTYPE
 70
     6
  9
$SURFU
 70
     6
  9
$SURFV
 70
     6
  9
$UCSBASE
  2

  9
$UCSNAME
  2

  9
$UCSORG
 10
0.0
 20
0.0
 30
0.0
  9
$UCSXDIR
 10
1.0
 20
0.0
 30
0.0
  9
$UCSYDIR
 10
0.0
 20
1.0
 30
0.0
  9
$UCSORTHOREF
  2

  9
$UCSORTHOVIEW
 70
     0
  9
$UCSORGTOP
 10
0.0
 20
0.0
 30
0.0
  9
$UCSORGBOTTOM
 10
0.0
 20
0.0
 30
0.0
  9
$UCSORGLEFT
 10
0.0
 20
0.0
 30
0.0
  9
$UCSORGRIGHT
 10
0.0
 20
0.0
 30
0.0
  9
$UCSORGFRONT
 10
0.0
 20
0.0
 30
0.0
  9
$UCSORGBACK
 10
0.0
 20
0.0
 30
0.0
  9
$PUCSBASE
  2

  9
$PUCSNAME
  2

  9
$PUCSORG
 10
0.0
 20
0.0
 30
0.0
  9
$PUCSXDIR
 10
1.0
 20
0.0
 30
0.0
  9
$PUCSYDIR
 10
0.0
 20
1.0
 30
0.0
  9
$PUCSORTHOREF
  2

  9
$PUCSORTHOVIEW
 70
     0
  9
$PUCSORGTOP
 10
0.0
 20
0.0
 30
0.0
  9
$PUCSORGBOTTOM
 10
0.0
 20
0.0
 30
0.0
  9
$PUCSORGLEFT
 10
0.0
 20
0.0
 30
0.0
  9
$PUCSORGRIGHT
 10
0.0
 20
0.0
 30
0.0
  9
$PUCSORGFRONT
 10
0.0
 20
0.0
 30
0.0
  9
$PUCSORGBACK
 10
0.0
 20
0.0
 30
0.0
  9
$USERI1
 70
     0
  9
$USERI2
 70
     0
  9
$USERI3
 70
     0
  9
$USERI4
 70
     0
  9
$USERI5
 70
     0
  9
$USERR1
 40
0.0
  9
$USERR2
 40
0.0
  9
$USERR3
 40
0.0
  9
$USERR4
 40
0.0
  9
$USERR5
 40
0.0
  9
$WORLDVIEW
 70
     1
  9
$SHADEDGE
 70
     3
  9
$SHADEDIF
 70
    70
  9
$TILEMODE
 70
     1
  9
$MAXACTVP
 70
    64
  9
$PINSBASE
 10
0.0
 20
0.0
 30
0.0
  9
$PLIMCHECK
 70
     0
  9
$PEXTMIN
 10
1.000000000000000E+20
 20
1.000000000000000E+20
 30
1.000000000000000E+20
  9
$PEXTMAX
 10
-1.000000000000000E+20
 20
-1.000000000000000E+20
 30
-1.000000000000000E+20
  9
$PLIMMIN
 10
0.0
 20
0.0
  9
$PLIMMAX
 10
12.0
 20
9.0
  9
$UNITMODE
 70
     0
  9
$VISRETAIN
 70
     1
  9
$PLINEGEN
 70
     0
  9
$PSLTSCALE
 70
     1
  9
$TREEDEPTH
 70
  3020
  9
$CMLSTYLE
  2
Standard
  9
$CMLJUST
 70
     0
  9
$CMLSCALE
 40
1.0
  9
$PROXYGRAPHICS
 70
     1
  9
$MEASUREMENT
 70
     0
  9
$CELWEIGHT
370
    -1
  9
$ENDCAPS
280
     0
  9
$JOINSTYLE
280
     0
  9
$LWDISPLAY
290
     0
  9
$INSUNITS
 70
     5
  9
$HYPERLINKBASE
  1

  9
$STYLESHEET
  1

  9
$XEDIT
290
     1
  9
$CEPSNTYPE
380
     0
  9
$PSTYLEMODE
290
     1
  9
$FINGERPRINTGUID
  2
{2B2135B1-1281-429F-BEC5-A634D2804BB0}
  9
$VERSIONGUID
  2
{FAEB1C32-E019-11D5-929B-00C0DF256EC4}
  9
$EXTNAMES
290
     1
  9
$PSVPSCALE
 40
0.0
  9
$OLESTARTUP
290
     0
  9
$SORTENTS
280
   127
  9
$INDEXCTL
280
     0
  9
$HIDETEXT
280
     1
  9
$XCLIPFRAME
290
     0
  9
$HALOGAP
280
     0
  9
$OBSCOLOR
 70
   257
  9
$OBSLTYPE
280
     0
  9
$INTERSECTIONDISPLAY
280
     0
  9
$INTERSECTIONCOLOR
 70
   257
  9
$DIMASSOC
280
     2
  9
$PROJECTNAME
  1

  9
$CAMERADISPLAY
290
     0
  9
$LENSLENGTH
 40
50.0
  9
$CAMERAHEIGHT
 40
0.0
  9
$STEPSPERSEC
 40
2.0
  9
$STEPSIZE
 40
6.0
  9
$3DDWFPREC
 40
2.0
  9
$PSOLWIDTH
 40
0.25
  9
$PSOLHEIGHT
 40
4.0
  9
$LOFTANG1
 40
1.570796326794897
  9
$LOFTANG2
 40
1.570796326794897
  9
$LOFTMAG1
 40
0.0
  9
$LOFTMAG2
 40
0.0
  9
$LOFTPARAM
 70
     7
  9
$LOFTNORMALS
280
     1
  9
$LATITUDE
 40
37.795
  9
$LONGITUDE
 40
-122.394
  9
$NORTHDIRECTION
 40
0.0
  9
$TIMEZONE
 70
 -8000
  9
$LIGHTGLYPHDISPLAY
280
     1
  9
$TILEMODELIGHTSYNCH
280
     1
  9
$SOLIDHIST
280
     1
  9
$SHOWHIST
280
     1
  9
$DWFFRAME
280
     2
  9
$DGNFRAME
280
     2
  9
$REALWORLDSCALE
290
     1
  9
$INTERFERECOLOR
 62
   256
  9
$CSHADOW
280
     0
  9
$SHADOWPLANELOCATION
 40
0.0
  0
ENDSEC
  0
SECTION
  2
CLASSES
  0
CLASS
  1
ACDBDICTIONARYWDFLT
  2
AcDbDictionaryWithDefault
  3
ObjectDBX Classes
 90
        0
 91
        4
280
     0
281
     0
  0
CLASS
  1
VISUALSTYLE
  2
AcDbVisualStyle
  3
ObjectDBX Classes
 90
     4095
 91
        4
280
     0
281
     0
  0
CLASS
  1
MATERIAL
  2
AcDbMaterial
  3
ObjectDBX Classes
 90
     1153
 91
        4
280
     0
281
     0
  0
ENDSEC
  0
SECTION
  2
TABLES
  0
TABLE
  2
VPORT
  5
8
330
0
100
AcDbSymbolTable
 70
     1
  0
VPORT
  5
29
330
8
100
AcDbSymbolTableRecord
100
AcDbViewportTableRecord
  2
*Active
 70
     0
 10
0.0
 20
0.0
 11
1.0
 21
1.0
 12
10.42990654205607
 22
4.5
 13
0.0
 23
0.0
 14
0.5
 24
0.5
 15
0.5
 25
0.5
 16
0.0
 26
0.0
 36
1.0
 17
0.0
 27
0.0
 37
0.0
 40
9.0
 41
1.972972972850329
 42
50.0
 43
0.0
 44
0.0
 50
0.0
 51
0.0
 71
     0
 72
   100
 73
     1
 74
     3
 75
     0
 76
     0
 77
     0
 78
     0
281
     0
 65
     1
110
0.0
120
0.0
130
0.0
111
1.0
121
0.0
131
0.0
112
0.0
122
1.0
132
0.0
 79
     0
146
0.0
 60
     3
 61
     5
292
     1
282
     1
141
0.0
142
0.0
 63
   250
  0
ENDTAB
  0
TABLE
  2
LTYPE
  5
5
330
0
100
AcDbSymbolTable
 70
     1
  0
LTYPE
  5
14
330
5
100
AcDbSymbolTableRecord
100
AcDbLinetypeTableRecord
  2
ByBlock
 70
     0
  3

 72
    65
 73
     0
 40
0.0
  0
LTYPE
  5
15
330
5
100
AcDbSymbolTableRecord
100
AcDbLinetypeTableRecord
  2
ByLayer
 70
     0
  3

 72
    65
 73
     0
 40
0.0
  0
LTYPE
  5
16
330
5
100
AcDbSymbolTableRecord
100
AcDbLinetypeTableRecord
  2
Continuous
 70
     0
  3
Solid line
 72
    65
 73
     0
 40
0.0
  0
ENDTAB
  0
TABLE
  2
LAYER
  5
2
330
0
100
AcDbSymbolTable
 70
     1
  0
LAYER
  5
10
330
2
100
AcDbSymbolTableRecord
100
AcDbLayerTableRecord
  2
0
 70
     0
 62
     7
  6
Continuous
370
    -3
390
F
347
3E
  0
ENDTAB
  0
TABLE
  2
STYLE
  5
3
330
0
100
AcDbSymbolTable
 70
     1
  0
STYLE
  5
11
330
3
100
AcDbSymbolTableRecord
100
AcDbTextStyleTableRecord
  2
Standard
 70
     0
 40
0.0
 41
1.0
 50
0.0
 71
     0
 42
0.2
  3
txt
  4

  0
ENDTAB
  0
TABLE
  2
VIEW
  5
6
330
0
100
AcDbSymbolTable
 70
     0
  0
ENDTAB
  0
TABLE
  2
UCS
  5
7
330
0
100
AcDbSymbolTable
 70
     0
  0
ENDTAB
  0
TABLE
  2
APPID
  5
9
330
0
100
AcDbSymbolTable
 70
     2
  0
APPID
  5
12
330
9
100
AcDbSymbolTableRecord
100
AcDbRegAppTableRecord
  2
ACAD
 70
     0
  0
APPID
  5
3F
330
9
100
AcDbSymbolTableRecord
100
AcDbRegAppTableRecord
  2
ODA
 70
     0
  0
ENDTAB
  0
TABLE
  2
DIMSTYLE
  5
A
330
0
100
AcDbSymbolTable
 70
     1
100
AcDbDimStyleTable
  0
DIMSTYLE
105
27
330
A
100
AcDbSymbolTableRecord
100
AcDbDimStyleTableRecord
  2
Standard
 70
     0
178
     0
340
11
  0
ENDTAB
  0
TABLE
  2
BLOCK_RECORD
  5
1
330
0
100
AcDbSymbolTable
 70
     1
  0
BLOCK_RECORD
  5
1F
330
1
100
AcDbSymbolTableRecord
100
AcDbBlockTableRecord
  2
*Model_Space
340
22
 70
     0
280
     1
281
     0
  0
BLOCK_RECORD
  5
1B
330
1
100
AcDbSymbolTableRecord
100
AcDbBlockTableRecord
  2
*Paper_Space
340
1E
 70
     0
280
     1
281
     0
  0
BLOCK_RECORD
  5
23
330
1
100
AcDbSymbolTableRecord
100
AcDbBlockTableRecord
  2
*Paper_Space0
340
26
 70
     0
280
     1
281
     0
  0
ENDTAB
  0
ENDSEC
  0
SECTION
  2
BLOCKS
  0
BLOCK
  5
20
330
1F
100
AcDbEntity
  8
0
100
AcDbBlockBegin
  2
*Model_Space
 70
     0
 10
0.0
 20
0.0
 30
0.0
  3
*Model_Space
  1

  0
ENDBLK
  5
21
330
1F
100
AcDbEntity
  8
0
100
AcDbBlockEnd
  0
BLOCK
  5
1C
330
1B
100
AcDbEntity
 67
     1
  8
0
100
AcDbBlockBegin
  2
*Paper_Space
 70
     0
 10
0.0
 20
0.0
 30
0.0
  3
*Paper_Space
  1

  0
ENDBLK
  5
1D
330
1B
100
AcDbEntity
 67
     1
  8
0
100
AcDbBlockEnd
  0
BLOCK
  5
24
330
23
100
AcDbEntity
  8
0
100
AcDbBlockBegin
  2
*Paper_Space0
 70
     0
 10
0.0
 20
0.0
 30
0.0
  3
*Paper_Space0
  1

  0
ENDBLK
  5
25
330
23
100
AcDbEntity
  8
0
100
AcDbBlockEnd
  0
ENDSEC
  0
SECTION
  2
ENTITIES
  0
SPLINE
  5
40
330
1F
100
AcDbEntity
  8
0
370
    15
100
AcDbSpline
210
0.0
220
0.0
230
1.0
 70
    24
 71
     3
 72
     8
 73
     4
 74
     0
 42
0.0000000001
 43
0.0000000001
 40
0.0
 40
0.0
 40
0.0
 40
0.0
 40
1.0
 40
1.0
 40
1.0
 40
1.0
 10
3.67238
 20
11.41412
 30
0.0
 10
3.67238
 20
11.41412
 30
0.0
 10
3.67238
 20
11.43079
 30
0.0
 10
3.67238
 20
11.43079
 30
0.0
  0
SPLINE
  5
41
330
1F
100
AcDbEntity
  8
0
370
    15
100
AcDbSpline
210
0.0
220
0.0
230
1.0
 70
    24
 71
     3
 72
     8
 73
     4
 74
     0
 42
0.0000000001
 43
0.0000000001
 40
0.0
 40
0.0
 40
0.0
 40
0.0
 40
1.0
 40
1.0
 40
1.0
 40
1.0
 10
3.33905
 20
11.43079
 30
0.0
 10
3.33905
 20
11.43079
 30
0.0
 10
3.33905
 20
11.41412
 30
0.0
 10
3.33905
 20
11.41412
 30
0.0
  0
SPLINE
  5
42
330
1F
100
AcDbEntity
  8
0
370
    15
100
AcDbSpline
210
0.0
220
0.0
230
1.0
 70
    24
 71
     3
 72
     8
 73
     4
 74
     0
 42
0.0000000001
 43
0.0000000001
 40
0.0
 40
0.0
 40
0.0
 40
0.0
 40
1.0
 40
1.0
 40
1.0
 40
1.0
 10
-11.32762
 20
11.41412
 30
0.0
 10
-11.32762
 20
11.41412
 30
0.0
 10
-11.32762
 20
11.43079
 30
0.0
 10
-11.32762
 20
11.43079
 30
0.0
  0
SPLINE
  5
43
330
1F
100
AcDbEntity
  8
0
370
    15
100
AcDbSpline
210
0.0
220
0.0
230
1.0
 70
    24
 71
     3
 72
     8
 73
     4
 74
     0
 42
0.0000000001
 43
0.0000000001
 40
0.0
 40
0.0
 40
0.0
 40
0.0
 40
1.0
 40
1.0
 40
1.0
 40
1.0
 10
-11.66095
 20
11.43079
 30
0.0
 10
-11.66095
 20
11.43079
 30
0.0
 10
-11.66095
 20
11.41412
 30
0.0
 10
-11.66095
 20
11.41412
 30
0.0
  0
SPLINE
  5
44
330
1F
100
AcDbEntity
  8
0
370
    15
100
AcDbSpline
210
0.0
220
0.0
230
1.0
 70
    24
 71
     3
 72
     8
 73
     4
 74
     0
 42
0.0000000001
 43
0.0000000001
 40
0.0
 40
0.0
 40
0.0
 40
0.0
 40
1.0
 40
1.0
 40
1.0
 40
1.0
 10
-3.82762
 20
11.41412
 30
0.0
 10
-3.82762
 20
11.41412
 30
0.0
 10
-3.82762
 20
11.43079
 30
0.0
 10
-3.82762
 20
11.43079
 30
0.0
  0
SPLINE
  5
45
330
1F
100
AcDbEntity
  8
0
370
    15
100
AcDbSpline
210
0.0
220
0.0
230
1.0
 70
    24
 71
     3
 72
     8
 73
     4
 74
     0
 42
0.0000000001
 43
0.0000000001
 40
0.0
 40
0.0
 40
0.0
 40
0.0
 40
1.0
 40
1.0
 40
1.0
 40
1.0
 10
-4.16095
 20
11.43079
 30
0.0
 10
-4.16095
 20
11.43079
 30
0.0
 10
-4.16095
 20
11.41412
 30
0.0
 10
-4.16095
 20
11.41412
 30
0.0
  0
SPLINE
  5
46
330
1F
100
AcDbEntity
  8
0
370
    15
100
AcDbSpline
210
0.0
220
0.0
230
1.0
 70
    24
 71
     3
 72
     8
 73
     4
 74
     0
 42
0.0000000001
 43
0.0000000001
 40
0.0
 40
0.0
 40
0.0
 40
0.0
 40
1.0
 40
1.0
 40
1.0
 40
1.0
 10
6.00571
 20
11.68079
 30
0.0
 10
6.00571
 20
11.68079
 30
0.0
 10
5.60571
 20
11.68079
 30
0.0
 10
5.60571
 20
11.68079
 30
0.0
  0
SPLINE
  5
47
330
1F
100
AcDbEntity
  8
0
370
    15
100
AcDbSpline
210
0.0
220
0.0
230
1.0
 70
    24
 71
     3
 72
     8
 73
     4
 74
     0
 42
0.0000000001
 43
0.0000000001
 40
0.0
 40
0.0
 40
0.0
 40
0.0
 40
1.0
 40
1.0
 40
1.0
 40
1.0
 10
6.00571
 20
11.68079
 30
0.0
 10
6.00571
 20
11.68079
 30
0.0
 10
6.00571
 20
11.44746
 30
0.0
 10
6.00571
 20
11.44746
 30
0.0
  0
SPLINE
  5
48
330
1F
100
AcDbEntity
  8
0
370
    15
100
AcDbSpline
210
0.0
220
0.0
230
1.0
 70
    24
 71
     3
 72
     8
 73
     4
 74
     0
 42
0.0000000001
 43
0.0000000001
 40
0.0
 40
0.0
 40
0.0
 40
0.0
 40
1.0
 40
1.0
 40
1.0
 40
1.0
 10
5.60571
 20
11.44746
 30
0.0
 10
5.60571
 20
11.44746
 30
0.0
 10
6.00571
 20
11.44746
 30
0.0
 10
6.00571
 20
11.44746
 30
0.0
  0
SPLINE
  5
49
330
1F
100
AcDbEntity
  8
0
370
    15
100
AcDbSpline
210
0.0
220
0.0
230
1.0
 70
    24
 71
     3
 72
     8
 73
     4
 74
     0
 42
0.0000000001
 43
0.0000000001
 40
0.0
 40
0.0
 40
0.0
 40
0.0
 40
1.0
 40
1.0
 40
1.0
 40
1.0
 10
5.60571
 20
11.44746
 30
0.0
 10
5.60571
 20
11.44746
 30
0.0
 10
5.60571
 20
11.68079
 30
0.0
 10
5.60571
 20
11.68079
 30
0.0
  0
SPLINE
  5
4A
330
1F
100
AcDbEntity
  8
0
370
    15
100
AcDbSpline
210
0.0
220
0.0
230
1.0
 70
    24
 71
     3
 72
     8
 73
     4
 74
     0
 42
0.0000000001
 43
0.0000000001
 40
0.0
 40
0.0
 40
0.0
 40
0.0
 40
1.0
 40
1.0
 40
1.0
 40
1.0
 10
6.00571
 20
11.44746
 30
0.0
 10
6.00571
 20
11.44746
 30
0.0
 10
5.98905
 20
11.43079
 30
0.0
 10
5.98905
 20
11.43079
 30
0.0
  0
SPLINE
  5
4B
330
1F
100
AcDbEntity
  8
0
370
    15
100
AcDbSpline
210
0.0
220
0.0
230
1.0
 70
    24
 71
     3
 72
     8
 73
     4
 74
     0
 42
0.0000000001
 43
0.0000000001
 40
0.0
 40
0.0
 40
0.0
 40
0.0
 40
1.0
 40
1.0
 40
1.0
 40
1.0
 10
5.98905
 20
11.43079
 30
0.0
 10
5.98905
 20
11.43079
 30
0.0
 10
5.60571
 20
11.43079
 30
0.0
 10
5.60571
 20
11.43079
 30
0.0
  0
SPLINE
  5
4C
330
1F
100
AcDbEntity
  8
0
370
    15
100
AcDbSpline
210
0.0
220
0.0
230
1.0
 70
    24
 71
     3
 72
     8
 73
     4
 74
     0
 42
0.0000000001
 43
0.0000000001
 40
0.0
 40
0.0
 40
0.0
 40
0.0
 40
1.0
 40
1.0
 40
1.0
 40
1.0
 10
5.60571
 20
11.44746
 30
0.0
 10
5.60571
 20
11.44746
 30
0.0
 10
5.60571
 20
11.43079
 30
0.0
 10
5.60571
 20
11.43079
 30
0.0
  0
SPLINE
  5
4D
330
1F
100
AcDbEntity
  8
0
370
    15
100
AcDbSpline
210
0.0
220
0.0
230
1.0
 70
    24
 71
     3
 72
     8
 73
     4
 74
     0
 42
0.0000000001
 43
0.0000000001
 40
0.0
 40
0.0
 40
0.0
 40
0.0
 40
1.0
 40
1.0
 40
1.0
 40
1.0
 10
5.60571
 20
11.69746
 30
0.0
 10
5.60571
 20
11.69746
 30
0.0
 10
5.98905
 20
11.69746
 30
0.0
 10
5.98905
 20
11.69746
 30
0.0
  0
SPLINE
  5
4E
330
1F
100
AcDbEntity
  8
0
370
    15
100
AcDbSpline
210
0.0
220
0.0
230
1.0
 70
    24
 71
     3
 72
     8
 73
     4
 74
     0
 42
0.0000000001
 43
0.0000000001
 40
0.0
 40
0.0
 40
0.0
 40
0.0
 40
1.0
 40
1.0
 40
1.0
 40
1.0
 10
5.98905
 20
11.69746
 30
0.0
 10
5.98905
 20
11.69746
 30
0.0
 10
6.00571
 20
11.68079
 30
0.0
 10
6.00571
 20
11.68079
 30
0.0
  0
SPLINE
  5
4F
330
1F
100
AcDbEntity
  8
0
370
    15
100
AcDbSpline
210
0.0
220
0.0
230
1.0
 70
    24
 71
     3
 72
     8
 73
     4
 74
     0
 42
0.0000000001
 43
0.0000000001
 40
0.0
 40
0.0
 40
0.0
 40
0.0
 40
1.0
 40
1.0
 40
1.0
 40
1.0
 10
5.60571
 20
11.69746
 30
0.0
 10
5.60571
 20
11.69746
 30
0.0
 10
5.60571
 20
11.68079
 30
0.0
 10
5.60571
 20
11.68079
 30
0.0
  0
SPLINE
  5
50
330
1F
100
AcDbEntity
  8
0
370
    15
100
AcDbSpline
210
0.0
220
0.0
230
1.0
 70
    24
 71
     3
 72
     8
 73
     4
 74
     0
 42
0.0000000001
 43
0.0000000001
 40
0.0
 40
0.0
 40
0.0
 40
0.0
 40
1.0
 40
1.0
 40
1.0
 40
1.0
 10
-13.59429
 20
11.44746
 30
0.0
 10
-13.59429
 20
11.44746
 30
0.0
 10
5.60571
 20
11.44746
 30
0.0
 10
5.60571
 20
11.44746
 30
0.0
  0
SPLINE
  5
51
330
1F
100
AcDbEntity
  8
0
370
    15
100
AcDbSpline
210
0.0
220
0.0
230
1.0
 70
    24
 71
     3
 72
     8
 73
     4
 74
     0
 42
0.0000000001
 43
0.0000000001
 40
0.0
 40
0.0
 40
0.0
 40
0.0
 40
1.0
 40
1.0
 40
1.0
 40
1.0
 10
5.60571
 20
11.43079
 30
0.0
 10
5.60571
 20
11.43079
 30
0.0
 10
-13.59429
 20
11.43079
 30
0.0
 10
-13.59429
 20
11.43079
 30
0.0
  0
SPLINE
  5
52
330
1F
100
AcDbEntity
  8
0
370
    15
100
AcDbSpline
210
0.0
220
0.0
230
1.0
 70
    24
 71
     3
 72
     8
 73
     4
 74
     0
 42
0.0000000001
 43
0.0000000001
 40
0.0
 40
0.0
 40
0.0
 40
0.0
 40
1.0
 40
1.0
 40
1.0
 40
1.0
 10
-13.59429
 20
11.43079
 30
0.0
 10
-13.59429
 20
11.43079
 30
0.0
 10
-13.59429
 20
11.44746
 30
0.0
 10
-13.59429
 20
11.44746
 30
0.0
  0
SPLINE
  5
53
330
1F
100
AcDbEntity
  8
0
370
    15
100
AcDbSpline
210
0.0
220
0.0
230
1.0
 70
    24
 71
     3
 72
     8
 73
     4
 74
     0
 42
0.0000000001
 43
0.0000000001
 40
0.0
 40
0.0
 40
0.0
 40
0.0
 40
1.0
 40
1.0
 40
1.0
 40
1.0
 10
-13.59429
 20
11.69746
 30
0.0
 10
-13.59429
 20
11.69746
 30
0.0
 10
5.60571
 20
11.69746
 30
0.0
 10
5.60571
 20
11.69746
 30
0.0
  0
SPLINE
  5
54
330
1F
100
AcDbEntity
  8
0
370
    15
100
AcDbSpline
210
0.0
220
0.0
230
1.0
 70
    24
 71
     3
 72
     8
 73
     4
 74
     0
 42
0.0000000001
 43
0.0000000001
 40
0.0
 40
0.0
 40
0.0
 40
0.0
 40
1.0
 40
1.0
 40
1.0
 40
1.0
 10
5.60571
 20
11.68079
 30
0.0
 10
5.60571
 20
11.68079
 30
0.0
 10
-13.59429
 20
11.68079
 30
0.0
 10
-13.59429
 20
11.68079
 30
0.0
  0
SPLINE
  5
55
330
1F
100
AcDbEntity
  8
0
370
    15
100
AcDbSpline
210
0.0
220
0.0
230
1.0
 70
    24
 71
     3
 72
     8
 73
     4
 74
     0
 42
0.0000000001
 43
0.0000000001
 40
0.0
 40
0.0
 40
0.0
 40
0.0
 40
1.0
 40
1.0
 40
1.0
 40
1.0
 10
-13.59429
 20
11.68079
 30
0.0
 10
-13.59429
 20
11.68079
 30
0.0
 10
-13.59429
 20
11.69746
 30
0.0
 10
-13.59429
 20
11.69746
 30
0.0
  0
SPLINE
  5
56
330
1F
100
AcDbEntity
  8
0
370
    15
100
AcDbSpline
210
0.0
220
0.0
230
1.0
 70
    24
 71
     3
 72
     8
 73
     4
 74
     0
 42
0.0000000001
 43
0.0000000001
 40
0.0
 40
0.0
 40
0.0
 40
0.0
 40
1.0
 40
1.0
 40
1.0
 40
1.0
 10
-13.59429
 20
11.68079
 30
0.0
 10
-13.59429
 20
11.68079
 30
0.0
 10
-13.59429
 20
11.44746
 30
0.0
 10
-13.59429
 20
11.44746
 30
0.0
  0
SPLINE
  5
57
330
1F
100
AcDbEntity
  8
0
370
    15
100
AcDbSpline
210
0.0
220
0.0
230
1.0
 70
    24
 71
     3
 72
     8
 73
     4
 74
     0
 42
0.0000000001
 43
0.0000000001
 40
0.0
 40
0.0
 40
0.0
 40
0.0
 40
1.0
 40
1.0
 40
1.0
 40
1.0
 10
-13.59429
 20
11.68079
 30
0.0
 10
-13.59429
 20
11.68079
 30
0.0
 10
-13.99429
 20
11.68079
 30
0.0
 10
-13.99429
 20
11.68079
 30
0.0
  0
SPLINE
  5
58
330
1F
100
AcDbEntity
  8
0
370
    15
100
AcDbSpline
210
0.0
220
0.0
230
1.0
 70
    24
 71
     3
 72
     8
 73
     4
 74
     0
 42
0.0000000001
 43
0.0000000001
 40
0.0
 40
0.0
 40
0.0
 40
0.0
 40
1.0
 40
1.0
 40
1.0
 40
1.0
 10
-13.99429
 20
11.68079
 30
0.0
 10
-13.99429
 20
11.68079
 30
0.0
 10
-13.97762
 20
11.69746
 30
0.0
 10
-13.97762
 20
11.69746
 30
0.0
  0
SPLINE
  5
59
330
1F
100
AcDbEntity
  8
0
370
    15
100
AcDbSpline
210
0.0
220
0.0
230
1.0
 70
    24
 71
     3
 72
     8
 73
     4
 74
     0
 42
0.0000000001
 43
0.0000000001
 40
0.0
 40
0.0
 40
0.0
 40
0.0
 40
1.0
 40
1.0
 40
1.0
 40
1.0
 10
-13.97762
 20
11.69746
 30
0.0
 10
-13.97762
 20
11.69746
 30
0.0
 10
-13.59429
 20
11.69746
 30
0.0
 10
-13.59429
 20
11.69746
 30
0.0
  0
SPLINE
  5
5A
330
1F
100
AcDbEntity
  8
0
370
    15
100
AcDbSpline
210
0.0
220
0.0
230
1.0
 70
    24
 71
     3
 72
     8
 73
     4
 74
     0
 42
0.0000000001
 43
0.0000000001
 40
0.0
 40
0.0
 40
0.0
 40
0.0
 40
1.0
 40
1.0
 40
1.0
 40
1.0
 10
-13.59429
 20
11.43079
 30
0.0
 10
-13.59429
 20
11.43079
 30
0.0
 10
-13.97762
 20
11.43079
 30
0.0
 10
-13.97762
 20
11.43079
 30
0.0
  0
SPLINE
  5
5B
330
1F
100
AcDbEntity
  8
0
370
    15
100
AcDbSpline
210
0.0
220
0.0
230
1.0
 70
    24
 71
     3
 72
     8
 73
     4
 74
     0
 42
0.0000000001
 43
0.0000000001
 40
0.0
 40
0.0
 40
0.0
 40
0.0
 40
1.0
 40
1.0
 40
1.0
 40
1.0
 10
-13.97762
 20
11.43079
 30
0.0
 10
-13.97762
 20
11.43079
 30
0.0
 10
-13.99429
 20
11.44746
 30
0.0
 10
-13.99429
 20
11.44746
 30
0.0
  0
SPLINE
  5
5C
330
1F
100
AcDbEntity
  8
0
370
    15
100
AcDbSpline
210
0.0
220
0.0
230
1.0
 70
    24
 71
     3
 72
     8
 73
     4
 74
     0
 42
0.0000000001
 43
0.0000000001
 40
0.0
 40
0.0
 40
0.0
 40
0.0
 40
1.0
 40
1.0
 40
1.0
 40
1.0
 10
-13.99429
 20
11.44746
 30
0.0
 10
-13.99429
 20
11.44746
 30
0.0
 10
-13.59429
 20
11.44746
 30
0.0
 10
-13.59429
 20
11.44746
 30
0.0
  0
SPLINE
  5
5D
330
1F
100
AcDbEntity
  8
0
370
    15
100
AcDbSpline
210
0.0
220
0.0
230
1.0
 70
    24
 71
     3
 72
     8
 73
     4
 74
     0
 42
0.0000000001
 43
0.0000000001
 40
0.0
 40
0.0
 40
0.0
 40
0.0
 40
1.0
 40
1.0
 40
1.0
 40
1.0
 10
-13.99429
 20
11.44746
 30
0.0
 10
-13.99429
 20
11.44746
 30
0.0
 10
-13.99429
 20
11.68079
 30
0.0
 10
-13.99429
 20
11.68079
 30
0.0
  0
SPLINE
  5
5E
330
1F
100
AcDbEntity
  8
0
370
    15
100
AcDbSpline
210
0.0
220
0.0
230
1.0
 70
    24
 71
     3
 72
     8
 73
     4
 74
     0
 42
0.0000000001
 43
0.0000000001
 40
0.0
 40
0.0
 40
0.0
 40
0.0
 40
1.0
 40
1.0
 40
1.0
 40
1.0
 10
-13.99429
 20
11.18079
 30
0.0
 10
-13.99429
 20
11.18079
 30
0.0
 10
6.00571
 20
11.18079
 30
0.0
 10
6.00571
 20
11.18079
 30
0.0
  0
SPLINE
  5
5F
330
1F
100
AcDbEntity
  8
0
370
    15
100
AcDbSpline
210
0.0
220
0.0
230
1.0
 70
    24
 71
     3
 72
     8
 73
     4
 74
     0
 42
0.0000000001
 43
0.0000000001
 40
0.0
 40
0.0
 40
0.0
 40
0.0
 40
1.0
 40
1.0
 40
1.0
 40
1.0
 10
-13.99429
 20
11.18079
 30
0.0
 10
-13.99429
 20
11.18079
 30
0.0
 10
-13.99429
 20
11.41412
 30
0.0
 10
-13.99429
 20
11.41412
 30
0.0
  0
SPLINE
  5
60
330
1F
100
AcDbEntity
  8
0
370
    15
100
AcDbSpline
210
0.0
220
0.0
230
1.0
 70
    24
 71
     3
 72
     8
 73
     4
 74
     0
 42
0.0000000001
 43
0.0000000001
 40
0.0
 40
0.0
 40
0.0
 40
0.0
 40
1.0
 40
1.0
 40
1.0
 40
1.0
 10
-13.99429
 20
11.41412
 30
0.0
 10
-13.99429
 20
11.41412
 30
0.0
 10
6.00571
 20
11.41412
 30
0.0
 10
6.00571
 20
11.41412
 30
0.0
  0
SPLINE
  5
61
330
1F
100
AcDbEntity
  8
0
370
    15
100
AcDbSpline
210
0.0
220
0.0
230
1.0
 70
    24
 71
     3
 72
     8
 73
     4
 74
     0
 42
0.0000000001
 43
0.0000000001
 40
0.0
 40
0.0
 40
0.0
 40
0.0
 40
1.0
 40
1.0
 40
1.0
 40
1.0
 10
6.00571
 20
11.18079
 30
0.0
 10
6.00571
 20
11.18079
 30
0.0
 10
6.00571
 20
11.41412
 30
0.0
 10
6.00571
 20
11.41412
 30
0.0
  0
SPLINE
  5
62
330
1F
100
AcDbEntity
  8
0
370
    15
100
AcDbSpline
210
0.0
220
0.0
230
1.0
 70
    24
 71
     3
 72
     8
 73
     4
 74
     0
 42
0.0000000001
 43
0.0000000001
 40
0.0
 40
0.0
 40
0.0
 40
0.0
 40
1.0
 40
1.0
 40
1.0
 40
1.0
 10
-13.99429
 20
11.69746
 30
0.0
 10
-13.99429
 20
11.69746
 30
0.0
 10
-13.99429
 20
11.84746
 30
0.0
 10
-13.99429
 20
11.84746
 30
0.0
  0
SPLINE
  5
63
330
1F
100
AcDbEntity
  8
0
370
    15
100
AcDbSpline
210
0.0
220
0.0
230
1.0
 70
    24
 71
     3
 72
     8
 73
     4
 74
     0
 42
0.0000000001
 43
0.0000000001
 40
0.0
 40
0.0
 40
0.0
 40
0.0
 40
1.0
 40
1.0
 40
1.0
 40
1.0
 10
-13.99429
 20
11.84746
 30
0.0
 10
-13.99429
 20
11.84746
 30
0.0
 10
6.00571
 20
11.84746
 30
0.0
 10
6.00571
 20
11.84746
 30
0.0
  0
SPLINE
  5
64
330
1F
100
AcDbEntity
  8
0
370
    15
100
AcDbSpline
210
0.0
220
0.0
230
1.0
 70
    24
 71
     3
 72
     8
 73
     4
 74
     0
 42
0.0000000001
 43
0.0000000001
 40
0.0
 40
0.0
 40
0.0
 40
0.0
 40
1.0
 40
1.0
 40
1.0
 40
1.0
 10
6.00571
 20
11.69746
 30
0.0
 10
6.00571
 20
11.69746
 30
0.0
 10
6.00571
 20
11.84746
 30
0.0
 10
6.00571
 20
11.84746
 30
0.0
  0
SPLINE
  5
65
330
1F
100
AcDbEntity
  8
0
370
    15
100
AcDbSpline
210
0.0
220
0.0
230
1.0
 70
    24
 71
     3
 72
     8
 73
     4
 74
     0
 42
0.0000000001
 43
0.0000000001
 40
0.0
 40
0.0
 40
0.0
 40
0.0
 40
1.0
 40
1.0
 40
1.0
 40
1.0
 10
-13.99429
 20
11.69746
 30
0.0
 10
-13.99429
 20
11.69746
 30
0.0
 10
-13.97762
 20
11.69746
 30
0.0
 10
-13.97762
 20
11.69746
 30
0.0
  0
SPLINE
  5
66
330
1F
100
AcDbEntity
  8
0
370
    15
100
AcDbSpline
210
0.0
220
0.0
230
1.0
 70
    24
 71
     3
 72
     8
 73
     4
 74
     0
 42
0.0000000001
 43
0.0000000001
 40
0.0
 40
0.0
 40
0.0
 40
0.0
 40
1.0
 40
1.0
 40
1.0
 40
1.0
 10
5.98905
 20
11.69746
 30
0.0
 10
5.98905
 20
11.69746
 30
0.0
 10
6.00571
 20
11.69746
 30
0.0
 10
6.00571
 20
11.69746
 30
0.0
  0
SPLINE
  5
67
330
1F
100
AcDbEntity
  8
0
370
    15
100
AcDbSpline
210
0.0
220
0.0
230
1.0
 70
     8
 71
     3
 72
    12
 73
     8
 74
     0
 42
0.0000000001
 43
0.0000000001
 40
0.0
 40
0.0
 40
0.0
 40
0.0
 40
0.3333333333333333
 40
0.3333333333333333
 40
0.3333333333333333
 40
0.3333333333333333
 40
1.0
 40
1.0
 40
1.0
 40
1.0
 10
2.67238
 20
11.41412
 30
0.0
 10
2.67238
 20
11.41412
 30
0.0
 10
2.71616
 20
11.42106
 30
0.0
 10
2.71616
 20
11.42106
 30
0.0
 10
2.71616
 20
11.42106
 30
0.0
 10
2.71616
 20
11.42106
 30
0.0
 10
2.73905
 20
11.43079
 30
0.0
 10
2.73905
 20
11.43079
 30
0.0
  0
SPLINE
  5
68
330
1F
100
AcDbEntity
  8
0
370
    15
100
AcDbSpline
210
0.0
220
0.0
230
1.0
 70
    24
 71
     3
 72
     8
 73
     4
 74
     0
 42
0.0000000001
 43
0.0000000001
 40
0.0
 40
0.0
 40
0.0
 40
0.0
 40
1.0
 40
1.0
 40
1.0
 40
1.0
 10
6.00571
 20
11.41412
 30
0.0
 10
6.00571
 20
11.41412
 30
0.0
 10
6.00571
 20
11.44746
 30
0.0
 10
6.00571
 20
11.44746
 30
0.0
  0
SPLINE
  5
69
330
1F
100
AcDbEntity
  8
0
370
    15
100
AcDbSpline
210
0.0
220
0.0
230
1.0
 70
    24
 71
     3
 72
     8
 73
     4
 74
     0
 42
0.0000000001
 43
0.0000000001
 40
0.0
 40
0.0
 40
0.0
 40
0.0
 40
1.0
 40
1.0
 40
1.0
 40
1.0
 10
6.00571
 20
11.68079
 30
0.0
 10
6.00571
 20
11.68079
 30
0.0
 10
6.00571
 20
11.69746
 30
0.0
 10
6.00571
 20
11.69746
 30
0.0
  0
SPLINE
  5
6A
330
1F
100
AcDbEntity
  8
0
370
    15
100
AcDbSpline
210
0.0
220
0.0
230
1.0
 70
     8
 71
     3
 72
    12
 73
     8
 74
     0
 42
0.0000000001
 43
0.0000000001
 40
0.0
 40
0.0
 40
0.0
 40
0.0
 40
0.3333333333333333
 40
0.3333333333333333
 40
0.3333333333333333
 40
0.3333333333333333
 40
1.0
 40
1.0
 40
1.0
 40
1.0
 10
2.60571
 20
11.43079
 30
0.0
 10
2.60571
 20
11.43079
 30
0.0
 10
2.6286
 20
11.42106
 30
0.0
 10
2.6286
 20
11.42106
 30
0.0
 10
2.6286
 20
11.42106
 30
0.0
 10
2.6286
 20
11.42106
 30
0.0
 10
2.67238
 20
11.41412
 30
0.0
 10
2.67238
 20
11.41412
 30
0.0
  0
SPLINE
  5
6B
330
1F
100
AcDbEntity
  8
0
370
    15
100
AcDbSpline
210
0.0
220
0.0
230
1.0
 70
     8
 71
     3
 72
    12
 73
     8
 74
     0
 42
0.0000000001
 43
0.0000000001
 40
0.0
 40
0.0
 40
0.0
 40
0.0
 40
0.3333333333333333
 40
0.3333333333333333
 40
0.3333333333333333
 40
0.3333333333333333
 40
1.0
 40
1.0
 40
1.0
 40
1.0
 10
-10.59429
 20
11.43079
 30
0.0
 10
-10.59429
 20
11.43079
 30
0.0
 10
-10.61718
 20
11.42106
 30
0.0
 10
-10.61718
 20
11.42106
 30
0.0
 10
-10.61718
 20
11.42106
 30
0.0
 10
-10.61718
 20
11.42106
 30
0.0
 10
-10.66095
 20
11.41412
 30
0.0
 10
-10.66095
 20
11.41412
 30
0.0
  0
SPLINE
  5
6C
330
1F
100
AcDbEntity
  8
0
370
    15
100
AcDbSpline
210
0.0
220
0.0
230
1.0
 70
     8
 71
     3
 72
    12
 73
     8
 74
     0
 42
0.0000000001
 43
0.0000000001
 40
0.0
 40
0.0
 40
0.0
 40
0.0
 40
0.3333333333333333
 40
0.3333333333333333
 40
0.3333333333333333
 40
0.3333333333333333
 40
1.0
 40
1.0
 40
1.0
 40
1.0
 10
-10.66095
 20
11.41412
 30
0.0
 10
-10.66095
 20
11.41412
 30
0.0
 10
-10.70473
 20
11.42106
 30
0.0
 10
-10.70473
 20
11.42106
 30
0.0
 10
-10.70473
 20
11.42106
 30
0.0
 10
-10.70473
 20
11.42106
 30
0.0
 10
-10.72762
 20
11.43079
 30
0.0
 10
-10.72762
 20
11.43079
 30
0.0
  0
SPLINE
  5
6D
330
1F
100
AcDbEntity
  8
0
370
    15
100
AcDbSpline
210
0.0
220
0.0
230
1.0
 70
    24
 71
     3
 72
     8
 73
     4
 74
     0
 42
0.0000000001
 43
0.0000000001
 40
0.0
 40
0.0
 40
0.0
 40
0.0
 40
1.0
 40
1.0
 40
1.0
 40
1.0
 10
-13.99429
 20
11.41412
 30
0.0
 10
-13.99429
 20
11.41412
 30
0.0
 10
-13.99429
 20
11.44746
 30
0.0
 10
-13.99429
 20
11.44746
 30
0.0
  0
SPLINE
  5
6E
330
1F
100
AcDbEntity
  8
0
370
    15
100
AcDbSpline
210
0.0
220
0.0
230
1.0
 70
    24
 71
     3
 72
     8
 73
     4
 74
     0
 42
0.0000000001
 43
0.0000000001
 40
0.0
 40
0.0
 40
0.0
 40
0.0
 40
1.0
 40
1.0
 40
1.0
 40
1.0
 10
-13.99429
 20
11.68079
 30
0.0
 10
-13.99429
 20
11.68079
 30
0.0
 10
-13.99429
 20
11.69746
 30
0.0
 10
-13.99429
 20
11.69746
 30
0.0
  0
SPLINE
  5
6F
330
1F
100
AcDbEntity
  8
0
100
AcDbSpline
210
0.0
220
0.0
230
1.0
 70
    27
 71
     3
 72
    12
 73
     8
 74
     0
 42
0.0000000001
 43
0.0000000001
 40
0.0
 40
0.0
 40
0.0
 40
0.0
 40
0.3333333333333333
 40
0.3333333333333333
 40
0.3333333333333333
 40
0.3333333333333333
 40
1.0
 40
1.0
 40
1.0
 40
1.0
 10
6.86661
 20
11.84746
 30
0.0
 10
6.86661
 20
11.84746
 30
0.0
 10
6.81581
 20
12.17766
 30
0.0
 10
6.81581
 20
12.17766
 30
0.0
 10
6.81581
 20
12.17766
 30
0.0
 10
6.81581
 20
12.17766
 30
0.0
 10
6.86661
 20
11.84746
 30
0.0
 10
6.86661
 20
11.84746
 30
0.0
  0
SPLINE
  5
70
330
1F
100
AcDbEntity
  8
0
100
AcDbSpline
210
0.0
220
0.0
230
1.0
 70
     8
 71
     3
 72
    12
 73
     8
 74
     0
 42
0.0000000001
 43
0.0000000001
 40
0.0
 40
0.0
 40
0.0
 40
0.0
 40
0.3333333333333333
 40
0.3333333333333333
 40
0.3333333333333333
 40
0.3333333333333333
 40
1.0
 40
1.0
 40
1.0
 40
1.0
 10
6.81581
 20
12.17766
 30
0.0
 10
6.81581
 20
12.17766
 30
0.0
 10
6.91741
 20
12.17766
 30
0.0
 10
6.91741
 20
12.17766
 30
0.0
 10
6.91741
 20
12.17766
 30
0.0
 10
6.91741
 20
12.17766
 30
0.0
 10
6.86661
 20
11.84746
 30
0.0
 10
6.86661
 20
11.84746
 30
0.0
  0
SPLINE
  5
71
330
1F
100
AcDbEntity
  8
0
370
     9
100
AcDbSpline
210
0.0
220
0.0
230
1.0
 70
    24
 71
     3
 72
     8
 73
     4
 74
     0
 42
0.0000000001
 43
0.0000000001
 40
0.0
 40
0.0
 40
0.0
 40
0.0
 40
1.0
 40
1.0
 40
1.0
 40
1.0
 10
6.86661
 20
11.84746
 30
0.0
 10
6.86661
 20
11.84746
 30
0.0
 10
6.81581
 20
12.17766
 30
0.0
 10
6.81581
 20
12.17766
 30
0.0
  0
SPLINE
  5
72
330
1F
100
AcDbEntity
  8
0
370
     9
100
AcDbSpline
210
0.0
220
0.0
230
1.0
 70
     8
 71
     3
 72
    12
 73
     8
 74
     0
 42
0.0000000001
 43
0.0000000001
 40
0.0
 40
0.0
 40
0.0
 40
0.0
 40
0.3333333333333333
 40
0.3333333333333333
 40
0.3333333333333333
 40
0.3333333333333333
 40
1.0
 40
1.0
 40
1.0
 40
1.0
 10
6.81581
 20
12.17766
 30
0.0
 10
6.81581
 20
12.17766
 30
0.0
 10
6.91741
 20
12.17766
 30
0.0
 10
6.91741
 20
12.17766
 30
0.0
 10
6.91741
 20
12.17766
 30
0.0
 10
6.91741
 20
12.17766
 30
0.0
 10
6.86661
 20
11.84746
 30
0.0
 10
6.86661
 20
11.84746
 30
0.0
  0
SPLINE
  5
73
330
1F
100
AcDbEntity
  8
0
100
AcDbSpline
210
0.0
220
0.0
230
1.0
 70
    27
 71
     3
 72
    12
 73
     8
 74
     0
 42
0.0000000001
 43
0.0000000001
 40
0.0
 40
0.0
 40
0.0
 40
0.0
 40
0.3333333333333333
 40
0.3333333333333333
 40
0.3333333333333333
 40
0.3333333333333333
 40
1.0
 40
1.0
 40
1.0
 40
1.0
 10
6.86661
 20
11.18079
 30
0.0
 10
6.86661
 20
11.18079
 30
0.0
 10
6.91741
 20
10.85059
 30
0.0
 10
6.91741
 20
10.85059
 30
0.0
 10
6.91741
 20
10.85059
 30
0.0
 10
6.91741
 20
10.85059
 30
0.0
 10
6.86661
 20
11.18079
 30
0.0
 10
6.86661
 20
11.18079
 30
0.0
  0
SPLINE
  5
74
330
1F
100
AcDbEntity
  8
0
100
AcDbSpline
210
0.0
220
0.0
230
1.0
 70
     8
 71
     3
 72
    12
 73
     8
 74
     0
 42
0.0000000001
 43
0.0000000001
 40
0.0
 40
0.0
 40
0.0
 40
0.0
 40
0.3333333333333333
 40
0.3333333333333333
 40
0.3333333333333333
 40
0.3333333333333333
 40
1.0
 40
1.0
 40
1.0
 40
1.0
 10
6.91741
 20
10.85059
 30
0.0
 10
6.91741
 20
10.85059
 30
0.0
 10
6.81581
 20
10.85059
 30
0.0
 10
6.81581
 20
10.85059
 30
0.0
 10
6.81581
 20
10.85059
 30
0.0
 10
6.81581
 20
10.85059
 30
0.0
 10
6.86661
 20
11.18079
 30
0.0
 10
6.86661
 20
11.18079
 30
0.0
  0
SPLINE
  5
75
330
1F
100
AcDbEntity
  8
0
370
     9
100
AcDbSpline
210
0.0
220
0.0
230
1.0
 70
    24
 71
     3
 72
     8
 73
     4
 74
     0
 42
0.0000000001
 43
0.0000000001
 40
0.0
 40
0.0
 40
0.0
 40
0.0
 40
1.0
 40
1.0
 40
1.0
 40
1.0
 10
6.86661
 20
11.18079
 30
0.0
 10
6.86661
 20
11.18079
 30
0.0
 10
6.91741
 20
10.85059
 30
0.0
 10
6.91741
 20
10.85059
 30
0.0
  0
SPLINE
  5
76
330
1F
100
AcDbEntity
  8
0
370
     9
100
AcDbSpline
210
0.0
220
0.0
230
1.0
 70
     8
 71
     3
 72
    12
 73
     8
 74
     0
 42
0.0000000001
 43
0.0000000001
 40
0.0
 40
0.0
 40
0.0
 40
0.0
 40
0.3333333333333333
 40
0.3333333333333333
 40
0.3333333333333333
 40
0.3333333333333333
 40
1.0
 40
1.0
 40
1.0
 40
1.0
 10
6.91741
 20
10.85059
 30
0.0
 10
6.91741
 20
10.85059
 30
0.0
 10
6.81581
 20
10.85059
 30
0.0
 10
6.81581
 20
10.85059
 30
0.0
 10
6.81581
 20
10.85059
 30
0.0
 10
6.81581
 20
10.85059
 30
0.0
 10
6.86661
 20
11.18079
 30
0.0
 10
6.86661
 20
11.18079
 30
0.0
  0
SPLINE
  5
77
330
1F
100
AcDbEntity
  8
0
370
     9
100
AcDbSpline
210
0.0
220
0.0
230
1.0
 70
    24
 71
     3
 72
     8
 73
     4
 74
     0
 42
0.0000000001
 43
0.0000000001
 40
0.0
 40
0.0
 40
0.0
 40
0.0
 40
1.0
 40
1.0
 40
1.0
 40
1.0
 10
6.10571
 20
11.84746
 30
0.0
 10
6.10571
 20
11.84746
 30
0.0
 10
6.96661
 20
11.84746
 30
0.0
 10
6.96661
 20
11.84746
 30
0.0
  0
SPLINE
  5
78
330
1F
100
AcDbEntity
  8
0
370
     9
100
AcDbSpline
210
0.0
220
0.0
230
1.0
 70
    24
 71
     3
 72
     8
 73
     4
 74
     0
 42
0.0000000001
 43
0.0000000001
 40
0.0
 40
0.0
 40
0.0
 40
0.0
 40
1.0
 40
1.0
 40
1.0
 40
1.0
 10
6.10571
 20
11.18079
 30
0.0
 10
6.10571
 20
11.18079
 30
0.0
 10
6.96661
 20
11.18079
 30
0.0
 10
6.96661
 20
11.18079
 30
0.0
  0
SPLINE
  5
79
330
1F
100
AcDbEntity
  8
0
370
     9
100
AcDbSpline
210
0.0
220
0.0
230
1.0
 70
    24
 71
     3
 72
     8
 73
     4
 74
     0
 42
0.0000000001
 43
0.0000000001
 40
0.0
 40
0.0
 40
0.0
 40
0.0
 40
1.0
 40
1.0
 40
1.0
 40
1.0
 10
6.86661
 20
11.84746
 30
0.0
 10
6.86661
 20
11.84746
 30
0.0
 10
6.86661
 20
13.07532
 30
0.0
 10
6.86661
 20
13.07532
 30
0.0
  0
SPLINE
  5
7A
330
1F
100
AcDbEntity
  8
0
370
     9
100
AcDbSpline
210
0.0
220
0.0
230
1.0
 70
    24
 71
     3
 72
     8
 73
     4
 74
     0
 42
0.0000000001
 43
0.0000000001
 40
0.0
 40
0.0
 40
0.0
 40
0.0
 40
1.0
 40
1.0
 40
1.0
 40
1.0
 10
6.86661
 20
11.84746
 30
0.0
 10
6.86661
 20
11.84746
 30
0.0
 10
6.86661
 20
11.18079
 30
0.0
 10
6.86661
 20
11.18079
 30
0.0
  0
SPLINE
  5
7B
330
1F
100
AcDbEntity
  8
0
370
     9
100
AcDbSpline
210
0.0
220
0.0
230
1.0
 70
    24
 71
     3
 72
     8
 73
     4
 74
     0
 42
0.0000000001
 43
0.0000000001
 40
0.0
 40
0.0
 40
0.0
 40
0.0
 40
1.0
 40
1.0
 40
1.0
 40
1.0
 10
6.86661
 20
11.18079
 30
0.0
 10
6.86661
 20
11.18079
 30
0.0
 10
6.86661
 20
10.54579
 30
0.0
 10
6.86661
 20
10.54579
 30
0.0
  0
SPLINE
  5
7C
330
1F
100
AcDbEntity
  8
0
100
AcDbSpline
210
0.0
220
0.0
230
1.0
 70
    11
 71
     3
 72
    92
 73
    88
 74
     0
 42
0.0000000001
 43
0.0000000001
 40
0.0
 40
0.0
 40
0.0
 40
0.0
 40
0.0434782608695652
 40
0.0434782608695652
 40
0.0434782608695652
 40
0.0434782608695652
 40
0.0869565217391304
 40
0.0869565217391304
 40
0.0869565217391304
 40
0.0869565217391304
 40
0.1304347826086956
 40
0.1304347826086956
 40
0.1304347826086956
 40
0.1304347826086956
 40
0.1739130434782609
 40
0.1739130434782609
 40
0.1739130434782609
 40
0.1739130434782609
 40
0.2173913043478261
 40
0.2173913043478261
 40
0.2173913043478261
 40
0.2173913043478261
 40
0.2608695652173913
 40
0.2608695652173913
 40
0.2608695652173913
 40
0.2608695652173913
 40
0.3043478260869565
 40
0.3043478260869565
 40
0.3043478260869565
 40
0.3043478260869565
 40
0.3478260869565217
 40
0.3478260869565217
 40
0.3478260869565217
 40
0.3478260869565217
 40
0.391304347826087
 40
0.391304347826087
 40
0.391304347826087
 40
0.391304347826087
 40
0.4347826086956522
 40
0.4347826086956522
 40
0.4347826086956522
 40
0.4347826086956522
 40
0.4782608695652174
 40
0.4782608695652174
 40
0.4782608695652174
 40
0.4782608695652174
 40
0.5217391304347826
 40
0.5217391304347826
 40
0.5217391304347826
 40
0.5217391304347826
 40
0.5652173913043478
 40
0.5652173913043478
 40
0.5652173913043478
 40
0.5652173913043478
 40
0.6086956521739131
 40
0.6086956521739131
 40
0.6086956521739131
 40
0.6086956521739131
 40
0.6521739130434783
 40
0.6521739130434783
 40
0.6521739130434783
 40
0.6521739130434783
 40
0.6956521739130435
 40
0.6956521739130435
 40
0.6956521739130435
 40
0.6956521739130435
 40
0.7391304347826086
 40
0.7391304347826086
 40
0.7391304347826086
 40
0.7391304347826086
 40
0.782608695652174
 40
0.782608695652174
 40
0.782608695652174
 40
0.782608695652174
 40
0.8260869565217391
 40
0.8260869565217391
 40
0.8260869565217391
 40
0.8260869565217391
 40
0.8695652173913043
 40
0.8695652173913043
 40
0.8695652173913043
 40
0.8695652173913043
 40
0.9130434782608695
 40
0.9130434782608695
 40
0.9130434782608695
 40
0.9130434782608695
 40
1.0
 40
1.0
 40
1.0
 40
1.0
 10
6.70274
 20
12.44994
 30
0.0
 10
6.70274
 20
12.44994
 30
0.0
 10
6.73231
 20
12.44994
 30
0.0
 10
6.73231
 20
12.44994
 30
0.0
 10
6.73231
 20
12.44994
 30
0.0
 10
6.73231
 20
12.44994
 30
0.0
 10
6.73231
 20
12.28434
 30
0.0
 10
6.73231
 20
12.28434
 30
0.0
 10
6.73231
 20
12.28434
 30
0.0
 10
6.7249
 20
12.2841
 30
0.0
 10
6.71779
 20
12.28527
 30
0.0
 10
6.71096
 20
12.28789
 30
0.0
 10
6.71096
 20
12.28789
 30
0.0
 10
6.69964
 20
12.29209
 30
0.0
 10
6.68856
 20
12.29886
 30
0.0
 10
6.67765
 20
12.30814
 30
0.0
 10
6.67765
 20
12.30814
 30
0.0
 10
6.66669
 20
12.31747
 30
0.0
 10
6.65403
 20
12.33089
 30
0.0
 10
6.63968
 20
12.34839
 30
0.0
 10
6.63968
 20
12.34839
 30
0.0
 10
6.61734
 20
12.37563
 30
0.0
 10
6.59966
 20
12.39406
 30
0.0
 10
6.58659
 20
12.40363
 30
0.0
 10
6.58659
 20
12.40363
 30
0.0
 10
6.57359
 20
12.41319
 30
0.0
 10
6.56122
 20
12.41798
 30
0.0
 10
6.54961
 20
12.41798
 30
0.0
 10
6.54961
 20
12.41798
 30
0.0
 10
6.53742
 20
12.41798
 30
0.0
 10
6.52715
 20
12.4136
 30
0.0
 10
6.51875
 20
12.40491
 30
0.0
 10
6.51875
 20
12.40491
 30
0.0
 10
6.51041
 20
12.39616
 30
0.0
 10
6.50621
 20
12.38479
 30
0.0
 10
6.50621
 20
12.37079
 30
0.0
 10
6.50621
 20
12.37079
 30
0.0
 10
6.50621
 20
12.35597
 30
0.0
 10
6.51064
 20
12.34413
 30
0.0
 10
6.51957
 20
12.33526
 30
0.0
 10
6.51957
 20
12.33526
 30
0.0
 10
6.52844
 20
12.32634
 30
0.0
 10
6.54074
 20
12.32184
 30
0.0
 10
6.55644
 20
12.32173
 30
0.0
 10
6.55644
 20
12.32173
 30
0.0
 10
6.55644
 20
12.32173
 30
0.0
 10
6.55323
 20
12.29011
 30
0.0
 10
6.55323
 20
12.29011
 30
0.0
 10
6.55323
 20
12.29011
 30
0.0
 10
6.5296
 20
12.29227
 30
0.0
 10
6.51164
 20
12.30044
 30
0.0
 10
6.49927
 20
12.31455
 30
0.0
 10
6.49927
 20
12.31455
 30
0.0
 10
6.4869
 20
12.32867
 30
0.0
 10
6.48078
 20
12.34769
 30
0.0
 10
6.48078
 20
12.37149
 30
0.0
 10
6.48078
 20
12.37149
 30
0.0
 10
6.48078
 20
12.39552
 30
0.0
 10
6.48743
 20
12.41454
 30
0.0
 10
6.50073
 20
12.42854
 30
0.0
 10
6.50073
 20
12.42854
 30
0.0
 10
6.51409
 20
12.44259
 30
0.0
 10
6.53059
 20
12.44959
 30
0.0
 10
6.55031
 20
12.44959
 30
0.0
 10
6.55031
 20
12.44959
 30
0.0
 10
6.56034
 20
12.44959
 30
0.0
 10
6.5702
 20
12.44755
 30
0.0
 10
6.57989
 20
12.44341
 30
0.0
 10
6.57989
 20
12.44341
 30
0.0
 10
6.58957
 20
12.43933
 30
0.0
 10
6.59978
 20
12.4325
 30
0.0
 10
6.61045
 20
12.42299
 30
0.0
 10
6.61045
 20
12.42299
 30
0.0
 10
6.62119
 20
12.41349
 30
0.0
 10
6.63589
 20
12.39768
 30
0.0
 10
6.65455
 20
12.37557
 30
0.0
 10
6.65455
 20
12.37557
 30
0.0
 10
6.67007
 20
12.35714
 30
0.0
 10
6.68057
 20
12.34529
 30
0.0
 10
6.68611
 20
12.34004
 30
0.0
 10
6.68611
 20
12.34004
 30
0.0
 10
6.69159
 20
12.33479
 30
0.0
 10
6.69714
 20
12.33048
 30
0.0
 10
6.70274
 20
12.32704
 30
0.0
 10
6.70274
 20
12.32704
 30
0.0
 10
6.70274
 20
12.32704
 30
0.0
 10
6.70274
 20
12.44994
 30
0.0
 10
6.70274
 20
12.44994
 30
0.0
  0
SPLINE
  5
7D
330
1F
100
AcDbEntity
  8
0
100
AcDbSpline
210
0.0
220
0.0
230
1.0
 70
    11
 71
     3
 72
    52
 73
    48
 74
     0
 42
0.0000000001
 43
0.0000000001
 40
0.0
 40
0.0
 40
0.0
 40
0.0
 40
0.0769230769230769
 40
0.0769230769230769
 40
0.0769230769230769
 40
0.0769230769230769
 40
0.1538461538461539
 40
0.1538461538461539
 40
0.1538461538461539
 40
0.1538461538461539
 40
0.2307692307692308
 40
0.2307692307692308
 40
0.2307692307692308
 40
0.2307692307692308
 40
0.3076923076923077
 40
0.3076923076923077
 40
0.3076923076923077
 40
0.3076923076923077
 40
0.3846153846153846
 40
0.3846153846153846
 40
0.3846153846153846
 40
0.3846153846153846
 40
0.4615384615384616
 40
0.4615384615384616
 40
0.4615384615384616
 40
0.4615384615384616
 40
0.5384615384615384
 40
0.5384615384615384
 40
0.5384615384615384
 40
0.5384615384615384
 40
0.6153846153846154
 40
0.6153846153846154
 40
0.6153846153846154
 40
0.6153846153846154
 40
0.6923076923076923
 40
0.6923076923076923
 40
0.6923076923076923
 40
0.6923076923076923
 40
0.7692307692307693
 40
0.7692307692307693
 40
0.7692307692307693
 40
0.7692307692307693
 40
0.8461538461538461
 40
0.8461538461538461
 40
0.8461538461538461
 40
0.8461538461538461
 40
1.0
 40
1.0
 40
1.0
 40
1.0
 10
6.60876
 20
12.4829
 30
0.0
 10
6.57913
 20
12.4829
 30
0.0
 10
6.55527
 20
12.48594
 30
0.0
 10
6.53724
 20
12.49206
 30
0.0
 10
6.53724
 20
12.49206
 30
0.0
 10
6.51916
 20
12.49813
 30
0.0
 10
6.50522
 20
12.50723
 30
0.0
 10
6.49542
 20
12.51925
 30
0.0
 10
6.49542
 20
12.51925
 30
0.0
 10
6.48562
 20
12.53126
 30
0.0
 10
6.48078
 20
12.54637
 30
0.0
 10
6.48078
 20
12.56457
 30
0.0
 10
6.48078
 20
12.56457
 30
0.0
 10
6.48078
 20
12.57805
 30
0.0
 10
6.48346
 20
12.58983
 30
0.0
 10
6.48889
 20
12.59998
 30
0.0
 10
6.48889
 20
12.59998
 30
0.0
 10
6.49425
 20
12.61013
 30
0.0
 10
6.50207
 20
12.61847
 30
0.0
 10
6.51228
 20
12.62512
 30
0.0
 10
6.51228
 20
12.62512
 30
0.0
 10
6.52249
 20
12.63171
 30
0.0
 10
6.53491
 20
12.6369
 30
0.0
 10
6.54955
 20
12.64064
 30
0.0
 10
6.54955
 20
12.64064
 30
0.0
 10
6.56419
 20
12.64443
 30
0.0
 10
6.58391
 20
12.6463
 30
0.0
 10
6.60876
 20
12.6463
 30
0.0
 10
6.60876
 20
12.6463
 30
0.0
 10
6.63816
 20
12.6463
 30
0.0
 10
6.66184
 20
12.64326
 30
0.0
 10
6.67993
 20
12.63725
 30
0.0
 10
6.67993
 20
12.63725
 30
0.0
 10
6.69801
 20
12.63119
 30
0.0
 10
6.71195
 20
12.62215
 30
0.0
 10
6.72181
 20
12.61013
 30
0.0
 10
6.72181
 20
12.61013
 30
0.0
 10
6.73167
 20
12.59811
 30
0.0
 10
6.73657
 20
12.58295
 30
0.0
 10
6.73657
 20
12.56457
 30
0.0
 10
6.73657
 20
12.56457
 30
0.0
 10
6.73657
 20
12.54042
 30
0.0
 10
6.72794
 20
12.52146
 30
0.0
 10
6.71061
 20
12.5077
 30
0.0
 10
6.71061
 20
12.5077
 30
0.0
 10
6.68979
 20
12.49119
 30
0.0
 10
6.65578
 20
12.4829
 30
0.0
 10
6.60876
 20
12.4829
 30
0.0
  0
SPLINE
  5
7E
330
1F
100
AcDbEntity
  8
0
100
AcDbSpline
210
0.0
220
0.0
230
1.0
 70
    11
 71
     3
 72
    36
 73
    32
 74
     0
 42
0.0000000001
 43
0.0000000001
 40
0.0
 40
0.0
 40
0.0
 40
0.0
 40
0.1111111111111111
 40
0.1111111111111111
 40
0.1111111111111111
 40
0.1111111111111111
 40
0.2222222222222222
 40
0.2222222222222222
 40
0.2222222222222222
 40
0.2222222222222222
 40
0.3333333333333333
 40
0.3333333333333333
 40
0.3333333333333333
 40
0.3333333333333333
 40
0.4444444444444444
 40
0.4444444444444444
 40
0.4444444444444444
 40
0.4444444444444444
 40
0.5555555555555556
 40
0.5555555555555556
 40
0.5555555555555556
 40
0.5555555555555556
 40
0.6666666666666666
 40
0.6666666666666666
 40
0.6666666666666666
 40
0.6666666666666666
 40
0.7777777777777778
 40
0.7777777777777778
 40
0.7777777777777778
 40
0.7777777777777778
 40
1.0
 40
1.0
 40
1.0
 40
1.0
 10
6.60876
 20
12.51452
 30
0.0
 10
6.64989
 20
12.51452
 30
0.0
 10
6.67724
 20
12.51936
 30
0.0
 10
6.69089
 20
12.52899
 30
0.0
 10
6.69089
 20
12.52899
 30
0.0
 10
6.70449
 20
12.53861
 30
0.0
 10
6.71131
 20
12.55045
 30
0.0
 10
6.71131
 20
12.56457
 30
0.0
 10
6.71131
 20
12.56457
 30
0.0
 10
6.71131
 20
12.57875
 30
0.0
 10
6.70443
 20
12.59059
 30
0.0
 10
6.69078
 20
12.60021
 30
0.0
 10
6.69078
 20
12.60021
 30
0.0
 10
6.67713
 20
12.60984
 30
0.0
 10
6.64977
 20
12.61468
 30
0.0
 10
6.60876
 20
12.61468
 30
0.0
 10
6.60876
 20
12.61468
 30
0.0
 10
6.56752
 20
12.61468
 30
0.0
 10
6.5401
 20
12.60984
 30
0.0
 10
6.52657
 20
12.60021
 30
0.0
 10
6.52657
 20
12.60021
 30
0.0
 10
6.51298
 20
12.59059
 30
0.0
 10
6.50621
 20
12.57863
 30
0.0
 10
6.50621
 20
12.56428
 30
0.0
 10
6.50621
 20
12.56428
 30
0.0
 10
6.50621
 20
12.5501
 30
0.0
 10
6.51222
 20
12.53885
 30
0.0
 10
6.52418
 20
12.53039
 30
0.0
 10
6.52418
 20
12.53039
 30
0.0
 10
6.5394
 20
12.51983
 30
0.0
 10
6.56764
 20
12.51452
 30
0.0
 10
6.60876
 20
12.51452
 30
0.0
  0
SPLINE
  5
7F
330
1F
100
AcDbEntity
  8
0
370
    15
100
AcDbSpline
210
0.0
220
0.0
230
1.0
 70
    24
 71
     3
 72
     8
 73
     4
 74
     0
 42
0.0000000001
 43
0.0000000001
 40
0.0
 40
0.0
 40
0.0
 40
0.0
 40
1.0
 40
1.0
 40
1.0
 40
1.0
 10
11.63925
 20
11.41412
 30
0.0
 10
11.63925
 20
11.41412
 30
0.0
 10
11.63925
 20
11.43079
 30
0.0
 10
11.63925
 20
11.43079
 30
0.0
  0
SPLINE
  5
80
330
1F
100
AcDbEntity
  8
0
370
    15
100
AcDbSpline
210
0.0
220
0.0
230
1.0
 70
    24
 71
     3
 72
     8
 73
     4
 74
     0
 42
0.0000000001
 43
0.0000000001
 40
0.0
 40
0.0
 40
0.0
 40
0.0
 40
1.0
 40
1.0
 40
1.0
 40
1.0
 10
11.30591
 20
11.43079
 30
0.0
 10
11.30591
 20
11.43079
 30
0.0
 10
11.30591
 20
11.41412
 30
0.0
 10
11.30591
 20
11.41412
 30
0.0
  0
SPLINE
  5
81
330
1F
100
AcDbEntity
  8
0
370
    15
100
AcDbSpline
210
0.0
220
0.0
230
1.0
 70
    24
 71
     3
 72
     8
 73
     4
 74
     0
 42
0.0000000001
 43
0.0000000001
 40
0.0
 40
0.0
 40
0.0
 40
0.0
 40
1.0
 40
1.0
 40
1.0
 40
1.0
 10
14.80591
 20
11.68079
 30
0.0
 10
14.80591
 20
11.68079
 30
0.0
 10
11.20591
 20
11.68079
 30
0.0
 10
11.20591
 20
11.68079
 30
0.0
  0
SPLINE
  5
82
330
1F
100
AcDbEntity
  8
0
370
    15
100
AcDbSpline
210
0.0
220
0.0
230
1.0
 70
    24
 71
     3
 72
     8
 73
     4
 74
     0
 42
0.0000000001
 43
0.0000000001
 40
0.0
 40
0.0
 40
0.0
 40
0.0
 40
1.0
 40
1.0
 40
1.0
 40
1.0
 10
11.20591
 20
11.68079
 30
0.0
 10
11.20591
 20
11.68079
 30
0.0
 10
11.22258
 20
11.69746
 30
0.0
 10
11.22258
 20
11.69746
 30
0.0
  0
SPLINE
  5
83
330
1F
100
AcDbEntity
  8
0
370
    15
100
AcDbSpline
210
0.0
220
0.0
230
1.0
 70
    24
 71
     3
 72
     8
 73
     4
 74
     0
 42
0.0000000001
 43
0.0000000001
 40
0.0
 40
0.0
 40
0.0
 40
0.0
 40
1.0
 40
1.0
 40
1.0
 40
1.0
 10
11.80591
 20
11.69746
 30
0.0
 10
11.80591
 20
11.69746
 30
0.0
 10
14.80591
 20
11.69746
 30
0.0
 10
14.80591
 20
11.69746
 30
0.0
  0
SPLINE
  5
84
330
1F
100
AcDbEntity
  8
0
370
    15
100
AcDbSpline
210
0.0
220
0.0
230
1.0
 70
    24
 71
     3
 72
     8
 73
     4
 74
     0
 42
0.0000000001
 43
0.0000000001
 40
0.0
 40
0.0
 40
0.0
 40
0.0
 40
1.0
 40
1.0
 40
1.0
 40
1.0
 10
14.80591
 20
11.68079
 30
0.0
 10
14.80591
 20
11.68079
 30
0.0
 10
14.80591
 20
11.69746
 30
0.0
 10
14.80591
 20
11.69746
 30
0.0
  0
SPLINE
  5
85
330
1F
100
AcDbEntity
  8
0
370
    15
100
AcDbSpline
210
0.0
220
0.0
230
1.0
 70
    24
 71
     3
 72
     8
 73
     4
 74
     0
 42
0.0000000001
 43
0.0000000001
 40
0.0
 40
0.0
 40
0.0
 40
0.0
 40
1.0
 40
1.0
 40
1.0
 40
1.0
 10
15.18925
 20
11.43079
 30
0.0
 10
15.18925
 20
11.43079
 30
0.0
 10
14.80591
 20
11.43079
 30
0.0
 10
14.80591
 20
11.43079
 30
0.0
  0
SPLINE
  5
86
330
1F
100
AcDbEntity
  8
0
370
    15
100
AcDbSpline
210
0.0
220
0.0
230
1.0
 70
    24
 71
     3
 72
     8
 73
     4
 74
     0
 42
0.0000000001
 43
0.0000000001
 40
0.0
 40
0.0
 40
0.0
 40
0.0
 40
1.0
 40
1.0
 40
1.0
 40
1.0
 10
14.80591
 20
11.43079
 30
0.0
 10
14.80591
 20
11.43079
 30
0.0
 10
14.80591
 20
11.44746
 30
0.0
 10
14.80591
 20
11.44746
 30
0.0
  0
SPLINE
  5
87
330
1F
100
AcDbEntity
  8
0
370
    15
100
AcDbSpline
210
0.0
220
0.0
230
1.0
 70
    24
 71
     3
 72
     8
 73
     4
 74
     0
 42
0.0000000001
 43
0.0000000001
 40
0.0
 40
0.0
 40
0.0
 40
0.0
 40
1.0
 40
1.0
 40
1.0
 40
1.0
 10
14.80591
 20
11.44746
 30
0.0
 10
14.80591
 20
11.44746
 30
0.0
 10
15.20591
 20
11.44746
 30
0.0
 10
15.20591
 20
11.44746
 30
0.0
  0
SPLINE
  5
88
330
1F
100
AcDbEntity
  8
0
370
    15
100
AcDbSpline
210
0.0
220
0.0
230
1.0
 70
    24
 71
     3
 72
     8
 73
     4
 74
     0
 42
0.0000000001
 43
0.0000000001
 40
0.0
 40
0.0
 40
0.0
 40
0.0
 40
1.0
 40
1.0
 40
1.0
 40
1.0
 10
15.18925
 20
11.43079
 30
0.0
 10
15.18925
 20
11.43079
 30
0.0
 10
15.20591
 20
11.44746
 30
0.0
 10
15.20591
 20
11.44746
 30
0.0
  0
SPLINE
  5
89
330
1F
100
AcDbEntity
  8
0
370
    15
100
AcDbSpline
210
0.0
220
0.0
230
1.0
 70
    24
 71
     3
 72
     8
 73
     4
 74
     0
 42
0.0000000001
 43
0.0000000001
 40
0.0
 40
0.0
 40
0.0
 40
0.0
 40
1.0
 40
1.0
 40
1.0
 40
1.0
 10
14.80591
 20
11.43079
 30
0.0
 10
14.80591
 20
11.43079
 30
0.0
 10
11.22258
 20
11.43079
 30
0.0
 10
11.22258
 20
11.43079
 30
0.0
  0
SPLINE
  5
8A
330
1F
100
AcDbEntity
  8
0
370
    15
100
AcDbSpline
210
0.0
220
0.0
230
1.0
 70
    24
 71
     3
 72
     8
 73
     4
 74
     0
 42
0.0000000001
 43
0.0000000001
 40
0.0
 40
0.0
 40
0.0
 40
0.0
 40
1.0
 40
1.0
 40
1.0
 40
1.0
 10
11.22258
 20
11.43079
 30
0.0
 10
11.22258
 20
11.43079
 30
0.0
 10
11.20591
 20
11.44746
 30
0.0
 10
11.20591
 20
11.44746
 30
0.0
  0
SPLINE
  5
8B
330
1F
100
AcDbEntity
  8
0
370
    15
100
AcDbSpline
210
0.0
220
0.0
230
1.0
 70
    24
 71
     3
 72
     8
 73
     4
 74
     0
 42
0.0000000001
 43
0.0000000001
 40
0.0
 40
0.0
 40
0.0
 40
0.0
 40
1.0
 40
1.0
 40
1.0
 40
1.0
 10
11.20591
 20
11.44746
 30
0.0
 10
11.20591
 20
11.44746
 30
0.0
 10
14.80591
 20
11.44746
 30
0.0
 10
14.80591
 20
11.44746
 30
0.0
  0
SPLINE
  5
8C
330
1F
100
AcDbEntity
  8
0
370
    15
100
AcDbSpline
210
0.0
220
0.0
230
1.0
 70
    24
 71
     3
 72
     8
 73
     4
 74
     0
 42
0.0000000001
 43
0.0000000001
 40
0.0
 40
0.0
 40
0.0
 40
0.0
 40
1.0
 40
1.0
 40
1.0
 40
1.0
 10
14.80591
 20
11.44746
 30
0.0
 10
14.80591
 20
11.44746
 30
0.0
 10
14.80591
 20
11.68079
 30
0.0
 10
14.80591
 20
11.68079
 30
0.0
  0
SPLINE
  5
8D
330
1F
100
AcDbEntity
  8
0
370
    15
100
AcDbSpline
210
0.0
220
0.0
230
1.0
 70
    24
 71
     3
 72
     8
 73
     4
 74
     0
 42
0.0000000001
 43
0.0000000001
 40
0.0
 40
0.0
 40
0.0
 40
0.0
 40
1.0
 40
1.0
 40
1.0
 40
1.0
 10
11.20591
 20
11.68079
 30
0.0
 10
11.20591
 20
11.68079
 30
0.0
 10
11.20591
 20
11.44746
 30
0.0
 10
11.20591
 20
11.44746
 30
0.0
  0
SPLINE
  5
8E
330
1F
100
AcDbEntity
  8
0
370
    15
100
AcDbSpline
210
0.0
220
0.0
230
1.0
 70
    24
 71
     3
 72
     8
 73
     4
 74
     0
 42
0.0000000001
 43
0.0000000001
 40
0.0
 40
0.0
 40
0.0
 40
0.0
 40
1.0
 40
1.0
 40
1.0
 40
1.0
 10
15.20591
 20
11.68079
 30
0.0
 10
15.20591
 20
11.68079
 30
0.0
 10
14.80591
 20
11.68079
 30
0.0
 10
14.80591
 20
11.68079
 30
0.0
  0
SPLINE
  5
8F
330
1F
100
AcDbEntity
  8
0
370
    15
100
AcDbSpline
210
0.0
220
0.0
230
1.0
 70
    24
 71
     3
 72
     8
 73
     4
 74
     0
 42
0.0000000001
 43
0.0000000001
 40
0.0
 40
0.0
 40
0.0
 40
0.0
 40
1.0
 40
1.0
 40
1.0
 40
1.0
 10
14.80591
 20
11.69746
 30
0.0
 10
14.80591
 20
11.69746
 30
0.0
 10
15.18925
 20
11.69746
 30
0.0
 10
15.18925
 20
11.69746
 30
0.0
  0
SPLINE
  5
90
330
1F
100
AcDbEntity
  8
0
370
    15
100
AcDbSpline
210
0.0
220
0.0
230
1.0
 70
    24
 71
     3
 72
     8
 73
     4
 74
     0
 42
0.0000000001
 43
0.0000000001
 40
0.0
 40
0.0
 40
0.0
 40
0.0
 40
1.0
 40
1.0
 40
1.0
 40
1.0
 10
15.20591
 20
11.68079
 30
0.0
 10
15.20591
 20
11.68079
 30
0.0
 10
15.18925
 20
11.69746
 30
0.0
 10
15.18925
 20
11.69746
 30
0.0
  0
SPLINE
  5
91
330
1F
100
AcDbEntity
  8
0
370
    15
100
AcDbSpline
210
0.0
220
0.0
230
1.0
 70
    24
 71
     3
 72
     8
 73
     4
 74
     0
 42
0.0000000001
 43
0.0000000001
 40
0.0
 40
0.0
 40
0.0
 40
0.0
 40
1.0
 40
1.0
 40
1.0
 40
1.0
 10
15.20591
 20
11.68079
 30
0.0
 10
15.20591
 20
11.68079
 30
0.0
 10
15.20591
 20
11.44746
 30
0.0
 10
15.20591
 20
11.44746
 30
0.0
  0
SPLINE
  5
92
330
1F
100
AcDbEntity
  8
0
370
    15
100
AcDbSpline
210
0.0
220
0.0
230
1.0
 70
    24
 71
     3
 72
     8
 73
     4
 74
     0
 42
0.0000000001
 43
0.0000000001
 40
0.0
 40
0.0
 40
0.0
 40
0.0
 40
1.0
 40
1.0
 40
1.0
 40
1.0
 10
11.80591
 20
11.69746
 30
0.0
 10
11.80591
 20
11.69746
 30
0.0
 10
11.80591
 20
11.84746
 30
0.0
 10
11.80591
 20
11.84746
 30
0.0
  0
SPLINE
  5
93
330
1F
100
AcDbEntity
  8
0
370
    15
100
AcDbSpline
210
0.0
220
0.0
230
1.0
 70
    24
 71
     3
 72
     8
 73
     4
 74
     0
 42
0.0000000001
 43
0.0000000001
 40
0.0
 40
0.0
 40
0.0
 40
0.0
 40
1.0
 40
1.0
 40
1.0
 40
1.0
 10
11.20591
 20
11.69746
 30
0.0
 10
11.20591
 20
11.69746
 30
0.0
 10
11.80591
 20
11.69746
 30
0.0
 10
11.80591
 20
11.69746
 30
0.0
  0
SPLINE
  5
94
330
1F
100
AcDbEntity
  8
0
370
    15
100
AcDbSpline
210
0.0
220
0.0
230
1.0
 70
    24
 71
     3
 72
     8
 73
     4
 74
     0
 42
0.0000000001
 43
0.0000000001
 40
0.0
 40
0.0
 40
0.0
 40
0.0
 40
1.0
 40
1.0
 40
1.0
 40
1.0
 10
11.20591
 20
11.41412
 30
0.0
 10
11.20591
 20
11.41412
 30
0.0
 10
11.20591
 20
11.69746
 30
0.0
 10
11.20591
 20
11.69746
 30
0.0
  0
SPLINE
  5
95
330
1F
100
AcDbEntity
  8
0
370
    15
100
AcDbSpline
210
0.0
220
0.0
230
1.0
 70
    24
 71
     3
 72
     8
 73
     4
 74
     0
 42
0.0000000001
 43
0.0000000001
 40
0.0
 40
0.0
 40
0.0
 40
0.0
 40
1.0
 40
1.0
 40
1.0
 40
1.0
 10
11.80591
 20
11.18079
 30
0.0
 10
11.80591
 20
11.18079
 30
0.0
 10
11.80591
 20
11.41412
 30
0.0
 10
11.80591
 20
11.41412
 30
0.0
  0
SPLINE
  5
96
330
1F
100
AcDbEntity
  8
0
370
    15
100
AcDbSpline
210
0.0
220
0.0
230
1.0
 70
    24
 71
     3
 72
     8
 73
     4
 74
     0
 42
0.0000000001
 43
0.0000000001
 40
0.0
 40
0.0
 40
0.0
 40
0.0
 40
1.0
 40
1.0
 40
1.0
 40
1.0
 10
10.97258
 20
11.18079
 30
0.0
 10
10.97258
 20
11.18079
 30
0.0
 10
11.80591
 20
11.18079
 30
0.0
 10
11.80591
 20
11.18079
 30
0.0
  0
SPLINE
  5
97
330
1F
100
AcDbEntity
  8
0
370
    15
100
AcDbSpline
210
0.0
220
0.0
230
1.0
 70
    24
 71
     3
 72
     8
 73
     4
 74
     0
 42
0.0000000001
 43
0.0000000001
 40
0.0
 40
0.0
 40
0.0
 40
0.0
 40
1.0
 40
1.0
 40
1.0
 40
1.0
 10
10.97258
 20
11.84746
 30
0.0
 10
10.97258
 20
11.84746
 30
0.0
 10
10.97258
 20
11.18079
 30
0.0
 10
10.97258
 20
11.18079
 30
0.0
  0
SPLINE
  5
98
330
1F
100
AcDbEntity
  8
0
370
    15
100
AcDbSpline
210
0.0
220
0.0
230
1.0
 70
    24
 71
     3
 72
     8
 73
     4
 74
     0
 42
0.0000000001
 43
0.0000000001
 40
0.0
 40
0.0
 40
0.0
 40
0.0
 40
1.0
 40
1.0
 40
1.0
 40
1.0
 10
11.80591
 20
11.84746
 30
0.0
 10
11.80591
 20
11.84746
 30
0.0
 10
10.97258
 20
11.84746
 30
0.0
 10
10.97258
 20
11.84746
 30
0.0
  0
SPLINE
  5
99
330
1F
100
AcDbEntity
  8
0
370
    15
100
AcDbSpline
210
0.0
220
0.0
230
1.0
 70
    24
 71
     3
 72
     8
 73
     4
 74
     0
 42
0.0000000001
 43
0.0000000001
 40
0.0
 40
0.0
 40
0.0
 40
0.0
 40
1.0
 40
1.0
 40
1.0
 40
1.0
 10
11.80591
 20
11.41412
 30
0.0
 10
11.80591
 20
11.41412
 30
0.0
 10
11.20591
 20
11.41412
 30
0.0
 10
11.20591
 20
11.41412
 30
0.0
  0
SPLINE
  5
9A
330
1F
100
AcDbEntity
  8
0
100
AcDbSpline
210
0.0
220
0.0
230
1.0
 70
    27
 71
     3
 72
    12
 73
     8
 74
     0
 42
0.0000000001
 43
0.0000000001
 40
0.0
 40
0.0
 40
0.0
 40
0.0
 40
0.3333333333333333
 40
0.3333333333333333
 40
0.3333333333333333
 40
0.3333333333333333
 40
1.0
 40
1.0
 40
1.0
 40
1.0
 10
15.20591
 20
10.69855
 30
0.0
 10
15.20591
 20
10.69855
 30
0.0
 10
14.87571
 20
10.64775
 30
0.0
 10
14.87571
 20
10.64775
 30
0.0
 10
14.87571
 20
10.64775
 30
0.0
 10
14.87571
 20
10.64775
 30
0.0
 10
15.20591
 20
10.69855
 30
0.0
 10
15.20591
 20
10.69855
 30
0.0
  0
SPLINE
  5
9B
330
1F
100
AcDbEntity
  8
0
100
AcDbSpline
210
0.0
220
0.0
230
1.0
 70
     8
 71
     3
 72
    12
 73
     8
 74
     0
 42
0.0000000001
 43
0.0000000001
 40
0.0
 40
0.0
 40
0.0
 40
0.0
 40
0.3333333333333333
 40
0.3333333333333333
 40
0.3333333333333333
 40
0.3333333333333333
 40
1.0
 40
1.0
 40
1.0
 40
1.0
 10
14.87571
 20
10.64775
 30
0.0
 10
14.87571
 20
10.64775
 30
0.0
 10
14.87571
 20
10.74935
 30
0.0
 10
14.87571
 20
10.74935
 30
0.0
 10
14.87571
 20
10.74935
 30
0.0
 10
14.87571
 20
10.74935
 30
0.0
 10
15.20591
 20
10.69855
 30
0.0
 10
15.20591
 20
10.69855
 30
0.0
  0
SPLINE
  5
9C
330
1F
100
AcDbEntity
  8
0
370
     9
100
AcDbSpline
210
0.0
220
0.0
230
1.0
 70
    24
 71
     3
 72
     8
 73
     4
 74
     0
 42
0.0000000001
 43
0.0000000001
 40
0.0
 40
0.0
 40
0.0
 40
0.0
 40
1.0
 40
1.0
 40
1.0
 40
1.0
 10
15.20591
 20
10.69855
 30
0.0
 10
15.20591
 20
10.69855
 30
0.0
 10
14.87571
 20
10.64775
 30
0.0
 10
14.87571
 20
10.64775
 30
0.0
  0
SPLINE
  5
9D
330
1F
100
AcDbEntity
  8
0
370
     9
100
AcDbSpline
210
0.0
220
0.0
230
1.0
 70
     8
 71
     3
 72
    12
 73
     8
 74
     0
 42
0.0000000001
 43
0.0000000001
 40
0.0
 40
0.0
 40
0.0
 40
0.0
 40
0.3333333333333333
 40
0.3333333333333333
 40
0.3333333333333333
 40
0.3333333333333333
 40
1.0
 40
1.0
 40
1.0
 40
1.0
 10
14.87571
 20
10.64775
 30
0.0
 10
14.87571
 20
10.64775
 30
0.0
 10
14.87571
 20
10.74935
 30
0.0
 10
14.87571
 20
10.74935
 30
0.0
 10
14.87571
 20
10.74935
 30
0.0
 10
14.87571
 20
10.74935
 30
0.0
 10
15.20591
 20
10.69855
 30
0.0
 10
15.20591
 20
10.69855
 30
0.0
  0
SPLINE
  5
9E
330
1F
100
AcDbEntity
  8
0
100
AcDbSpline
210
0.0
220
0.0
230
1.0
 70
    27
 71
     3
 72
    12
 73
     8
 74
     0
 42
0.0000000001
 43
0.0000000001
 40
0.0
 40
0.0
 40
0.0
 40
0.0
 40
0.3333333333333333
 40
0.3333333333333333
 40
0.3333333333333333
 40
0.3333333333333333
 40
1.0
 40
1.0
 40
1.0
 40
1.0
 10
11.20591
 20
10.69855
 30
0.0
 10
11.20591
 20
10.69855
 30
0.0
 10
11.53611
 20
10.74935
 30
0.0
 10
11.53611
 20
10.74935
 30
0.0
 10
11.53611
 20
10.74935
 30
0.0
 10
11.53611
 20
10.74935
 30
0.0
 10
11.20591
 20
10.69855
 30
0.0
 10
11.20591
 20
10.69855
 30
0.0
  0
SPLINE
  5
9F
330
1F
100
AcDbEntity
  8
0
100
AcDbSpline
210
0.0
220
0.0
230
1.0
 70
     8
 71
     3
 72
    12
 73
     8
 74
     0
 42
0.0000000001
 43
0.0000000001
 40
0.0
 40
0.0
 40
0.0
 40
0.0
 40
0.3333333333333333
 40
0.3333333333333333
 40
0.3333333333333333
 40
0.3333333333333333
 40
1.0
 40
1.0
 40
1.0
 40
1.0
 10
11.53611
 20
10.74935
 30
0.0
 10
11.53611
 20
10.74935
 30
0.0
 10
11.53611
 20
10.64775
 30
0.0
 10
11.53611
 20
10.64775
 30
0.0
 10
11.53611
 20
10.64775
 30
0.0
 10
11.53611
 20
10.64775
 30
0.0
 10
11.20591
 20
10.69855
 30
0.0
 10
11.20591
 20
10.69855
 30
0.0
  0
SPLINE
  5
A0
330
1F
100
AcDbEntity
  8
0
370
     9
100
AcDbSpline
210
0.0
220
0.0
230
1.0
 70
    24
 71
     3
 72
     8
 73
     4
 74
     0
 42
0.0000000001
 43
0.0000000001
 40
0.0
 40
0.0
 40
0.0
 40
0.0
 40
1.0
 40
1.0
 40
1.0
 40
1.0
 10
11.20591
 20
10.69855
 30
0.0
 10
11.20591
 20
10.69855
 30
0.0
 10
11.53611
 20
10.74935
 30
0.0
 10
11.53611
 20
10.74935
 30
0.0
  0
SPLINE
  5
A1
330
1F
100
AcDbEntity
  8
0
370
     9
100
AcDbSpline
210
0.0
220
0.0
230
1.0
 70
     8
 71
     3
 72
    12
 73
     8
 74
     0
 42
0.0000000001
 43
0.0000000001
 40
0.0
 40
0.0
 40
0.0
 40
0.0
 40
0.3333333333333333
 40
0.3333333333333333
 40
0.3333333333333333
 40
0.3333333333333333
 40
1.0
 40
1.0
 40
1.0
 40
1.0
 10
11.53611
 20
10.74935
 30
0.0
 10
11.53611
 20
10.74935
 30
0.0
 10
11.53611
 20
10.64775
 30
0.0
 10
11.53611
 20
10.64775
 30
0.0
 10
11.53611
 20
10.64775
 30
0.0
 10
11.53611
 20
10.64775
 30
0.0
 10
11.20591
 20
10.69855
 30
0.0
 10
11.20591
 20
10.69855
 30
0.0
  0
SPLINE
  5
A2
330
1F
100
AcDbEntity
  8
0
370
     9
100
AcDbSpline
210
0.0
220
0.0
230
1.0
 70
    24
 71
     3
 72
     8
 73
     4
 74
     0
 42
0.0000000001
 43
0.0000000001
 40
0.0
 40
0.0
 40
0.0
 40
0.0
 40
1.0
 40
1.0
 40
1.0
 40
1.0
 10
15.20591
 20
11.34746
 30
0.0
 10
15.20591
 20
11.34746
 30
0.0
 10
15.20591
 20
10.59855
 30
0.0
 10
15.20591
 20
10.59855
 30
0.0
  0
SPLINE
  5
A3
330
1F
100
AcDbEntity
  8
0
370
     9
100
AcDbSpline
210
0.0
220
0.0
230
1.0
 70
    24
 71
     3
 72
     8
 73
     4
 74
     0
 42
0.0000000001
 43
0.0000000001
 40
0.0
 40
0.0
 40
0.0
 40
0.0
 40
1.0
 40
1.0
 40
1.0
 40
1.0
 10
11.20591
 20
11.34746
 30
0.0
 10
11.20591
 20
11.34746
 30
0.0
 10
11.20591
 20
10.59855
 30
0.0
 10
11.20591
 20
10.59855
 30
0.0
  0
SPLINE
  5
A4
330
1F
100
AcDbEntity
  8
0
370
     9
100
AcDbSpline
210
0.0
220
0.0
230
1.0
 70
    24
 71
     3
 72
     8
 73
     4
 74
     0
 42
0.0000000001
 43
0.0000000001
 40
0.0
 40
0.0
 40
0.0
 40
0.0
 40
1.0
 40
1.0
 40
1.0
 40
1.0
 10
15.20591
 20
10.69855
 30
0.0
 10
15.20591
 20
10.69855
 30
0.0
 10
11.20591
 20
10.69855
 30
0.0
 10
11.20591
 20
10.69855
 30
0.0
  0
SPLINE
  5
A5
330
1F
100
AcDbEntity
  8
0
100
AcDbSpline
210
0.0
220
0.0
230
1.0
 70
    11
 71
     3
 72
    40
 73
    36
 74
     0
 42
0.0000000001
 43
0.0000000001
 40
0.0
 40
0.0
 40
0.0
 40
0.0
 40
0.1
 40
0.1
 40
0.1
 40
0.1
 40
0.2
 40
0.2
 40
0.2
 40
0.2
 40
0.3
 40
0.3
 40
0.3
 40
0.3
 40
0.4
 40
0.4
 40
0.4
 40
0.4
 40
0.5
 40
0.5
 40
0.5
 40
0.5
 40
0.6
 40
0.6
 40
0.6
 40
0.6
 40
0.7
 40
0.7
 40
0.7
 40
0.7
 40
0.8
 40
0.8
 40
0.8
 40
0.8
 40
1.0
 40
1.0
 40
1.0
 40
1.0
 10
13.11408
 20
10.83285
 30
0.0
 10
13.11408
 20
10.83285
 30
0.0
 10
13.08334
 20
10.83285
 30
0.0
 10
13.08334
 20
10.83285
 30
0.0
 10
13.08334
 20
10.83285
 30
0.0
 10
13.08334
 20
10.83285
 30
0.0
 10
13.08334
 20
11.02885
 30
0.0
 10
13.08334
 20
11.02885
 30
0.0
 10
13.08334
 20
11.02885
 30
0.0
 10
13.07593
 20
11.02179
 30
0.0
 10
13.06625
 20
11.01473
 30
0.0
 10
13.05423
 20
11.00767
 30
0.0
 10
13.05423
 20
11.00767
 30
0.0
 10
13.04216
 20
11.00062
 30
0.0
 10
13.03137
 20
10.99531
 30
0.0
 10
13.0218
 20
10.99181
 30
0.0
 10
13.0218
 20
10.99181
 30
0.0
 10
13.0218
 20
10.99181
 30
0.0
 10
13.0218
 20
11.0215
 30
0.0
 10
13.0218
 20
11.0215
 30
0.0
 10
13.0218
 20
11.0215
 30
0.0
 10
13.03901
 20
11.02961
 30
0.0
 10
13.05406
 20
11.03941
 30
0.0
 10
13.06695
 20
11.0509
 30
0.0
 10
13.06695
 20
11.0509
 30
0.0
 10
13.07978
 20
11.06245
 30
0.0
 10
13.08894
 20
11.07359
 30
0.0
 10
13.09431
 20
11.08444
 30
0.0
 10
13.09431
 20
11.08444
 30
0.0
 10
13.09431
 20
11.08444
 30
0.0
 10
13.11408
 20
11.08444
 30
0.0
 10
13.11408
 20
11.08444
 30
0.0
 10
13.11408
 20
11.08444
 30
0.0
 10
13.11408
 20
11.08444
 30
0.0
 10
13.11408
 20
10.83285
 30
0.0
 10
13.11408
 20
10.83285
 30
0.0
  0
SPLINE
  5
A6
330
1F
100
AcDbEntity
  8
0
100
AcDbSpline
210
0.0
220
0.0
230
1.0
 70
    11
 71
     3
 72
    92
 73
    88
 74
     0
 42
0.0000000001
 43
0.0000000001
 40
0.0
 40
0.0
 40
0.0
 40
0.0
 40
0.0434782608695652
 40
0.0434782608695652
 40
0.0434782608695652
 40
0.0434782608695652
 40
0.0869565217391304
 40
0.0869565217391304
 40
0.0869565217391304
 40
0.0869565217391304
 40
0.1304347826086956
 40
0.1304347826086956
 40
0.1304347826086956
 40
0.1304347826086956
 40
0.1739130434782609
 40
0.1739130434782609
 40
0.1739130434782609
 40
0.1739130434782609
 40
0.2173913043478261
 40
0.2173913043478261
 40
0.2173913043478261
 40
0.2173913043478261
 40
0.2608695652173913
 40
0.2608695652173913
 40
0.2608695652173913
 40
0.2608695652173913
 40
0.3043478260869565
 40
0.3043478260869565
 40
0.3043478260869565
 40
0.3043478260869565
 40
0.3478260869565217
 40
0.3478260869565217
 40
0.3478260869565217
 40
0.3478260869565217
 40
0.391304347826087
 40
0.391304347826087
 40
0.391304347826087
 40
0.391304347826087
 40
0.4347826086956522
 40
0.4347826086956522
 40
0.4347826086956522
 40
0.4347826086956522
 40
0.4782608695652174
 40
0.4782608695652174
 40
0.4782608695652174
 40
0.4782608695652174
 40
0.5217391304347826
 40
0.5217391304347826
 40
0.5217391304347826
 40
0.5217391304347826
 40
0.5652173913043478
 40
0.5652173913043478
 40
0.5652173913043478
 40
0.5652173913043478
 40
0.6086956521739131
 40
0.6086956521739131
 40
0.6086956521739131
 40
0.6086956521739131
 40
0.6521739130434783
 40
0.6521739130434783
 40
0.6521739130434783
 40
0.6521739130434783
 40
0.6956521739130435
 40
0.6956521739130435
 40
0.6956521739130435
 40
0.6956521739130435
 40
0.7391304347826086
 40
0.7391304347826086
 40
0.7391304347826086
 40
0.7391304347826086
 40
0.782608695652174
 40
0.782608695652174
 40
0.782608695652174
 40
0.782608695652174
 40
0.8260869565217391
 40
0.8260869565217391
 40
0.8260869565217391
 40
0.8260869565217391
 40
0.8695652173913043
 40
0.8695652173913043
 40
0.8695652173913043
 40
0.8695652173913043
 40
0.9130434782608695
 40
0.9130434782608695
 40
0.9130434782608695
 40
0.9130434782608695
 40
1.0
 40
1.0
 40
1.0
 40
1.0
 10
13.35459
 20
10.86242
 30
0.0
 10
13.35459
 20
10.86242
 30
0.0
 10
13.35459
 20
10.83285
 30
0.0
 10
13.35459
 20
10.83285
 30
0.0
 10
13.35459
 20
10.83285
 30
0.0
 10
13.35459
 20
10.83285
 30
0.0
 10
13.18899
 20
10.83285
 30
0.0
 10
13.18899
 20
10.83285
 30
0.0
 10
13.18899
 20
10.83285
 30
0.0
 10
13.18875
 20
10.84026
 30
0.0
 10
13.18992
 20
10.84737
 30
0.0
 10
13.19254
 20
10.8542
 30
0.0
 10
13.19254
 20
10.8542
 30
0.0
 10
13.19674
 20
10.86552
 30
0.0
 10
13.20351
 20
10.8766
 30
0.0
 10
13.21279
 20
10.88757
 30
0.0
 10
13.21279
 20
10.88757
 30
0.0
 10
13.22212
 20
10.89847
 30
0.0
 10
13.23554
 20
10.91113
 30
0.0
 10
13.25304
 20
10.92548
 30
0.0
 10
13.25304
 20
10.92548
 30
0.0
 10
13.28028
 20
10.94782
 30
0.0
 10
13.29871
 20
10.9655
 30
0.0
 10
13.30828
 20
10.97857
 30
0.0
 10
13.30828
 20
10.97857
 30
0.0
 10
13.31784
 20
10.99157
 30
0.0
 10
13.32263
 20
11.00394
 30
0.0
 10
13.32263
 20
11.01555
 30
0.0
 10
13.32263
 20
11.01555
 30
0.0
 10
13.32263
 20
11.02774
 30
0.0
 10
13.31825
 20
11.03801
 30
0.0
 10
13.30956
 20
11.04641
 30
0.0
 10
13.30956
 20
11.04641
 30
0.0
 10
13.30081
 20
11.05475
 30
0.0
 10
13.28944
 20
11.05895
 30
0.0
 10
13.27544
 20
11.05895
 30
0.0
 10
13.27544
 20
11.05895
 30
0.0
 10
13.26062
 20
11.05895
 30
0.0
 10
13.24878
 20
11.05452
 30
0.0
 10
13.23991
 20
11.04559
 30
0.0
 10
13.23991
 20
11.04559
 30
0.0
 10
13.23099
 20
11.03672
 30
0.0
 10
13.22649
 20
11.02442
 30
0.0
 10
13.22638
 20
11.00872
 30
0.0
 10
13.22638
 20
11.00872
 30
0.0
 10
13.22638
 20
11.00872
 30
0.0
 10
13.19476
 20
11.01193
 30
0.0
 10
13.19476
 20
11.01193
 30
0.0
 10
13.19476
 20
11.01193
 30
0.0
 10
13.19692
 20
11.03556
 30
0.0
 10
13.20509
 20
11.05352
 30
0.0
 10
13.2192
 20
11.06589
 30
0.0
 10
13.2192
 20
11.06589
 30
0.0
 10
13.23332
 20
11.07826
 30
0.0
 10
13.25234
 20
11.08444
 30
0.0
 10
13.27614
 20
11.08444
 30
0.0
 10
13.27614
 20
11.08444
 30
0.0
 10
13.30017
 20
11.08444
 30
0.0
 10
13.31919
 20
11.07773
 30
0.0
 10
13.33319
 20
11.06443
 30
0.0
 10
13.33319
 20
11.06443
 30
0.0
 10
13.34724
 20
11.05107
 30
0.0
 10
13.35424
 20
11.03457
 30
0.0
 10
13.35424
 20
11.01485
 30
0.0
 10
13.35424
 20
11.01485
 30
0.0
 10
13.35424
 20
11.00482
 30
0.0
 10
13.3522
 20
10.99496
 30
0.0
 10
13.34806
 20
10.98527
 30
0.0
 10
13.34806
 20
10.98527
 30
0.0
 10
13.34398
 20
10.97559
 30
0.0
 10
13.33715
 20
10.96538
 30
0.0
 10
13.32764
 20
10.95471
 30
0.0
 10
13.32764
 20
10.95471
 30
0.0
 10
13.31814
 20
10.94397
 30
0.0
 10
13.30233
 20
10.92927
 30
0.0
 10
13.28022
 20
10.91061
 30
0.0
 10
13.28022
 20
10.91061
 30
0.0
 10
13.26179
 20
10.89509
 30
0.0
 10
13.24994
 20
10.88459
 30
0.0
 10
13.24469
 20
10.87905
 30
0.0
 10
13.24469
 20
10.87905
 30
0.0
 10
13.23944
 20
10.87357
 30
0.0
 10
13.23513
 20
10.86802
 30
0.0
 10
13.23169
 20
10.86242
 30
0.0
 10
13.23169
 20
10.86242
 30
0.0
 10
13.23169
 20
10.86242
 30
0.0
 10
13.35459
 20
10.86242
 30
0.0
 10
13.35459
 20
10.86242
 30
0.0
  0
SPLINE
  5
A7
330
1F
100
AcDbEntity
  8
0
100
AcDbSpline
210
0.0
220
0.0
230
1.0
 70
    11
 71
     3
 72
    52
 73
    48
 74
     0
 42
0.0000000001
 43
0.0000000001
 40
0.0
 40
0.0
 40
0.0
 40
0.0
 40
0.0769230769230769
 40
0.0769230769230769
 40
0.0769230769230769
 40
0.0769230769230769
 40
0.1538461538461539
 40
0.1538461538461539
 40
0.1538461538461539
 40
0.1538461538461539
 40
0.2307692307692308
 40
0.2307692307692308
 40
0.2307692307692308
 40
0.2307692307692308
 40
0.3076923076923077
 40
0.3076923076923077
 40
0.3076923076923077
 40
0.3076923076923077
 40
0.3846153846153846
 40
0.3846153846153846
 40
0.3846153846153846
 40
0.3846153846153846
 40
0.4615384615384616
 40
0.4615384615384616
 40
0.4615384615384616
 40
0.4615384615384616
 40
0.5384615384615384
 40
0.5384615384615384
 40
0.5384615384615384
 40
0.5384615384615384
 40
0.6153846153846154
 40
0.6153846153846154
 40
0.6153846153846154
 40
0.6153846153846154
 40
0.6923076923076923
 40
0.6923076923076923
 40
0.6923076923076923
 40
0.6923076923076923
 40
0.7692307692307693
 40
0.7692307692307693
 40
0.7692307692307693
 40
0.7692307692307693
 40
0.8461538461538461
 40
0.8461538461538461
 40
0.8461538461538461
 40
0.8461538461538461
 40
1.0
 40
1.0
 40
1.0
 40
1.0
 10
13.38755
 20
10.9564
 30
0.0
 10
13.38755
 20
10.98603
 30
0.0
 10
13.39059
 20
11.00989
 30
0.0
 10
13.39671
 20
11.02792
 30
0.0
 10
13.39671
 20
11.02792
 30
0.0
 10
13.40278
 20
11.046
 30
0.0
 10
13.41188
 20
11.05994
 30
0.0
 10
13.4239
 20
11.06974
 30
0.0
 10
13.4239
 20
11.06974
 30
0.0
 10
13.43591
 20
11.07954
 30
0.0
 10
13.45102
 20
11.08444
 30
0.0
 10
13.46922
 20
11.08444
 30
0.0
 10
13.46922
 20
11.08444
 30
0.0
 10
13.4827
 20
11.08444
 30
0.0
 10
13.49448
 20
11.0817
 30
0.0
 10
13.50463
 20
11.07627
 30
0.0
 10
13.50463
 20
11.07627
 30
0.0
 10
13.51478
 20
11.07091
 30
0.0
 10
13.52312
 20
11.06309
 30
0.0
 10
13.52977
 20
11.05288
 30
0.0
 10
13.52977
 20
11.05288
 30
0.0
 10
13.53636
 20
11.04267
 30
0.0
 10
13.54155
 20
11.03025
 30
0.0
 10
13.54529
 20
11.01561
 30
0.0
 10
13.54529
 20
11.01561
 30
0.0
 10
13.54908
 20
11.00097
 30
0.0
 10
13.55095
 20
10.98125
 30
0.0
 10
13.55095
 20
10.9564
 30
0.0
 10
13.55095
 20
10.9564
 30
0.0
 10
13.55095
 20
10.927
 30
0.0
 10
13.54791
 20
10.90332
 30
0.0
 10
13.5419
 20
10.88523
 30
0.0
 10
13.5419
 20
10.88523
 30
0.0
 10
13.53584
 20
10.86715
 30
0.0
 10
13.5268
 20
10.85321
 30
0.0
 10
13.51478
 20
10.84335
 30
0.0
 10
13.51478
 20
10.84335
 30
0.0
 10
13.50276
 20
10.83349
 30
0.0
 10
13.4876
 20
10.82859
 30
0.0
 10
13.46922
 20
10.82859
 30
0.0
 10
13.46922
 20
10.82859
 30
0.0
 10
13.44507
 20
10.82859
 30
0.0
 10
13.42611
 20
10.83722
 30
0.0
 10
13.41235
 20
10.85455
 30
0.0
 10
13.41235
 20
10.85455
 30
0.0
 10
13.39584
 20
10.87537
 30
0.0
 10
13.38755
 20
10.90938
 30
0.0
 10
13.38755
 20
10.9564
 30
0.0
  0
SPLINE
  5
A8
330
1F
100
AcDbEntity
  8
0
100
AcDbSpline
210
0.0
220
0.0
230
1.0
 70
    11
 71
     3
 72
    36
 73
    32
 74
     0
 42
0.0000000001
 43
0.0000000001
 40
0.0
 40
0.0
 40
0.0
 40
0.0
 40
0.1111111111111111
 40
0.1111111111111111
 40
0.1111111111111111
 40
0.1111111111111111
 40
0.2222222222222222
 40
0.2222222222222222
 40
0.2222222222222222
 40
0.2222222222222222
 40
0.3333333333333333
 40
0.3333333333333333
 40
0.3333333333333333
 40
0.3333333333333333
 40
0.4444444444444444
 40
0.4444444444444444
 40
0.4444444444444444
 40
0.4444444444444444
 40
0.5555555555555556
 40
0.5555555555555556
 40
0.5555555555555556
 40
0.5555555555555556
 40
0.6666666666666666
 40
0.6666666666666666
 40
0.6666666666666666
 40
0.6666666666666666
 40
0.7777777777777778
 40
0.7777777777777778
 40
0.7777777777777778
 40
0.7777777777777778
 40
1.0
 40
1.0
 40
1.0
 40
1.0
 10
13.41917
 20
10.9564
 30
0.0
 10
13.41917
 20
10.91527
 30
0.0
 10
13.42401
 20
10.88792
 30
0.0
 10
13.43364
 20
10.87427
 30
0.0
 10
13.43364
 20
10.87427
 30
0.0
 10
13.44326
 20
10.86067
 30
0.0
 10
13.4551
 20
10.85385
 30
0.0
 10
13.46922
 20
10.85385
 30
0.0
 10
13.46922
 20
10.85385
 30
0.0
 10
13.4834
 20
10.85385
 30
0.0
 10
13.49524
 20
10.86073
 30
0.0
 10
13.50486
 20
10.87438
 30
0.0
 10
13.50486
 20
10.87438
 30
0.0
 10
13.51449
 20
10.88803
 30
0.0
 10
13.51933
 20
10.91539
 30
0.0
 10
13.51933
 20
10.9564
 30
0.0
 10
13.51933
 20
10.9564
 30
0.0
 10
13.51933
 20
10.99764
 30
0.0
 10
13.51449
 20
11.02506
 30
0.0
 10
13.50486
 20
11.03859
 30
0.0
 10
13.50486
 20
11.03859
 30
0.0
 10
13.49524
 20
11.05218
 30
0.0
 10
13.48328
 20
11.05895
 30
0.0
 10
13.46893
 20
11.05895
 30
0.0
 10
13.46893
 20
11.05895
 30
0.0
 10
13.45475
 20
11.05895
 30
0.0
 10
13.4435
 20
11.05294
 30
0.0
 10
13.43504
 20
11.04098
 30
0.0
 10
13.43504
 20
11.04098
 30
0.0
 10
13.42448
 20
11.02576
 30
0.0
 10
13.41917
 20
10.99752
 30
0.0
 10
13.41917
 20
10.9564
 30
0.0
  0
SPLINE
  5
A9
330
1F
100
AcDbEntity
  8
0
100
AcDbSpline
210
0.0
220
0.0
230
1.0
 70
    27
 71
     3
 72
    12
 73
     8
 74
     0
 42
0.0000000001
 43
0.0000000001
 40
0.0
 40
0.0
 40
0.0
 40
0.0
 40
0.3333333333333333
 40
0.3333333333333333
 40
0.3333333333333333
 40
0.3333333333333333
 40
1.0
 40
1.0
 40
1.0
 40
1.0
 10
15.72508
 20
11.69746
 30
0.0
 10
15.72508
 20
11.69746
 30
0.0
 10
15.67428
 20
12.02766
 30
0.0
 10
15.67428
 20
12.02766
 30
0.0
 10
15.67428
 20
12.02766
 30
0.0
 10
15.67428
 20
12.02766
 30
0.0
 10
15.72508
 20
11.69746
 30
0.0
 10
15.72508
 20
11.69746
 30
0.0
  0
SPLINE
  5
AA
330
1F
100
AcDbEntity
  8
0
100
AcDbSpline
210
0.0
220
0.0
230
1.0
 70
     8
 71
     3
 72
    12
 73
     8
 74
     0
 42
0.0000000001
 43
0.0000000001
 40
0.0
 40
0.0
 40
0.0
 40
0.0
 40
0.3333333333333333
 40
0.3333333333333333
 40
0.3333333333333333
 40
0.3333333333333333
 40
1.0
 40
1.0
 40
1.0
 40
1.0
 10
15.67428
 20
12.02766
 30
0.0
 10
15.67428
 20
12.02766
 30
0.0
 10
15.77588
 20
12.02766
 30
0.0
 10
15.77588
 20
12.02766
 30
0.0
 10
15.77588
 20
12.02766
 30
0.0
 10
15.77588
 20
12.02766
 30
0.0
 10
15.72508
 20
11.69746
 30
0.0
 10
15.72508
 20
11.69746
 30
0.0
  0
SPLINE
  5
AB
330
1F
100
AcDbEntity
  8
0
370
     9
100
AcDbSpline
210
0.0
220
0.0
230
1.0
 70
    24
 71
     3
 72
     8
 73
     4
 74
     0
 42
0.0000000001
 43
0.0000000001
 40
0.0
 40
0.0
 40
0.0
 40
0.0
 40
1.0
 40
1.0
 40
1.0
 40
1.0
 10
15.72508
 20
11.69746
 30
0.0
 10
15.72508
 20
11.69746
 30
0.0
 10
15.67428
 20
12.02766
 30
0.0
 10
15.67428
 20
12.02766
 30
0.0
  0
SPLINE
  5
AC
330
1F
100
AcDbEntity
  8
0
370
     9
100
AcDbSpline
210
0.0
220
0.0
230
1.0
 70
     8
 71
     3
 72
    12
 73
     8
 74
     0
 42
0.0000000001
 43
0.0000000001
 40
0.0
 40
0.0
 40
0.0
 40
0.0
 40
0.3333333333333333
 40
0.3333333333333333
 40
0.3333333333333333
 40
0.3333333333333333
 40
1.0
 40
1.0
 40
1.0
 40
1.0
 10
15.67428
 20
12.02766
 30
0.0
 10
15.67428
 20
12.02766
 30
0.0
 10
15.77588
 20
12.02766
 30
0.0
 10
15.77588
 20
12.02766
 30
0.0
 10
15.77588
 20
12.02766
 30
0.0
 10
15.77588
 20
12.02766
 30
0.0
 10
15.72508
 20
11.69746
 30
0.0
 10
15.72508
 20
11.69746
 30
0.0
  0
SPLINE
  5
AD
330
1F
100
AcDbEntity
  8
0
100
AcDbSpline
210
0.0
220
0.0
230
1.0
 70
    27
 71
     3
 72
    12
 73
     8
 74
     0
 42
0.0000000001
 43
0.0000000001
 40
0.0
 40
0.0
 40
0.0
 40
0.0
 40
0.3333333333333333
 40
0.3333333333333333
 40
0.3333333333333333
 40
0.3333333333333333
 40
1.0
 40
1.0
 40
1.0
 40
1.0
 10
15.72508
 20
11.43079
 30
0.0
 10
15.72508
 20
11.43079
 30
0.0
 10
15.77588
 20
11.10059
 30
0.0
 10
15.77588
 20
11.10059
 30
0.0
 10
15.77588
 20
11.10059
 30
0.0
 10
15.77588
 20
11.10059
 30
0.0
 10
15.72508
 20
11.43079
 30
0.0
 10
15.72508
 20
11.43079
 30
0.0
  0
SPLINE
  5
AE
330
1F
100
AcDbEntity
  8
0
100
AcDbSpline
210
0.0
220
0.0
230
1.0
 70
     8
 71
     3
 72
    12
 73
     8
 74
     0
 42
0.0000000001
 43
0.0000000001
 40
0.0
 40
0.0
 40
0.0
 40
0.0
 40
0.3333333333333333
 40
0.3333333333333333
 40
0.3333333333333333
 40
0.3333333333333333
 40
1.0
 40
1.0
 40
1.0
 40
1.0
 10
15.77588
 20
11.10059
 30
0.0
 10
15.77588
 20
11.10059
 30
0.0
 10
15.67428
 20
11.10059
 30
0.0
 10
15.67428
 20
11.10059
 30
0.0
 10
15.67428
 20
11.10059
 30
0.0
 10
15.67428
 20
11.10059
 30
0.0
 10
15.72508
 20
11.43079
 30
0.0
 10
15.72508
 20
11.43079
 30
0.0
  0
SPLINE
  5
AF
330
1F
100
AcDbEntity
  8
0
370
     9
100
AcDbSpline
210
0.0
220
0.0
230
1.0
 70
    24
 71
     3
 72
     8
 73
     4
 74
     0
 42
0.0000000001
 43
0.0000000001
 40
0.0
 40
0.0
 40
0.0
 40
0.0
 40
1.0
 40
1.0
 40
1.0
 40
1.0
 10
15.72508
 20
11.43079
 30
0.0
 10
15.72508
 20
11.43079
 30
0.0
 10
15.77588
 20
11.10059
 30
0.0
 10
15.77588
 20
11.10059
 30
0.0
  0
SPLINE
  5
B0
330
1F
100
AcDbEntity
  8
0
370
     9
100
AcDbSpline
210
0.0
220
0.0
230
1.0
 70
     8
 71
     3
 72
    12
 73
     8
 74
     0
 42
0.0000000001
 43
0.0000000001
 40
0.0
 40
0.0
 40
0.0
 40
0.0
 40
0.3333333333333333
 40
0.3333333333333333
 40
0.3333333333333333
 40
0.3333333333333333
 40
1.0
 40
1.0
 40
1.0
 40
1.0
 10
15.77588
 20
11.10059
 30
0.0
 10
15.77588
 20
11.10059
 30
0.0
 10
15.67428
 20
11.10059
 30
0.0
 10
15.67428
 20
11.10059
 30
0.0
 10
15.67428
 20
11.10059
 30
0.0
 10
15.67428
 20
11.10059
 30
0.0
 10
15.72508
 20
11.43079
 30
0.0
 10
15.72508
 20
11.43079
 30
0.0
  0
SPLINE
  5
B1
330
1F
100
AcDbEntity
  8
0
370
     9
100
AcDbSpline
210
0.0
220
0.0
230
1.0
 70
    24
 71
     3
 72
     8
 73
     4
 74
     0
 42
0.0000000001
 43
0.0000000001
 40
0.0
 40
0.0
 40
0.0
 40
0.0
 40
1.0
 40
1.0
 40
1.0
 40
1.0
 10
15.28925
 20
11.69746
 30
0.0
 10
15.28925
 20
11.69746
 30
0.0
 10
15.82508
 20
11.69746
 30
0.0
 10
15.82508
 20
11.69746
 30
0.0
  0
SPLINE
  5
B2
330
1F
100
AcDbEntity
  8
0
370
     9
100
AcDbSpline
210
0.0
220
0.0
230
1.0
 70
    24
 71
     3
 72
     8
 73
     4
 74
     0
 42
0.0000000001
 43
0.0000000001
 40
0.0
 40
0.0
 40
0.0
 40
0.0
 40
1.0
 40
1.0
 40
1.0
 40
1.0
 10
15.28925
 20
11.43079
 30
0.0
 10
15.28925
 20
11.43079
 30
0.0
 10
15.82508
 20
11.43079
 30
0.0
 10
15.82508
 20
11.43079
 30
0.0
  0
SPLINE
  5
B3
330
1F
100
AcDbEntity
  8
0
370
     9
100
AcDbSpline
210
0.0
220
0.0
230
1.0
 70
    24
 71
     3
 72
     8
 73
     4
 74
     0
 42
0.0000000001
 43
0.0000000001
 40
0.0
 40
0.0
 40
0.0
 40
0.0
 40
1.0
 40
1.0
 40
1.0
 40
1.0
 10
15.72508
 20
11.69746
 30
0.0
 10
15.72508
 20
11.69746
 30
0.0
 10
15.72508
 20
12.54153
 30
0.0
 10
15.72508
 20
12.54153
 30
0.0
  0
SPLINE
  5
B4
330
1F
100
AcDbEntity
  8
0
370
     9
100
AcDbSpline
210
0.0
220
0.0
230
1.0
 70
    24
 71
     3
 72
     8
 73
     4
 74
     0
 42
0.0000000001
 43
0.0000000001
 40
0.0
 40
0.0
 40
0.0
 40
0.0
 40
1.0
 40
1.0
 40
1.0
 40
1.0
 10
15.72508
 20
11.69746
 30
0.0
 10
15.72508
 20
11.69746
 30
0.0
 10
15.72508
 20
11.43079
 30
0.0
 10
15.72508
 20
11.43079
 30
0.0
  0
SPLINE
  5
B5
330
1F
100
AcDbEntity
  8
0
370
     9
100
AcDbSpline
210
0.0
220
0.0
230
1.0
 70
    24
 71
     3
 72
     8
 73
     4
 74
     0
 42
0.0000000001
 43
0.0000000001
 40
0.0
 40
0.0
 40
0.0
 40
0.0
 40
1.0
 40
1.0
 40
1.0
 40
1.0
 10
15.72508
 20
11.43079
 30
0.0
 10
15.72508
 20
11.43079
 30
0.0
 10
15.72508
 20
10.79579
 30
0.0
 10
15.72508
 20
10.79579
 30
0.0
  0
SPLINE
  5
B6
330
1F
100
AcDbEntity
  8
0
100
AcDbSpline
210
0.0
220
0.0
230
1.0
 70
    11
 71
     3
 72
    68
 73
    64
 74
     0
 42
0.0000000001
 43
0.0000000001
 40
0.0
 40
0.0
 40
0.0
 40
0.0
 40
0.0588235294117647
 40
0.0588235294117647
 40
0.0588235294117647
 40
0.0588235294117647
 40
0.1176470588235294
 40
0.1176470588235294
 40
0.1176470588235294
 40
0.1176470588235294
 40
0.1764705882352941
 40
0.1764705882352941
 40
0.1764705882352941
 40
0.1764705882352941
 40
0.2352941176470588
 40
0.2352941176470588
 40
0.2352941176470588
 40
0.2352941176470588
 40
0.2941176470588235
 40
0.2941176470588235
 40
0.2941176470588235
 40
0.2941176470588235
 40
0.3529411764705883
 40
0.3529411764705883
 40
0.3529411764705883
 40
0.3529411764705883
 40
0.4117647058823529
 40
0.4117647058823529
 40
0.4117647058823529
 40
0.4117647058823529
 40
0.4705882352941176
 40
0.4705882352941176
 40
0.4705882352941176
 40
0.4705882352941176
 40
0.5294117647058824
 40
0.5294117647058824
 40
0.5294117647058824
 40
0.5294117647058824
 40
0.5882352941176471
 40
0.5882352941176471
 40
0.5882352941176471
 40
0.5882352941176471
 40
0.6470588235294118
 40
0.6470588235294118
 40
0.6470588235294118
 40
0.6470588235294118
 40
0.7058823529411765
 40
0.7058823529411765
 40
0.7058823529411765
 40
0.7058823529411765
 40
0.7647058823529411
 40
0.7647058823529411
 40
0.7647058823529411
 40
0.7647058823529411
 40
0.8235294117647058
 40
0.8235294117647058
 40
0.8235294117647058
 40
0.8235294117647058
 40
0.8823529411764706
 40
0.8823529411764706
 40
0.8823529411764706
 40
0.8823529411764706
 40
1.0
 40
1.0
 40
1.0
 40
1.0
 10
15.45491
 20
12.06043
 30
0.0
 10
15.45025
 20
12.04766
 30
0.0
 10
15.4436
 20
12.03821
 30
0.0
 10
15.4349
 20
12.03202
 30
0.0
 10
15.4349
 20
12.03202
 30
0.0
 10
15.42627
 20
12.0259
 30
0.0
 10
15.41589
 20
12.02281
 30
0.0
 10
15.40381
 20
12.02281
 30
0.0
 10
15.40381
 20
12.02281
 30
0.0
 10
15.38555
 20
12.02281
 30
0.0
 10
15.37027
 20
12.02934
 30
0.0
 10
15.35785
 20
12.04246
 30
0.0
 10
15.35785
 20
12.04246
 30
0.0
 10
15.34542
 20
12.05559
 30
0.0
 10
15.33924
 20
12.07297
 30
0.0
 10
15.33924
 20
12.09473
 30
0.0
 10
15.33924
 20
12.09473
 30
0.0
 10
15.33924
 20
12.11661
 30
0.0
 10
15.34554
 20
12.13422
 30
0.0
 10
15.35825
 20
12.14758
 30
0.0
 10
15.35825
 20
12.14758
 30
0.0
 10
15.37097
 20
12.16088
 30
0.0
 10
15.38643
 20
12.16753
 30
0.0
 10
15.40469
 20
12.16753
 30
0.0
 10
15.40469
 20
12.16753
 30
0.0
 10
15.4163
 20
12.16753
 30
0.0
 10
15.42639
 20
12.1645
 30
0.0
 10
15.43502
 20
12.15843
 30
0.0
 10
15.43502
 20
12.15843
 30
0.0
 10
15.4436
 20
12.15231
 30
0.0
 10
15.45025
 20
12.14309
 30
0.0
 10
15.45491
 20
12.13066
 30
0.0
 10
15.45491
 20
12.13066
 30
0.0
 10
15.45993
 20
12.14601
 30
0.0
 10
15.46804
 20
12.15773
 30
0.0
 10
15.47918
 20
12.16578
 30
0.0
 10
15.47918
 20
12.16578
 30
0.0
 10
15.49032
 20
12.17377
 30
0.0
 10
15.50368
 20
12.1778
 30
0.0
 10
15.51914
 20
12.1778
 30
0.0
 10
15.51914
 20
12.1778
 30
0.0
 10
15.5406
 20
12.1778
 30
0.0
 10
15.55857
 20
12.17021
 30
0.0
 10
15.57315
 20
12.15511
 30
0.0
 10
15.57315
 20
12.15511
 30
0.0
 10
15.58774
 20
12.13994
 30
0.0
 10
15.59503
 20
12.11999
 30
0.0
 10
15.59503
 20
12.09526
 30
0.0
 10
15.59503
 20
12.09526
 30
0.0
 10
15.59503
 20
12.07052
 30
0.0
 10
15.58774
 20
12.05063
 30
0.0
 10
15.5731
 20
12.03546
 30
0.0
 10
15.5731
 20
12.03546
 30
0.0
 10
15.55845
 20
12.0203
 30
0.0
 10
15.5402
 20
12.01271
 30
0.0
 10
15.51832
 20
12.01271
 30
0.0
 10
15.51832
 20
12.01271
 30
0.0
 10
15.50205
 20
12.01271
 30
0.0
 10
15.4884
 20
12.01686
 30
0.0
 10
15.47737
 20
12.02514
 30
0.0
 10
15.47737
 20
12.02514
 30
0.0
 10
15.4664
 20
12.03336
 30
0.0
 10
15.45888
 20
12.04515
 30
0.0
 10
15.45491
 20
12.06043
 30
0.0
  0
SPLINE
  5
B7
330
1F
100
AcDbEntity
  8
0
100
AcDbSpline
210
0.0
220
0.0
230
1.0
 70
    11
 71
     3
 72
    36
 73
    32
 74
     0
 42
0.0000000001
 43
0.0000000001
 40
0.0
 40
0.0
 40
0.0
 40
0.0
 40
0.1111111111111111
 40
0.1111111111111111
 40
0.1111111111111111
 40
0.1111111111111111
 40
0.2222222222222222
 40
0.2222222222222222
 40
0.2222222222222222
 40
0.2222222222222222
 40
0.3333333333333333
 40
0.3333333333333333
 40
0.3333333333333333
 40
0.3333333333333333
 40
0.4444444444444444
 40
0.4444444444444444
 40
0.4444444444444444
 40
0.4444444444444444
 40
0.5555555555555556
 40
0.5555555555555556
 40
0.5555555555555556
 40
0.5555555555555556
 40
0.6666666666666666
 40
0.6666666666666666
 40
0.6666666666666666
 40
0.6666666666666666
 40
0.7777777777777778
 40
0.7777777777777778
 40
0.7777777777777778
 40
0.7777777777777778
 40
1.0
 40
1.0
 40
1.0
 40
1.0
 10
15.40276
 20
12.05425
 30
0.0
 10
15.4146
 20
12.05425
 30
0.0
 10
15.42429
 20
12.0581
 30
0.0
 10
15.43181
 20
12.06568
 30
0.0
 10
15.43181
 20
12.06568
 30
0.0
 10
15.43934
 20
12.07332
 30
0.0
 10
15.44313
 20
12.08324
 30
0.0
 10
15.44313
 20
12.09543
 30
0.0
 10
15.44313
 20
12.09543
 30
0.0
 10
15.44313
 20
12.10727
 30
0.0
 10
15.4394
 20
12.11701
 30
0.0
 10
15.43193
 20
12.1246
 30
0.0
 10
15.43193
 20
12.1246
 30
0.0
 10
15.42446
 20
12.13218
 30
0.0
 10
15.4153
 20
12.13591
 30
0.0
 10
15.40451
 20
12.13591
 30
0.0
 10
15.40451
 20
12.13591
 30
0.0
 10
15.3932
 20
12.13591
 30
0.0
 10
15.38375
 20
12.13206
 30
0.0
 10
15.37605
 20
12.12425
 30
0.0
 10
15.37605
 20
12.12425
 30
0.0
 10
15.36835
 20
12.11643
 30
0.0
 10
15.3645
 20
12.10675
 30
0.0
 10
15.3645
 20
12.09508
 30
0.0
 10
15.3645
 20
12.09508
 30
0.0
 10
15.3645
 20
12.08336
 30
0.0
 10
15.36829
 20
12.07361
 30
0.0
 10
15.37575
 20
12.06586
 30
0.0
 10
15.37575
 20
12.06586
 30
0.0
 10
15.38328
 20
12.0581
 30
0.0
 10
15.39232
 20
12.05425
 30
0.0
 10
15.40276
 20
12.05425
 30
0.0
  0
SPLINE
  5
B8
330
1F
100
AcDbEntity
  8
0
100
AcDbSpline
210
0.0
220
0.0
230
1.0
 70
    11
 71
     3
 72
    40
 73
    36
 74
     0
 42
0.0000000001
 43
0.0000000001
 40
0.0
 40
0.0
 40
0.0
 40
0.0
 40
0.1
 40
0.1
 40
0.1
 40
0.1
 40
0.2
 40
0.2
 40
0.2
 40
0.2
 40
0.3
 40
0.3
 40
0.3
 40
0.3
 40
0.4
 40
0.4
 40
0.4
 40
0.4
 40
0.5
 40
0.5
 40
0.5
 40
0.5
 40
0.6
 40
0.6
 40
0.6
 40
0.6
 40
0.7
 40
0.7
 40
0.7
 40
0.7
 40
0.8
 40
0.8
 40
0.8
 40
0.8
 40
1.0
 40
1.0
 40
1.0
 40
1.0
 10
15.5185
 20
12.04433
 30
0.0
 10
15.52725
 20
12.04433
 30
0.0
 10
15.53576
 20
12.04643
 30
0.0
 10
15.54393
 20
12.05057
 30
0.0
 10
15.54393
 20
12.05057
 30
0.0
 10
15.55215
 20
12.05471
 30
0.0
 10
15.55851
 20
12.0609
 30
0.0
 10
15.563
 20
12.06912
 30
0.0
 10
15.563
 20
12.06912
 30
0.0
 10
15.5675
 20
12.07735
 30
0.0
 10
15.56977
 20
12.08616
 30
0.0
 10
15.56977
 20
12.09561
 30
0.0
 10
15.56977
 20
12.09561
 30
0.0
 10
15.56977
 20
12.11031
 30
0.0
 10
15.56505
 20
12.12244
 30
0.0
 10
15.55554
 20
12.13201
 30
0.0
 10
15.55554
 20
12.13201
 30
0.0
 10
15.54609
 20
12.14157
 30
0.0
 10
15.53407
 20
12.14636
 30
0.0
 10
15.51949
 20
12.14636
 30
0.0
 10
15.51949
 20
12.14636
 30
0.0
 10
15.50467
 20
12.14636
 30
0.0
 10
15.49242
 20
12.14146
 30
0.0
 10
15.48274
 20
12.1316
 30
0.0
 10
15.48274
 20
12.1316
 30
0.0
 10
15.47305
 20
12.12174
 30
0.0
 10
15.46821
 20
12.10937
 30
0.0
 10
15.46821
 20
12.09456
 30
0.0
 10
15.46821
 20
12.09456
 30
0.0
 10
15.46821
 20
12.08009
 30
0.0
 10
15.473
 20
12.06813
 30
0.0
 10
15.48262
 20
12.05862
 30
0.0
 10
15.48262
 20
12.05862
 30
0.0
 10
15.49219
 20
12.04911
 30
0.0
 10
15.50415
 20
12.04433
 30
0.0
 10
15.5185
 20
12.04433
 30
0.0
  0
SPLINE
  5
B9
330
1F
100
AcDbEntity
  8
0
370
    15
100
AcDbSpline
210
0.0
220
0.0
230
1.0
 70
    24
 71
     3
 72
     8
 73
     4
 74
     0
 42
0.0000000001
 43
0.0000000001
 40
0.0
 40
0.0
 40
0.0
 40
0.0
 40
1.0
 40
1.0
 40
1.0
 40
1.0
 10
5.98905
 20
3.10215
 30
0.0
 10
5.98905
 20
3.10215
 30
0.0
 10
5.98905
 20
6.10215
 30
0.0
 10
5.98905
 20
6.10215
 30
0.0
  0
SPLINE
  5
BA
330
1F
100
AcDbEntity
  8
0
370
    15
100
AcDbSpline
210
0.0
220
0.0
230
1.0
 70
    24
 71
     3
 72
     8
 73
     4
 74
     0
 42
0.0000000001
 43
0.0000000001
 40
0.0
 40
0.0
 40
0.0
 40
0.0
 40
1.0
 40
1.0
 40
1.0
 40
1.0
 10
6.00571
 20
6.10215
 30
0.0
 10
6.00571
 20
6.10215
 30
0.0
 10
6.00571
 20
3.10215
 30
0.0
 10
6.00571
 20
3.10215
 30
0.0
  0
SPLINE
  5
BB
330
1F
100
AcDbEntity
  8
0
370
    15
100
AcDbSpline
210
0.0
220
0.0
230
1.0
 70
    24
 71
     3
 72
     8
 73
     4
 74
     0
 42
0.0000000001
 43
0.0000000001
 40
0.0
 40
0.0
 40
0.0
 40
0.0
 40
1.0
 40
1.0
 40
1.0
 40
1.0
 10
5.98905
 20
3.10215
 30
0.0
 10
5.98905
 20
3.10215
 30
0.0
 10
6.00571
 20
3.10215
 30
0.0
 10
6.00571
 20
3.10215
 30
0.0
  0
SPLINE
  5
BC
330
1F
100
AcDbEntity
  8
0
370
    15
100
AcDbSpline
210
0.0
220
0.0
230
1.0
 70
    24
 71
     3
 72
     8
 73
     4
 74
     0
 42
0.0000000001
 43
0.0000000001
 40
0.0
 40
0.0
 40
0.0
 40
0.0
 40
1.0
 40
1.0
 40
1.0
 40
1.0
 10
-13.99429
 20
3.10215
 30
0.0
 10
-13.99429
 20
3.10215
 30
0.0
 10
-13.99429
 20
6.10215
 30
0.0
 10
-13.99429
 20
6.10215
 30
0.0
  0
SPLINE
  5
BD
330
1F
100
AcDbEntity
  8
0
370
    15
100
AcDbSpline
210
0.0
220
0.0
230
1.0
 70
    24
 71
     3
 72
     8
 73
     4
 74
     0
 42
0.0000000001
 43
0.0000000001
 40
0.0
 40
0.0
 40
0.0
 40
0.0
 40
1.0
 40
1.0
 40
1.0
 40
1.0
 10
-13.97762
 20
6.10215
 30
0.0
 10
-13.97762
 20
6.10215
 30
0.0
 10
-13.97762
 20
3.10215
 30
0.0
 10
-13.97762
 20
3.10215
 30
0.0
  0
SPLINE
  5
BE
330
1F
100
AcDbEntity
  8
0
370
    15
100
AcDbSpline
210
0.0
220
0.0
230
1.0
 70
    24
 71
     3
 72
     8
 73
     4
 74
     0
 42
0.0000000001
 43
0.0000000001
 40
0.0
 40
0.0
 40
0.0
 40
0.0
 40
1.0
 40
1.0
 40
1.0
 40
1.0
 10
-13.99429
 20
3.10215
 30
0.0
 10
-13.99429
 20
3.10215
 30
0.0
 10
-13.97762
 20
3.10215
 30
0.0
 10
-13.97762
 20
3.10215
 30
0.0
  0
SPLINE
  5
BF
330
1F
100
AcDbEntity
  8
0
370
    15
100
AcDbSpline
210
0.0
220
0.0
230
1.0
 70
     8
 71
     3
 72
     8
 73
     4
 74
     0
 42
0.0000000001
 43
0.0000000001
 40
0.0
 40
0.0
 40
0.0
 40
0.0
 40
1.0
 40
1.0
 40
1.0
 40
1.0
 10
5.60571
 20
2.71882
 30
0.0
 10
5.81742
 20
2.71882
 30
0.0
 10
5.98904
 20
2.89044
 30
0.0
 10
5.98905
 20
3.10215
 30
0.0
  0
SPLINE
  5
C0
330
1F
100
AcDbEntity
  8
0
370
    15
100
AcDbSpline
210
0.0
220
0.0
230
1.0
 70
    24
 71
     3
 72
     8
 73
     4
 74
     0
 42
0.0000000001
 43
0.0000000001
 40
0.0
 40
0.0
 40
0.0
 40
0.0
 40
1.0
 40
1.0
 40
1.0
 40
1.0
 10
-13.59429
 20
2.71882
 30
0.0
 10
-13.59429
 20
2.71882
 30
0.0
 10
5.60571
 20
2.71882
 30
0.0
 10
5.60571
 20
2.71882
 30
0.0
  0
SPLINE
  5
C1
330
1F
100
AcDbEntity
  8
0
370
    15
100
AcDbSpline
210
0.0
220
0.0
230
1.0
 70
     8
 71
     3
 72
    12
 73
     8
 74
     0
 42
0.0000000001
 43
0.0000000001
 40
0.0
 40
0.0
 40
0.0
 40
0.0
 40
0.3333333333333333
 40
0.3333333333333333
 40
0.3333333333333333
 40
0.3333333333333333
 40
1.0
 40
1.0
 40
1.0
 40
1.0
 10
-13.97762
 20
3.10215
 30
0.0
 10
-13.97762
 20
3.00048
 30
0.0
 10
-13.93723
 20
2.90298
 30
0.0
 10
-13.86535
 20
2.83109
 30
0.0
 10
-13.86535
 20
2.83109
 30
0.0
 10
-13.79346
 20
2.7592
 30
0.0
 10
-13.69595
 20
2.71882
 30
0.0
 10
-13.59429
 20
2.71882
 30
0.0
  0
SPLINE
  5
C2
330
1F
100
AcDbEntity
  8
0
370
    15
100
AcDbSpline
210
0.0
220
0.0
230
1.0
 70
     8
 71
     3
 72
     8
 73
     4
 74
     0
 42
0.0000000001
 43
0.0000000001
 40
0.0
 40
0.0
 40
0.0
 40
0.0
 40
1.0
 40
1.0
 40
1.0
 40
1.0
 10
5.60571
 20
2.70215
 30
0.0
 10
5.82663
 20
2.70215
 30
0.0
 10
6.00571
 20
2.88124
 30
0.0
 10
6.00571
 20
3.10215
 30
0.0
  0
SPLINE
  5
C3
330
1F
100
AcDbEntity
  8
0
370
    15
100
AcDbSpline
210
0.0
220
0.0
230
1.0
 70
    24
 71
     3
 72
     8
 73
     4
 74
     0
 42
0.0000000001
 43
0.0000000001
 40
0.0
 40
0.0
 40
0.0
 40
0.0
 40
1.0
 40
1.0
 40
1.0
 40
1.0
 10
5.60571
 20
2.71882
 30
0.0
 10
5.60571
 20
2.71882
 30
0.0
 10
5.60571
 20
2.70215
 30
0.0
 10
5.60571
 20
2.70215
 30
0.0
  0
SPLINE
  5
C4
330
1F
100
AcDbEntity
  8
0
370
    15
100
AcDbSpline
210
0.0
220
0.0
230
1.0
 70
     8
 71
     3
 72
    12
 73
     8
 74
     0
 42
0.0000000001
 43
0.0000000001
 40
0.0
 40
0.0
 40
0.0
 40
0.0
 40
0.3333333333333333
 40
0.3333333333333333
 40
0.3333333333333333
 40
0.3333333333333333
 40
1.0
 40
1.0
 40
1.0
 40
1.0
 10
-13.99429
 20
3.10215
 30
0.0
 10
-13.99429
 20
2.99606
 30
0.0
 10
-13.95214
 20
2.89432
 30
0.0
 10
-13.87713
 20
2.81931
 30
0.0
 10
-13.87713
 20
2.81931
 30
0.0
 10
-13.80212
 20
2.74429
 30
0.0
 10
-13.70037
 20
2.70215
 30
0.0
 10
-13.59429
 20
2.70215
 30
0.0
  0
SPLINE
  5
C5
330
1F
100
AcDbEntity
  8
0
370
    15
100
AcDbSpline
210
0.0
220
0.0
230
1.0
 70
    24
 71
     3
 72
     8
 73
     4
 74
     0
 42
0.0000000001
 43
0.0000000001
 40
0.0
 40
0.0
 40
0.0
 40
0.0
 40
1.0
 40
1.0
 40
1.0
 40
1.0
 10
-13.59429
 20
2.70215
 30
0.0
 10
-13.59429
 20
2.70215
 30
0.0
 10
-13.59429
 20
2.71882
 30
0.0
 10
-13.59429
 20
2.71882
 30
0.0
  0
SPLINE
  5
C6
330
1F
100
AcDbEntity
  8
0
370
    15
100
AcDbSpline
210
0.0
220
0.0
230
1.0
 70
    24
 71
     3
 72
     8
 73
     4
 74
     0
 42
0.0000000001
 43
0.0000000001
 40
0.0
 40
0.0
 40
0.0
 40
0.0
 40
1.0
 40
1.0
 40
1.0
 40
1.0
 10
5.60571
 20
2.70215
 30
0.0
 10
5.60571
 20
2.70215
 30
0.0
 10
-13.59429
 20
2.70215
 30
0.0
 10
-13.59429
 20
2.70215
 30
0.0
  0
SPLINE
  5
C7
330
1F
100
AcDbEntity
  8
0
370
    15
100
AcDbSpline
210
0.0
220
0.0
230
1.0
 70
    24
 71
     3
 72
     8
 73
     4
 74
     0
 42
0.0000000001
 43
0.0000000001
 40
0.0
 40
0.0
 40
0.0
 40
0.0
 40
1.0
 40
1.0
 40
1.0
 40
1.0
 10
-13.99429
 20
6.10215
 30
0.0
 10
-13.99429
 20
6.10215
 30
0.0
 10
6.00571
 20
6.10215
 30
0.0
 10
6.00571
 20
6.10215
 30
0.0
  0
SPLINE
  5
C8
330
1F
100
AcDbEntity
  8
0
370
    15
100
AcDbSpline
210
0.0
220
0.0
230
1.0
 70
    24
 71
     3
 72
     8
 73
     4
 74
     0
 42
0.0000000001
 43
0.0000000001
 40
0.0
 40
0.0
 40
0.0
 40
0.0
 40
1.0
 40
1.0
 40
1.0
 40
1.0
 10
-13.99429
 20
6.10215
 30
0.0
 10
-13.99429
 20
6.10215
 30
0.0
 10
-13.99429
 20
6.93548
 30
0.0
 10
-13.99429
 20
6.93548
 30
0.0
  0
SPLINE
  5
C9
330
1F
100
AcDbEntity
  8
0
370
    15
100
AcDbSpline
210
0.0
220
0.0
230
1.0
 70
    24
 71
     3
 72
     8
 73
     4
 74
     0
 42
0.0000000001
 43
0.0000000001
 40
0.0
 40
0.0
 40
0.0
 40
0.0
 40
1.0
 40
1.0
 40
1.0
 40
1.0
 10
-13.99429
 20
6.93548
 30
0.0
 10
-13.99429
 20
6.93548
 30
0.0
 10
6.00571
 20
6.93548
 30
0.0
 10
6.00571
 20
6.93548
 30
0.0
  0
SPLINE
  5
CA
330
1F
100
AcDbEntity
  8
0
370
    15
100
AcDbSpline
210
0.0
220
0.0
230
1.0
 70
    24
 71
     3
 72
     8
 73
     4
 74
     0
 42
0.0000000001
 43
0.0000000001
 40
0.0
 40
0.0
 40
0.0
 40
0.0
 40
1.0
 40
1.0
 40
1.0
 40
1.0
 10
6.00571
 20
6.10215
 30
0.0
 10
6.00571
 20
6.10215
 30
0.0
 10
6.00571
 20
6.93548
 30
0.0
 10
6.00571
 20
6.93548
 30
0.0
  0
SPLINE
  5
CB
330
1F
100
AcDbEntity
  8
0
100
AcDbSpline
210
0.0
220
0.0
230
1.0
 70
    27
 71
     3
 72
    12
 73
     8
 74
     0
 42
0.0000000001
 43
0.0000000001
 40
0.0
 40
0.0
 40
0.0
 40
0.0
 40
0.3333333333333333
 40
0.3333333333333333
 40
0.3333333333333333
 40
0.3333333333333333
 40
1.0
 40
1.0
 40
1.0
 40
1.0
 10
-13.99429
 20
1.13925
 30
0.0
 10
-13.99429
 20
1.13925
 30
0.0
 10
-13.66409
 20
1.19005
 30
0.0
 10
-13.66409
 20
1.19005
 30
0.0
 10
-13.66409
 20
1.19005
 30
0.0
 10
-13.66409
 20
1.19005
 30
0.0
 10
-13.99429
 20
1.13925
 30
0.0
 10
-13.99429
 20
1.13925
 30
0.0
  0
SPLINE
  5
CC
330
1F
100
AcDbEntity
  8
0
100
AcDbSpline
210
0.0
220
0.0
230
1.0
 70
     8
 71
     3
 72
    12
 73
     8
 74
     0
 42
0.0000000001
 43
0.0000000001
 40
0.0
 40
0.0
 40
0.0
 40
0.0
 40
0.3333333333333333
 40
0.3333333333333333
 40
0.3333333333333333
 40
0.3333333333333333
 40
1.0
 40
1.0
 40
1.0
 40
1.0
 10
-13.66409
 20
1.19005
 30
0.0
 10
-13.66409
 20
1.19005
 30
0.0
 10
-13.66409
 20
1.08845
 30
0.0
 10
-13.66409
 20
1.08845
 30
0.0
 10
-13.66409
 20
1.08845
 30
0.0
 10
-13.66409
 20
1.08845
 30
0.0
 10
-13.99429
 20
1.13925
 30
0.0
 10
-13.99429
 20
1.13925
 30
0.0
  0
SPLINE
  5
CD
330
1F
100
AcDbEntity
  8
0
370
     9
100
AcDbSpline
210
0.0
220
0.0
230
1.0
 70
    24
 71
     3
 72
     8
 73
     4
 74
     0
 42
0.0000000001
 43
0.0000000001
 40
0.0
 40
0.0
 40
0.0
 40
0.0
 40
1.0
 40
1.0
 40
1.0
 40
1.0
 10
-13.99429
 20
1.13925
 30
0.0
 10
-13.99429
 20
1.13925
 30
0.0
 10
-13.66409
 20
1.19005
 30
0.0
 10
-13.66409
 20
1.19005
 30
0.0
  0
SPLINE
  5
CE
330
1F
100
AcDbEntity
  8
0
370
     9
100
AcDbSpline
210
0.0
220
0.0
230
1.0
 70
     8
 71
     3
 72
    12
 73
     8
 74
     0
 42
0.0000000001
 43
0.0000000001
 40
0.0
 40
0.0
 40
0.0
 40
0.0
 40
0.3333333333333333
 40
0.3333333333333333
 40
0.3333333333333333
 40
0.3333333333333333
 40
1.0
 40
1.0
 40
1.0
 40
1.0
 10
-13.66409
 20
1.19005
 30
0.0
 10
-13.66409
 20
1.19005
 30
0.0
 10
-13.66409
 20
1.08845
 30
0.0
 10
-13.66409
 20
1.08845
 30
0.0
 10
-13.66409
 20
1.08845
 30
0.0
 10
-13.66409
 20
1.08845
 30
0.0
 10
-13.99429
 20
1.13925
 30
0.0
 10
-13.99429
 20
1.13925
 30
0.0
  0
SPLINE
  5
CF
330
1F
100
AcDbEntity
  8
0
100
AcDbSpline
210
0.0
220
0.0
230
1.0
 70
    27
 71
     3
 72
    12
 73
     8
 74
     0
 42
0.0000000001
 43
0.0000000001
 40
0.0
 40
0.0
 40
0.0
 40
0.0
 40
0.3333333333333333
 40
0.3333333333333333
 40
0.3333333333333333
 40
0.3333333333333333
 40
1.0
 40
1.0
 40
1.0
 40
1.0
 10
6.00571
 20
1.13925
 30
0.0
 10
6.00571
 20
1.13925
 30
0.0
 10
5.67551
 20
1.08845
 30
0.0
 10
5.67551
 20
1.08845
 30
0.0
 10
5.67551
 20
1.08845
 30
0.0
 10
5.67551
 20
1.08845
 30
0.0
 10
6.00571
 20
1.13925
 30
0.0
 10
6.00571
 20
1.13925
 30
0.0
  0
SPLINE
  5
D0
330
1F
100
AcDbEntity
  8
0
100
AcDbSpline
210
0.0
220
0.0
230
1.0
 70
     8
 71
     3
 72
    12
 73
     8
 74
     0
 42
0.0000000001
 43
0.0000000001
 40
0.0
 40
0.0
 40
0.0
 40
0.0
 40
0.3333333333333333
 40
0.3333333333333333
 40
0.3333333333333333
 40
0.3333333333333333
 40
1.0
 40
1.0
 40
1.0
 40
1.0
 10
5.67551
 20
1.08845
 30
0.0
 10
5.67551
 20
1.08845
 30
0.0
 10
5.67551
 20
1.19005
 30
0.0
 10
5.67551
 20
1.19005
 30
0.0
 10
5.67551
 20
1.19005
 30
0.0
 10
5.67551
 20
1.19005
 30
0.0
 10
6.00571
 20
1.13925
 30
0.0
 10
6.00571
 20
1.13925
 30
0.0
  0
SPLINE
  5
D1
330
1F
100
AcDbEntity
  8
0
370
     9
100
AcDbSpline
210
0.0
220
0.0
230
1.0
 70
    24
 71
     3
 72
     8
 73
     4
 74
     0
 42
0.0000000001
 43
0.0000000001
 40
0.0
 40
0.0
 40
0.0
 40
0.0
 40
1.0
 40
1.0
 40
1.0
 40
1.0
 10
6.00571
 20
1.13925
 30
0.0
 10
6.00571
 20
1.13925
 30
0.0
 10
5.67551
 20
1.08845
 30
0.0
 10
5.67551
 20
1.08845
 30
0.0
  0
SPLINE
  5
D2
330
1F
100
AcDbEntity
  8
0
370
     9
100
AcDbSpline
210
0.0
220
0.0
230
1.0
 70
     8
 71
     3
 72
    12
 73
     8
 74
     0
 42
0.0000000001
 43
0.0000000001
 40
0.0
 40
0.0
 40
0.0
 40
0.0
 40
0.3333333333333333
 40
0.3333333333333333
 40
0.3333333333333333
 40
0.3333333333333333
 40
1.0
 40
1.0
 40
1.0
 40
1.0
 10
5.67551
 20
1.08845
 30
0.0
 10
5.67551
 20
1.08845
 30
0.0
 10
5.67551
 20
1.19005
 30
0.0
 10
5.67551
 20
1.19005
 30
0.0
 10
5.67551
 20
1.19005
 30
0.0
 10
5.67551
 20
1.19005
 30
0.0
 10
6.00571
 20
1.13925
 30
0.0
 10
6.00571
 20
1.13925
 30
0.0
  0
SPLINE
  5
D3
330
1F
100
AcDbEntity
  8
0
370
     9
100
AcDbSpline
210
0.0
220
0.0
230
1.0
 70
    24
 71
     3
 72
     8
 73
     4
 74
     0
 42
0.0000000001
 43
0.0000000001
 40
0.0
 40
0.0
 40
0.0
 40
0.0
 40
1.0
 40
1.0
 40
1.0
 40
1.0
 10
-13.99429
 20
3.00215
 30
0.0
 10
-13.99429
 20
3.00215
 30
0.0
 10
-13.99429
 20
1.03925
 30
0.0
 10
-13.99429
 20
1.03925
 30
0.0
  0
SPLINE
  5
D4
330
1F
100
AcDbEntity
  8
0
370
     9
100
AcDbSpline
210
0.0
220
0.0
230
1.0
 70
    24
 71
     3
 72
     8
 73
     4
 74
     0
 42
0.0000000001
 43
0.0000000001
 40
0.0
 40
0.0
 40
0.0
 40
0.0
 40
1.0
 40
1.0
 40
1.0
 40
1.0
 10
6.00571
 20
3.00215
 30
0.0
 10
6.00571
 20
3.00215
 30
0.0
 10
6.00571
 20
1.03925
 30
0.0
 10
6.00571
 20
1.03925
 30
0.0
  0
SPLINE
  5
D5
330
1F
100
AcDbEntity
  8
0
370
     9
100
AcDbSpline
210
0.0
220
0.0
230
1.0
 70
    24
 71
     3
 72
     8
 73
     4
 74
     0
 42
0.0000000001
 43
0.0000000001
 40
0.0
 40
0.0
 40
0.0
 40
0.0
 40
1.0
 40
1.0
 40
1.0
 40
1.0
 10
-13.99429
 20
1.13925
 30
0.0
 10
-13.99429
 20
1.13925
 30
0.0
 10
6.00571
 20
1.13925
 30
0.0
 10
6.00571
 20
1.13925
 30
0.0
  0
SPLINE
  5
D6
330
1F
100
AcDbEntity
  8
0
100
AcDbSpline
210
0.0
220
0.0
230
1.0
 70
    11
 71
     3
 72
    80
 73
    76
 74
     0
 42
0.0000000001
 43
0.0000000001
 40
0.0
 40
0.0
 40
0.0
 40
0.0
 40
0.05
 40
0.05
 40
0.05
 40
0.05
 40
0.1
 40
0.1
 40
0.1
 40
0.1
 40
0.15
 40
0.15
 40
0.15
 40
0.15
 40
0.2
 40
0.2
 40
0.2
 40
0.2
 40
0.25
 40
0.25
 40
0.25
 40
0.25
 40
0.3
 40
0.3
 40
0.3
 40
0.3
 40
0.35
 40
0.35
 40
0.35
 40
0.35
 40
0.4
 40
0.4
 40
0.4
 40
0.4
 40
0.45
 40
0.45
 40
0.45
 40
0.45
 40
0.5
 40
0.5
 40
0.5
 40
0.5
 40
0.55
 40
0.55
 40
0.55
 40
0.55
 40
0.6
 40
0.6
 40
0.6
 40
0.6
 40
0.65
 40
0.65
 40
0.65
 40
0.65
 40
0.7
 40
0.7
 40
0.7
 40
0.7
 40
0.75
 40
0.75
 40
0.75
 40
0.75
 40
0.8
 40
0.8
 40
0.8
 40
0.8
 40
0.85
 40
0.85
 40
0.85
 40
0.85
 40
0.9
 40
0.9
 40
0.9
 40
0.9
 40
1.0
 40
1.0
 40
1.0
 40
1.0
 10
-4.70943
 20
1.46272
 30
0.0
 10
-4.70943
 20
1.46272
 30
0.0
 10
-4.73999
 20
1.46033
 30
0.0
 10
-4.73999
 20
1.46033
 30
0.0
 10
-4.73999
 20
1.46033
 30
0.0
 10
-4.74273
 20
1.47241
 30
0.0
 10
-4.74658
 20
1.48122
 30
0.0
 10
-4.7516
 20
1.48664
 30
0.0
 10
-4.7516
 20
1.48664
 30
0.0
 10
-4.75994
 20
1.49545
 30
0.0
 10
-4.77021
 20
1.49982
 30
0.0
 10
-4.7824
 20
1.49982
 30
0.0
 10
-4.7824
 20
1.49982
 30
0.0
 10
-4.7922
 20
1.49982
 30
0.0
 10
-4.80078
 20
1.49708
 30
0.0
 10
-4.80818
 20
1.4916
 30
0.0
 10
-4.80818
 20
1.4916
 30
0.0
 10
-4.81787
 20
1.48454
 30
0.0
 10
-4.82551
 20
1.47422
 30
0.0
 10
-4.83111
 20
1.46068
 30
0.0
 10
-4.83111
 20
1.46068
 30
0.0
 10
-4.83665
 20
1.44715
 30
0.0
 10
-4.83957
 20
1.42784
 30
0.0
 10
-4.8398
 20
1.40276
 30
0.0
 10
-4.8398
 20
1.40276
 30
0.0
 10
-4.83239
 20
1.41402
 30
0.0
 10
-4.82335
 20
1.42242
 30
0.0
 10
-4.81262
 20
1.4279
 30
0.0
 10
-4.81262
 20
1.4279
 30
0.0
 10
-4.80194
 20
1.43332
 30
0.0
 10
-4.79068
 20
1.43607
 30
0.0
 10
-4.77896
 20
1.43607
 30
0.0
 10
-4.77896
 20
1.43607
 30
0.0
 10
-4.75843
 20
1.43607
 30
0.0
 10
-4.74098
 20
1.42854
 30
0.0
 10
-4.72658
 20
1.41343
 30
0.0
 10
-4.72658
 20
1.41343
 30
0.0
 10
-4.71217
 20
1.39832
 30
0.0
 10
-4.70493
 20
1.37884
 30
0.0
 10
-4.70493
 20
1.35492
 30
0.0
 10
-4.70493
 20
1.35492
 30
0.0
 10
-4.70493
 20
1.33917
 30
0.0
 10
-4.70838
 20
1.32459
 30
0.0
 10
-4.71514
 20
1.31106
 30
0.0
 10
-4.71514
 20
1.31106
 30
0.0
 10
-4.72191
 20
1.29758
 30
0.0
 10
-4.73124
 20
1.2872
 30
0.0
 10
-4.74308
 20
1.28002
 30
0.0
 10
-4.74308
 20
1.28002
 30
0.0
 10
-4.75493
 20
1.27285
 30
0.0
 10
-4.76834
 20
1.26929
 30
0.0
 10
-4.78339
 20
1.26929
 30
0.0
 10
-4.78339
 20
1.26929
 30
0.0
 10
-4.80906
 20
1.26929
 30
0.0
 10
-4.82994
 20
1.27868
 30
0.0
 10
-4.8461
 20
1.29758
 30
0.0
 10
-4.8461
 20
1.29758
 30
0.0
 10
-4.86232
 20
1.31642
 30
0.0
 10
-4.87037
 20
1.34752
 30
0.0
 10
-4.87037
 20
1.3908
 30
0.0
 10
-4.87037
 20
1.3908
 30
0.0
 10
-4.87037
 20
1.43922
 30
0.0
 10
-4.86144
 20
1.47439
 30
0.0
 10
-4.84353
 20
1.49638
 30
0.0
 10
-4.84353
 20
1.49638
 30
0.0
 10
-4.82796
 20
1.51552
 30
0.0
 10
-4.80696
 20
1.52514
 30
0.0
 10
-4.78048
 20
1.52514
 30
0.0
 10
-4.78048
 20
1.52514
 30
0.0
 10
-4.76082
 20
1.52514
 30
0.0
 10
-4.74466
 20
1.5196
 30
0.0
 10
-4.73206
 20
1.50852
 30
0.0
 10
-4.73206
 20
1.50852
 30
0.0
 10
-4.71946
 20
1.49749
 30
0.0
 10
-4.71193
 20
1.48221
 30
0.0
 10
-4.70943
 20
1.46272
 30
0.0
  0
SPLINE
  5
D7
330
1F
100
AcDbEntity
  8
0
100
AcDbSpline
210
0.0
220
0.0
230
1.0
 70
    11
 71
     3
 72
    40
 73
    36
 74
     0
 42
0.0000000001
 43
0.0000000001
 40
0.0
 40
0.0
 40
0.0
 40
0.0
 40
0.1
 40
0.1
 40
0.1
 40
0.1
 40
0.2
 40
0.2
 40
0.2
 40
0.2
 40
0.3
 40
0.3
 40
0.3
 40
0.3
 40
0.4
 40
0.4
 40
0.4
 40
0.4
 40
0.5
 40
0.5
 40
0.5
 40
0.5
 40
0.6
 40
0.6
 40
0.6
 40
0.6
 40
0.7
 40
0.7
 40
0.7
 40
0.7
 40
0.8
 40
0.8
 40
0.8
 40
0.8
 40
1.0
 40
1.0
 40
1.0
 40
1.0
 10
-4.83502
 20
1.35475
 30
0.0
 10
-4.83502
 20
1.34413
 30
0.0
 10
-4.83274
 20
1.33398
 30
0.0
 10
-4.82825
 20
1.3243
 30
0.0
 10
-4.82825
 20
1.3243
 30
0.0
 10
-4.82376
 20
1.31462
 30
0.0
 10
-4.81746
 20
1.30727
 30
0.0
 10
-4.80941
 20
1.30219
 30
0.0
 10
-4.80941
 20
1.30219
 30
0.0
 10
-4.8013
 20
1.29712
 30
0.0
 10
-4.79278
 20
1.29455
 30
0.0
 10
-4.78392
 20
1.29455
 30
0.0
 10
-4.78392
 20
1.29455
 30
0.0
 10
-4.77091
 20
1.29455
 30
0.0
 10
-4.75977
 20
1.2998
 30
0.0
 10
-4.75043
 20
1.3103
 30
0.0
 10
-4.75043
 20
1.3103
 30
0.0
 10
-4.7411
 20
1.3208
 30
0.0
 10
-4.73643
 20
1.33503
 30
0.0
 10
-4.73643
 20
1.353
 30
0.0
 10
-4.73643
 20
1.353
 30
0.0
 10
-4.73643
 20
1.37032
 30
0.0
 10
-4.74104
 20
1.38397
 30
0.0
 10
-4.75026
 20
1.39395
 30
0.0
 10
-4.75026
 20
1.39395
 30
0.0
 10
-4.75948
 20
1.40392
 30
0.0
 10
-4.77108
 20
1.40888
 30
0.0
 10
-4.78508
 20
1.40888
 30
0.0
 10
-4.78508
 20
1.40888
 30
0.0
 10
-4.79903
 20
1.40888
 30
0.0
 10
-4.81081
 20
1.40392
 30
0.0
 10
-4.82049
 20
1.39395
 30
0.0
 10
-4.82049
 20
1.39395
 30
0.0
 10
-4.83018
 20
1.38397
 30
0.0
 10
-4.83502
 20
1.37091
 30
0.0
 10
-4.83502
 20
1.35475
 30
0.0
  0
SPLINE
  5
D8
330
1F
100
AcDbEntity
  8
0
100
AcDbSpline
210
0.0
220
0.0
230
1.0
 70
    11
 71
     3
 72
    52
 73
    48
 74
     0
 42
0.0000000001
 43
0.0000000001
 40
0.0
 40
0.0
 40
0.0
 40
0.0
 40
0.0769230769230769
 40
0.0769230769230769
 40
0.0769230769230769
 40
0.0769230769230769
 40
0.1538461538461539
 40
0.1538461538461539
 40
0.1538461538461539
 40
0.1538461538461539
 40
0.2307692307692308
 40
0.2307692307692308
 40
0.2307692307692308
 40
0.2307692307692308
 40
0.3076923076923077
 40
0.3076923076923077
 40
0.3076923076923077
 40
0.3076923076923077
 40
0.3846153846153846
 40
0.3846153846153846
 40
0.3846153846153846
 40
0.3846153846153846
 40
0.4615384615384616
 40
0.4615384615384616
 40
0.4615384615384616
 40
0.4615384615384616
 40
0.5384615384615384
 40
0.5384615384615384
 40
0.5384615384615384
 40
0.5384615384615384
 40
0.6153846153846154
 40
0.6153846153846154
 40
0.6153846153846154
 40
0.6153846153846154
 40
0.6923076923076923
 40
0.6923076923076923
 40
0.6923076923076923
 40
0.6923076923076923
 40
0.7692307692307693
 40
0.7692307692307693
 40
0.7692307692307693
 40
0.7692307692307693
 40
0.8461538461538461
 40
0.8461538461538461
 40
0.8461538461538461
 40
0.8461538461538461
 40
1.0
 40
1.0
 40
1.0
 40
1.0
 10
-4.67437
 20
1.3971
 30
0.0
 10
-4.67437
 20
1.42673
 30
0.0
 10
-4.67133
 20
1.45059
 30
0.0
 10
-4.66521
 20
1.46862
 30
0.0
 10
-4.66521
 20
1.46862
 30
0.0
 10
-4.65914
 20
1.4867
 30
0.0
 10
-4.65004
 20
1.50064
 30
0.0
 10
-4.63802
 20
1.51044
 30
0.0
 10
-4.63802
 20
1.51044
 30
0.0
 10
-4.62601
 20
1.52024
 30
0.0
 10
-4.6109
 20
1.52514
 30
0.0
 10
-4.5927
 20
1.52514
 30
0.0
 10
-4.5927
 20
1.52514
 30
0.0
 10
-4.57922
 20
1.52514
 30
0.0
 10
-4.56744
 20
1.5224
 30
0.0
 10
-4.55729
 20
1.51697
 30
0.0
 10
-4.55729
 20
1.51697
 30
0.0
 10
-4.54714
 20
1.51161
 30
0.0
 10
-4.5388
 20
1.50379
 30
0.0
 10
-4.53215
 20
1.49358
 30
0.0
 10
-4.53215
 20
1.49358
 30
0.0
 10
-4.52556
 20
1.48337
 30
0.0
 10
-4.52037
 20
1.47095
 30
0.0
 10
-4.51663
 20
1.45631
 30
0.0
 10
-4.51663
 20
1.45631
 30
0.0
 10
-4.51284
 20
1.44167
 30
0.0
 10
-4.51097
 20
1.42195
 30
0.0
 10
-4.51097
 20
1.3971
 30
0.0
 10
-4.51097
 20
1.3971
 30
0.0
 10
-4.51097
 20
1.3677
 30
0.0
 10
-4.51401
 20
1.34402
 30
0.0
 10
-4.52002
 20
1.32593
 30
0.0
 10
-4.52002
 20
1.32593
 30
0.0
 10
-4.52608
 20
1.30785
 30
0.0
 10
-4.53512
 20
1.29391
 30
0.0
 10
-4.54714
 20
1.28405
 30
0.0
 10
-4.54714
 20
1.28405
 30
0.0
 10
-4.55916
 20
1.27419
 30
0.0
 10
-4.57432
 20
1.26929
 30
0.0
 10
-4.5927
 20
1.26929
 30
0.0
 10
-4.5927
 20
1.26929
 30
0.0
 10
-4.61685
 20
1.26929
 30
0.0
 10
-4.63581
 20
1.27792
 30
0.0
 10
-4.64957
 20
1.29525
 30
0.0
 10
-4.64957
 20
1.29525
 30
0.0
 10
-4.66608
 20
1.31607
 30
0.0
 10
-4.67437
 20
1.35008
 30
0.0
 10
-4.67437
 20
1.3971
 30
0.0
  0
SPLINE
  5
D9
330
1F
100
AcDbEntity
  8
0
100
AcDbSpline
210
0.0
220
0.0
230
1.0
 70
    11
 71
     3
 72
    36
 73
    32
 74
     0
 42
0.0000000001
 43
0.0000000001
 40
0.0
 40
0.0
 40
0.0
 40
0.0
 40
0.1111111111111111
 40
0.1111111111111111
 40
0.1111111111111111
 40
0.1111111111111111
 40
0.2222222222222222
 40
0.2222222222222222
 40
0.2222222222222222
 40
0.2222222222222222
 40
0.3333333333333333
 40
0.3333333333333333
 40
0.3333333333333333
 40
0.3333333333333333
 40
0.4444444444444444
 40
0.4444444444444444
 40
0.4444444444444444
 40
0.4444444444444444
 40
0.5555555555555556
 40
0.5555555555555556
 40
0.5555555555555556
 40
0.5555555555555556
 40
0.6666666666666666
 40
0.6666666666666666
 40
0.6666666666666666
 40
0.6666666666666666
 40
0.7777777777777778
 40
0.7777777777777778
 40
0.7777777777777778
 40
0.7777777777777778
 40
1.0
 40
1.0
 40
1.0
 40
1.0
 10
-4.64275
 20
1.3971
 30
0.0
 10
-4.64275
 20
1.35597
 30
0.0
 10
-4.63791
 20
1.32862
 30
0.0
 10
-4.62828
 20
1.31497
 30
0.0
 10
-4.62828
 20
1.31497
 30
0.0
 10
-4.61866
 20
1.30137
 30
0.0
 10
-4.60682
 20
1.29455
 30
0.0
 10
-4.5927
 20
1.29455
 30
0.0
 10
-4.5927
 20
1.29455
 30
0.0
 10
-4.57852
 20
1.29455
 30
0.0
 10
-4.56668
 20
1.30143
 30
0.0
 10
-4.55706
 20
1.31508
 30
0.0
 10
-4.55706
 20
1.31508
 30
0.0
 10
-4.54743
 20
1.32873
 30
0.0
 10
-4.54259
 20
1.35609
 30
0.0
 10
-4.54259
 20
1.3971
 30
0.0
 10
-4.54259
 20
1.3971
 30
0.0
 10
-4.54259
 20
1.43834
 30
0.0
 10
-4.54743
 20
1.46576
 30
0.0
 10
-4.55706
 20
1.47929
 30
0.0
 10
-4.55706
 20
1.47929
 30
0.0
 10
-4.56668
 20
1.49288
 30
0.0
 10
-4.57864
 20
1.49965
 30
0.0
 10
-4.59299
 20
1.49965
 30
0.0
 10
-4.59299
 20
1.49965
 30
0.0
 10
-4.60717
 20
1.49965
 30
0.0
 10
-4.61842
 20
1.49364
 30
0.0
 10
-4.62688
 20
1.48168
 30
0.0
 10
-4.62688
 20
1.48168
 30
0.0
 10
-4.63744
 20
1.46646
 30
0.0
 10
-4.64275
 20
1.43822
 30
0.0
 10
-4.64275
 20
1.3971
 30
0.0
  0
SPLINE
  5
DA
330
1F
100
AcDbEntity
  8
0
100
AcDbSpline
210
0.0
220
0.0
230
1.0
 70
    11
 71
     3
 72
    52
 73
    48
 74
     0
 42
0.0000000001
 43
0.0000000001
 40
0.0
 40
0.0
 40
0.0
 40
0.0
 40
0.0769230769230769
 40
0.0769230769230769
 40
0.0769230769230769
 40
0.0769230769230769
 40
0.1538461538461539
 40
0.1538461538461539
 40
0.1538461538461539
 40
0.1538461538461539
 40
0.2307692307692308
 40
0.2307692307692308
 40
0.2307692307692308
 40
0.2307692307692308
 40
0.3076923076923077
 40
0.3076923076923077
 40
0.3076923076923077
 40
0.3076923076923077
 40
0.3846153846153846
 40
0.3846153846153846
 40
0.3846153846153846
 40
0.3846153846153846
 40
0.4615384615384616
 40
0.4615384615384616
 40
0.4615384615384616
 40
0.4615384615384616
 40
0.5384615384615384
 40
0.5384615384615384
 40
0.5384615384615384
 40
0.5384615384615384
 40
0.6153846153846154
 40
0.6153846153846154
 40
0.6153846153846154
 40
0.6153846153846154
 40
0.6923076923076923
 40
0.6923076923076923
 40
0.6923076923076923
 40
0.6923076923076923
 40
0.7692307692307693
 40
0.7692307692307693
 40
0.7692307692307693
 40
0.7692307692307693
 40
0.8461538461538461
 40
0.8461538461538461
 40
0.8461538461538461
 40
0.8461538461538461
 40
1.0
 40
1.0
 40
1.0
 40
1.0
 10
-4.47971
 20
1.3971
 30
0.0
 10
-4.47971
 20
1.42673
 30
0.0
 10
-4.47667
 20
1.45059
 30
0.0
 10
-4.47055
 20
1.46862
 30
0.0
 10
-4.47055
 20
1.46862
 30
0.0
 10
-4.46448
 20
1.4867
 30
0.0
 10
-4.45538
 20
1.50064
 30
0.0
 10
-4.44336
 20
1.51044
 30
0.0
 10
-4.44336
 20
1.51044
 30
0.0
 10
-4.43135
 20
1.52024
 30
0.0
 10
-4.41624
 20
1.52514
 30
0.0
 10
-4.39804
 20
1.52514
 30
0.0
 10
-4.39804
 20
1.52514
 30
0.0
 10
-4.38456
 20
1.52514
 30
0.0
 10
-4.37278
 20
1.5224
 30
0.0
 10
-4.36263
 20
1.51697
 30
0.0
 10
-4.36263
 20
1.51697
 30
0.0
 10
-4.35248
 20
1.51161
 30
0.0
 10
-4.34414
 20
1.50379
 30
0.0
 10
-4.33749
 20
1.49358
 30
0.0
 10
-4.33749
 20
1.49358
 30
0.0
 10
-4.3309
 20
1.48337
 30
0.0
 10
-4.32571
 20
1.47095
 30
0.0
 10
-4.32197
 20
1.45631
 30
0.0
 10
-4.32197
 20
1.45631
 30
0.0
 10
-4.31818
 20
1.44167
 30
0.0
 10
-4.31631
 20
1.42195
 30
0.0
 10
-4.31631
 20
1.3971
 30
0.0
 10
-4.31631
 20
1.3971
 30
0.0
 10
-4.31631
 20
1.3677
 30
0.0
 10
-4.31935
 20
1.34402
 30
0.0
 10
-4.32536
 20
1.32593
 30
0.0
 10
-4.32536
 20
1.32593
 30
0.0
 10
-4.33142
 20
1.30785
 30
0.0
 10
-4.34046
 20
1.29391
 30
0.0
 10
-4.35248
 20
1.28405
 30
0.0
 10
-4.35248
 20
1.28405
 30
0.0
 10
-4.3645
 20
1.27419
 30
0.0
 10
-4.37966
 20
1.26929
 30
0.0
 10
-4.39804
 20
1.26929
 30
0.0
 10
-4.39804
 20
1.26929
 30
0.0
 10
-4.42219
 20
1.26929
 30
0.0
 10
-4.44115
 20
1.27792
 30
0.0
 10
-4.45491
 20
1.29525
 30
0.0
 10
-4.45491
 20
1.29525
 30
0.0
 10
-4.47142
 20
1.31607
 30
0.0
 10
-4.47971
 20
1.35008
 30
0.0
 10
-4.47971
 20
1.3971
 30
0.0
  0
SPLINE
  5
DB
330
1F
100
AcDbEntity
  8
0
100
AcDbSpline
210
0.0
220
0.0
230
1.0
 70
    11
 71
     3
 72
    36
 73
    32
 74
     0
 42
0.0000000001
 43
0.0000000001
 40
0.0
 40
0.0
 40
0.0
 40
0.0
 40
0.1111111111111111
 40
0.1111111111111111
 40
0.1111111111111111
 40
0.1111111111111111
 40
0.2222222222222222
 40
0.2222222222222222
 40
0.2222222222222222
 40
0.2222222222222222
 40
0.3333333333333333
 40
0.3333333333333333
 40
0.3333333333333333
 40
0.3333333333333333
 40
0.4444444444444444
 40
0.4444444444444444
 40
0.4444444444444444
 40
0.4444444444444444
 40
0.5555555555555556
 40
0.5555555555555556
 40
0.5555555555555556
 40
0.5555555555555556
 40
0.6666666666666666
 40
0.6666666666666666
 40
0.6666666666666666
 40
0.6666666666666666
 40
0.7777777777777778
 40
0.7777777777777778
 40
0.7777777777777778
 40
0.7777777777777778
 40
1.0
 40
1.0
 40
1.0
 40
1.0
 10
-4.44809
 20
1.3971
 30
0.0
 10
-4.44809
 20
1.35597
 30
0.0
 10
-4.44325
 20
1.32862
 30
0.0
 10
-4.43362
 20
1.31497
 30
0.0
 10
-4.43362
 20
1.31497
 30
0.0
 10
-4.424
 20
1.30137
 30
0.0
 10
-4.41216
 20
1.29455
 30
0.0
 10
-4.39804
 20
1.29455
 30
0.0
 10
-4.39804
 20
1.29455
 30
0.0
 10
-4.38386
 20
1.29455
 30
0.0
 10
-4.37202
 20
1.30143
 30
0.0
 10
-4.3624
 20
1.31508
 30
0.0
 10
-4.3624
 20
1.31508
 30
0.0
 10
-4.35277
 20
1.32873
 30
0.0
 10
-4.34793
 20
1.35609
 30
0.0
 10
-4.34793
 20
1.3971
 30
0.0
 10
-4.34793
 20
1.3971
 30
0.0
 10
-4.34793
 20
1.43834
 30
0.0
 10
-4.35277
 20
1.46576
 30
0.0
 10
-4.3624
 20
1.47929
 30
0.0
 10
-4.3624
 20
1.47929
 30
0.0
 10
-4.37202
 20
1.49288
 30
0.0
 10
-4.38398
 20
1.49965
 30
0.0
 10
-4.39833
 20
1.49965
 30
0.0
 10
-4.39833
 20
1.49965
 30
0.0
 10
-4.41251
 20
1.49965
 30
0.0
 10
-4.42376
 20
1.49364
 30
0.0
 10
-4.43222
 20
1.48168
 30
0.0
 10
-4.43222
 20
1.48168
 30
0.0
 10
-4.44278
 20
1.46646
 30
0.0
 10
-4.44809
 20
1.43822
 30
0.0
 10
-4.44809
 20
1.3971
 30
0.0
  0
SPLINE
  5
DC
330
1F
100
AcDbEntity
  8
0
100
AcDbSpline
210
0.0
220
0.0
230
1.0
 70
    27
 71
     3
 72
    12
 73
     8
 74
     0
 42
0.0000000001
 43
0.0000000001
 40
0.0
 40
0.0
 40
0.0
 40
0.0
 40
0.3333333333333333
 40
0.3333333333333333
 40
0.3333333333333333
 40
0.3333333333333333
 40
1.0
 40
1.0
 40
1.0
 40
1.0
 10
7.62238
 20
2.70215
 30
0.0
 10
7.62238
 20
2.70215
 30
0.0
 10
7.57158
 20
3.03235
 30
0.0
 10
7.57158
 20
3.03235
 30
0.0
 10
7.57158
 20
3.03235
 30
0.0
 10
7.57158
 20
3.03235
 30
0.0
 10
7.62238
 20
2.70215
 30
0.0
 10
7.62238
 20
2.70215
 30
0.0
  0
SPLINE
  5
DD
330
1F
100
AcDbEntity
  8
0
100
AcDbSpline
210
0.0
220
0.0
230
1.0
 70
     8
 71
     3
 72
    12
 73
     8
 74
     0
 42
0.0000000001
 43
0.0000000001
 40
0.0
 40
0.0
 40
0.0
 40
0.0
 40
0.3333333333333333
 40
0.3333333333333333
 40
0.3333333333333333
 40
0.3333333333333333
 40
1.0
 40
1.0
 40
1.0
 40
1.0
 10
7.57158
 20
3.03235
 30
0.0
 10
7.57158
 20
3.03235
 30
0.0
 10
7.67318
 20
3.03235
 30
0.0
 10
7.67318
 20
3.03235
 30
0.0
 10
7.67318
 20
3.03235
 30
0.0
 10
7.67318
 20
3.03235
 30
0.0
 10
7.62238
 20
2.70215
 30
0.0
 10
7.62238
 20
2.70215
 30
0.0
  0
SPLINE
  5
DE
330
1F
100
AcDbEntity
  8
0
370
     9
100
AcDbSpline
210
0.0
220
0.0
230
1.0
 70
    24
 71
     3
 72
     8
 73
     4
 74
     0
 42
0.0000000001
 43
0.0000000001
 40
0.0
 40
0.0
 40
0.0
 40
0.0
 40
1.0
 40
1.0
 40
1.0
 40
1.0
 10
7.62238
 20
2.70215
 30
0.0
 10
7.62238
 20
2.70215
 30
0.0
 10
7.57158
 20
3.03235
 30
0.0
 10
7.57158
 20
3.03235
 30
0.0
  0
SPLINE
  5
DF
330
1F
100
AcDbEntity
  8
0
370
     9
100
AcDbSpline
210
0.0
220
0.0
230
1.0
 70
     8
 71
     3
 72
    12
 73
     8
 74
     0
 42
0.0000000001
 43
0.0000000001
 40
0.0
 40
0.0
 40
0.0
 40
0.0
 40
0.3333333333333333
 40
0.3333333333333333
 40
0.3333333333333333
 40
0.3333333333333333
 40
1.0
 40
1.0
 40
1.0
 40
1.0
 10
7.57158
 20
3.03235
 30
0.0
 10
7.57158
 20
3.03235
 30
0.0
 10
7.67318
 20
3.03235
 30
0.0
 10
7.67318
 20
3.03235
 30
0.0
 10
7.67318
 20
3.03235
 30
0.0
 10
7.67318
 20
3.03235
 30
0.0
 10
7.62238
 20
2.70215
 30
0.0
 10
7.62238
 20
2.70215
 30
0.0
  0
SPLINE
  5
E0
330
1F
100
AcDbEntity
  8
0
100
AcDbSpline
210
0.0
220
0.0
230
1.0
 70
    27
 71
     3
 72
    12
 73
     8
 74
     0
 42
0.0000000001
 43
0.0000000001
 40
0.0
 40
0.0
 40
0.0
 40
0.0
 40
0.3333333333333333
 40
0.3333333333333333
 40
0.3333333333333333
 40
0.3333333333333333
 40
1.0
 40
1.0
 40
1.0
 40
1.0
 10
7.62238
 20
6.93548
 30
0.0
 10
7.62238
 20
6.93548
 30
0.0
 10
7.67318
 20
6.60528
 30
0.0
 10
7.67318
 20
6.60528
 30
0.0
 10
7.67318
 20
6.60528
 30
0.0
 10
7.67318
 20
6.60528
 30
0.0
 10
7.62238
 20
6.93548
 30
0.0
 10
7.62238
 20
6.93548
 30
0.0
  0
SPLINE
  5
E1
330
1F
100
AcDbEntity
  8
0
100
AcDbSpline
210
0.0
220
0.0
230
1.0
 70
     8
 71
     3
 72
    12
 73
     8
 74
     0
 42
0.0000000001
 43
0.0000000001
 40
0.0
 40
0.0
 40
0.0
 40
0.0
 40
0.3333333333333333
 40
0.3333333333333333
 40
0.3333333333333333
 40
0.3333333333333333
 40
1.0
 40
1.0
 40
1.0
 40
1.0
 10
7.67318
 20
6.60528
 30
0.0
 10
7.67318
 20
6.60528
 30
0.0
 10
7.57158
 20
6.60528
 30
0.0
 10
7.57158
 20
6.60528
 30
0.0
 10
7.57158
 20
6.60528
 30
0.0
 10
7.57158
 20
6.60528
 30
0.0
 10
7.62238
 20
6.93548
 30
0.0
 10
7.62238
 20
6.93548
 30
0.0
  0
SPLINE
  5
E2
330
1F
100
AcDbEntity
  8
0
370
     9
100
AcDbSpline
210
0.0
220
0.0
230
1.0
 70
    24
 71
     3
 72
     8
 73
     4
 74
     0
 42
0.0000000001
 43
0.0000000001
 40
0.0
 40
0.0
 40
0.0
 40
0.0
 40
1.0
 40
1.0
 40
1.0
 40
1.0
 10
7.62238
 20
6.93548
 30
0.0
 10
7.62238
 20
6.93548
 30
0.0
 10
7.67318
 20
6.60528
 30
0.0
 10
7.67318
 20
6.60528
 30
0.0
  0
SPLINE
  5
E3
330
1F
100
AcDbEntity
  8
0
370
     9
100
AcDbSpline
210
0.0
220
0.0
230
1.0
 70
     8
 71
     3
 72
    12
 73
     8
 74
     0
 42
0.0000000001
 43
0.0000000001
 40
0.0
 40
0.0
 40
0.0
 40
0.0
 40
0.3333333333333333
 40
0.3333333333333333
 40
0.3333333333333333
 40
0.3333333333333333
 40
1.0
 40
1.0
 40
1.0
 40
1.0
 10
7.67318
 20
6.60528
 30
0.0
 10
7.67318
 20
6.60528
 30
0.0
 10
7.57158
 20
6.60528
 30
0.0
 10
7.57158
 20
6.60528
 30
0.0
 10
7.57158
 20
6.60528
 30
0.0
 10
7.57158
 20
6.60528
 30
0.0
 10
7.62238
 20
6.93548
 30
0.0
 10
7.62238
 20
6.93548
 30
0.0
  0
SPLINE
  5
E4
330
1F
100
AcDbEntity
  8
0
370
     9
100
AcDbSpline
210
0.0
220
0.0
230
1.0
 70
    24
 71
     3
 72
     8
 73
     4
 74
     0
 42
0.0000000001
 43
0.0000000001
 40
0.0
 40
0.0
 40
0.0
 40
0.0
 40
1.0
 40
1.0
 40
1.0
 40
1.0
 10
5.70571
 20
2.70215
 30
0.0
 10
5.70571
 20
2.70215
 30
0.0
 10
7.72238
 20
2.70215
 30
0.0
 10
7.72238
 20
2.70215
 30
0.0
  0
SPLINE
  5
E5
330
1F
100
AcDbEntity
  8
0
370
     9
100
AcDbSpline
210
0.0
220
0.0
230
1.0
 70
    24
 71
     3
 72
     8
 73
     4
 74
     0
 42
0.0000000001
 43
0.0000000001
 40
0.0
 40
0.0
 40
0.0
 40
0.0
 40
1.0
 40
1.0
 40
1.0
 40
1.0
 10
6.10571
 20
6.93548
 30
0.0
 10
6.10571
 20
6.93548
 30
0.0
 10
7.72238
 20
6.93548
 30
0.0
 10
7.72238
 20
6.93548
 30
0.0
  0
SPLINE
  5
E6
330
1F
100
AcDbEntity
  8
0
370
     9
100
AcDbSpline
210
0.0
220
0.0
230
1.0
 70
    24
 71
     3
 72
     8
 73
     4
 74
     0
 42
0.0000000001
 43
0.0000000001
 40
0.0
 40
0.0
 40
0.0
 40
0.0
 40
1.0
 40
1.0
 40
1.0
 40
1.0
 10
7.62238
 20
2.70215
 30
0.0
 10
7.62238
 20
2.70215
 30
0.0
 10
7.62238
 20
6.93548
 30
0.0
 10
7.62238
 20
6.93548
 30
0.0
  0
SPLINE
  5
E7
330
1F
100
AcDbEntity
  8
0
100
AcDbSpline
210
0.0
220
0.0
230
1.0
 70
    11
 71
     3
 72
    40
 73
    36
 74
     0
 42
0.0000000001
 43
0.0000000001
 40
0.0
 40
0.0
 40
0.0
 40
0.0
 40
0.1
 40
0.1
 40
0.1
 40
0.1
 40
0.2
 40
0.2
 40
0.2
 40
0.2
 40
0.3
 40
0.3
 40
0.3
 40
0.3
 40
0.4
 40
0.4
 40
0.4
 40
0.4
 40
0.5
 40
0.5
 40
0.5
 40
0.5
 40
0.6
 40
0.6
 40
0.6
 40
0.6
 40
0.7
 40
0.7
 40
0.7
 40
0.7
 40
0.8
 40
0.8
 40
0.8
 40
0.8
 40
1.0
 40
1.0
 40
1.0
 40
1.0
 10
7.48808
 20
4.29899
 30
0.0
 10
7.48808
 20
4.29899
 30
0.0
 10
7.48808
 20
4.26825
 30
0.0
 10
7.48808
 20
4.26825
 30
0.0
 10
7.48808
 20
4.26825
 30
0.0
 10
7.48808
 20
4.26825
 30
0.0
 10
7.29208
 20
4.26825
 30
0.0
 10
7.29208
 20
4.26825
 30
0.0
 10
7.29208
 20
4.26825
 30
0.0
 10
7.29914
 20
4.26084
 30
0.0
 10
7.3062
 20
4.25116
 30
0.0
 10
7.31326
 20
4.23914
 30
0.0
 10
7.31326
 20
4.23914
 30
0.0
 10
7.32031
 20
4.22707
 30
0.0
 10
7.32562
 20
4.21628
 30
0.0
 10
7.32912
 20
4.20671
 30
0.0
 10
7.32912
 20
4.20671
 30
0.0
 10
7.32912
 20
4.20671
 30
0.0
 10
7.29943
 20
4.20671
 30
0.0
 10
7.29943
 20
4.20671
 30
0.0
 10
7.29943
 20
4.20671
 30
0.0
 10
7.29132
 20
4.22392
 30
0.0
 10
7.28152
 20
4.23897
 30
0.0
 10
7.27003
 20
4.25186
 30
0.0
 10
7.27003
 20
4.25186
 30
0.0
 10
7.25848
 20
4.26469
 30
0.0
 10
7.24734
 20
4.27385
 30
0.0
 10
7.23655
 20
4.27922
 30
0.0
 10
7.23655
 20
4.27922
 30
0.0
 10
7.23655
 20
4.27922
 30
0.0
 10
7.23655
 20
4.29899
 30
0.0
 10
7.23655
 20
4.29899
 30
0.0
 10
7.23655
 20
4.29899
 30
0.0
 10
7.23655
 20
4.29899
 30
0.0
 10
7.48808
 20
4.29899
 30
0.0
 10
7.48808
 20
4.29899
 30
0.0
  0
SPLINE
  5
E8
330
1F
100
AcDbEntity
  8
0
100
AcDbSpline
210
0.0
220
0.0
230
1.0
 70
    11
 71
     3
 72
    92
 73
    88
 74
     0
 42
0.0000000001
 43
0.0000000001
 40
0.0
 40
0.0
 40
0.0
 40
0.0
 40
0.0434782608695652
 40
0.0434782608695652
 40
0.0434782608695652
 40
0.0434782608695652
 40
0.0869565217391304
 40
0.0869565217391304
 40
0.0869565217391304
 40
0.0869565217391304
 40
0.1304347826086956
 40
0.1304347826086956
 40
0.1304347826086956
 40
0.1304347826086956
 40
0.1739130434782609
 40
0.1739130434782609
 40
0.1739130434782609
 40
0.1739130434782609
 40
0.2173913043478261
 40
0.2173913043478261
 40
0.2173913043478261
 40
0.2173913043478261
 40
0.2608695652173913
 40
0.2608695652173913
 40
0.2608695652173913
 40
0.2608695652173913
 40
0.3043478260869565
 40
0.3043478260869565
 40
0.3043478260869565
 40
0.3043478260869565
 40
0.3478260869565217
 40
0.3478260869565217
 40
0.3478260869565217
 40
0.3478260869565217
 40
0.391304347826087
 40
0.391304347826087
 40
0.391304347826087
 40
0.391304347826087
 40
0.4347826086956522
 40
0.4347826086956522
 40
0.4347826086956522
 40
0.4347826086956522
 40
0.4782608695652174
 40
0.4782608695652174
 40
0.4782608695652174
 40
0.4782608695652174
 40
0.5217391304347826
 40
0.5217391304347826
 40
0.5217391304347826
 40
0.5217391304347826
 40
0.5652173913043478
 40
0.5652173913043478
 40
0.5652173913043478
 40
0.5652173913043478
 40
0.6086956521739131
 40
0.6086956521739131
 40
0.6086956521739131
 40
0.6086956521739131
 40
0.6521739130434783
 40
0.6521739130434783
 40
0.6521739130434783
 40
0.6521739130434783
 40
0.6956521739130435
 40
0.6956521739130435
 40
0.6956521739130435
 40
0.6956521739130435
 40
0.7391304347826086
 40
0.7391304347826086
 40
0.7391304347826086
 40
0.7391304347826086
 40
0.782608695652174
 40
0.782608695652174
 40
0.782608695652174
 40
0.782608695652174
 40
0.8260869565217391
 40
0.8260869565217391
 40
0.8260869565217391
 40
0.8260869565217391
 40
0.8695652173913043
 40
0.8695652173913043
 40
0.8695652173913043
 40
0.8695652173913043
 40
0.9130434782608695
 40
0.9130434782608695
 40
0.9130434782608695
 40
0.9130434782608695
 40
1.0
 40
1.0
 40
1.0
 40
1.0
 10
7.45851
 20
4.5395
 30
0.0
 10
7.45851
 20
4.5395
 30
0.0
 10
7.48808
 20
4.5395
 30
0.0
 10
7.48808
 20
4.5395
 30
0.0
 10
7.48808
 20
4.5395
 30
0.0
 10
7.48808
 20
4.5395
 30
0.0
 10
7.48808
 20
4.3739
 30
0.0
 10
7.48808
 20
4.3739
 30
0.0
 10
7.48808
 20
4.3739
 30
0.0
 10
7.48067
 20
4.37366
 30
0.0
 10
7.47356
 20
4.37483
 30
0.0
 10
7.46673
 20
4.37745
 30
0.0
 10
7.46673
 20
4.37745
 30
0.0
 10
7.45541
 20
4.38165
 30
0.0
 10
7.44433
 20
4.38842
 30
0.0
 10
7.43342
 20
4.3977
 30
0.0
 10
7.43342
 20
4.3977
 30
0.0
 10
7.42246
 20
4.40703
 30
0.0
 10
7.4098
 20
4.42045
 30
0.0
 10
7.39545
 20
4.43795
 30
0.0
 10
7.39545
 20
4.43795
 30
0.0
 10
7.37311
 20
4.46519
 30
0.0
 10
7.35543
 20
4.48362
 30
0.0
 10
7.34236
 20
4.49319
 30
0.0
 10
7.34236
 20
4.49319
 30
0.0
 10
7.32936
 20
4.50275
 30
0.0
 10
7.31699
 20
4.50754
 30
0.0
 10
7.30538
 20
4.50754
 30
0.0
 10
7.30538
 20
4.50754
 30
0.0
 10
7.29319
 20
4.50754
 30
0.0
 10
7.28292
 20
4.50316
 30
0.0
 10
7.27452
 20
4.49447
 30
0.0
 10
7.27452
 20
4.49447
 30
0.0
 10
7.26618
 20
4.48572
 30
0.0
 10
7.26198
 20
4.47435
 30
0.0
 10
7.26198
 20
4.46035
 30
0.0
 10
7.26198
 20
4.46035
 30
0.0
 10
7.26198
 20
4.44553
 30
0.0
 10
7.26641
 20
4.43369
 30
0.0
 10
7.27534
 20
4.42482
 30
0.0
 10
7.27534
 20
4.42482
 30
0.0
 10
7.28421
 20
4.4159
 30
0.0
 10
7.29651
 20
4.4114
 30
0.0
 10
7.31221
 20
4.41129
 30
0.0
 10
7.31221
 20
4.41129
 30
0.0
 10
7.31221
 20
4.41129
 30
0.0
 10
7.309
 20
4.37967
 30
0.0
 10
7.309
 20
4.37967
 30
0.0
 10
7.309
 20
4.37967
 30
0.0
 10
7.28537
 20
4.38183
 30
0.0
 10
7.26741
 20
4.39
 30
0.0
 10
7.25504
 20
4.40411
 30
0.0
 10
7.25504
 20
4.40411
 30
0.0
 10
7.24267
 20
4.41823
 30
0.0
 10
7.23655
 20
4.43725
 30
0.0
 10
7.23655
 20
4.46105
 30
0.0
 10
7.23655
 20
4.46105
 30
0.0
 10
7.23655
 20
4.48508
 30
0.0
 10
7.2432
 20
4.5041
 30
0.0
 10
7.2565
 20
4.5181
 30
0.0
 10
7.2565
 20
4.5181
 30
0.0
 10
7.26986
 20
4.53215
 30
0.0
 10
7.28636
 20
4.53915
 30
0.0
 10
7.30608
 20
4.53915
 30
0.0
 10
7.30608
 20
4.53915
 30
0.0
 10
7.31611
 20
4.53915
 30
0.0
 10
7.32597
 20
4.53711
 30
0.0
 10
7.33566
 20
4.53297
 30
0.0
 10
7.33566
 20
4.53297
 30
0.0
 10
7.34534
 20
4.52889
 30
0.0
 10
7.35555
 20
4.52206
 30
0.0
 10
7.36622
 20
4.51255
 30
0.0
 10
7.36622
 20
4.51255
 30
0.0
 10
7.37696
 20
4.50305
 30
0.0
 10
7.39166
 20
4.48724
 30
0.0
 10
7.41032
 20
4.46513
 30
0.0
 10
7.41032
 20
4.46513
 30
0.0
 10
7.42584
 20
4.4467
 30
0.0
 10
7.43634
 20
4.43485
 30
0.0
 10
7.44188
 20
4.4296
 30
0.0
 10
7.44188
 20
4.4296
 30
0.0
 10
7.44736
 20
4.42435
 30
0.0
 10
7.45291
 20
4.42004
 30
0.0
 10
7.45851
 20
4.4166
 30
0.0
 10
7.45851
 20
4.4166
 30
0.0
 10
7.45851
 20
4.4166
 30
0.0
 10
7.45851
 20
4.5395
 30
0.0
 10
7.45851
 20
4.5395
 30
0.0
  0
SPLINE
  5
E9
330
1F
100
AcDbEntity
  8
0
100
AcDbSpline
210
0.0
220
0.0
230
1.0
 70
    11
 71
     3
 72
    48
 73
    44
 74
     0
 42
0.0000000001
 43
0.0000000001
 40
0.0
 40
0.0
 40
0.0
 40
0.0
 40
0.0833333333333333
 40
0.0833333333333333
 40
0.0833333333333333
 40
0.0833333333333333
 40
0.1666666666666667
 40
0.1666666666666667
 40
0.1666666666666667
 40
0.1666666666666667
 40
0.25
 40
0.25
 40
0.25
 40
0.25
 40
0.3333333333333333
 40
0.3333333333333333
 40
0.3333333333333333
 40
0.3333333333333333
 40
0.4166666666666667
 40
0.4166666666666667
 40
0.4166666666666667
 40
0.4166666666666667
 40
0.5
 40
0.5
 40
0.5
 40
0.5
 40
0.5833333333333334
 40
0.5833333333333334
 40
0.5833333333333334
 40
0.5833333333333334
 40
0.6666666666666666
 40
0.6666666666666666
 40
0.6666666666666666
 40
0.6666666666666666
 40
0.75
 40
0.75
 40
0.75
 40
0.75
 40
0.8333333333333334
 40
0.8333333333333334
 40
0.8333333333333334
 40
0.8333333333333334
 40
1.0
 40
1.0
 40
1.0
 40
1.0
 10
7.27038
 20
4.57451
 30
0.0
 10
7.27038
 20
4.57451
 30
0.0
 10
7.24081
 20
4.57451
 30
0.0
 10
7.24081
 20
4.57451
 30
0.0
 10
7.24081
 20
4.57451
 30
0.0
 10
7.24081
 20
4.57451
 30
0.0
 10
7.24081
 20
4.73667
 30
0.0
 10
7.24081
 20
4.73667
 30
0.0
 10
7.24081
 20
4.73667
 30
0.0
 10
7.24081
 20
4.73667
 30
0.0
 10
7.26472
 20
4.73667
 30
0.0
 10
7.26472
 20
4.73667
 30
0.0
 10
7.26472
 20
4.73667
 30
0.0
 10
7.2817
 20
4.72075
 30
0.0
 10
7.30427
 20
4.70494
 30
0.0
 10
7.33239
 20
4.68925
 30
0.0
 10
7.33239
 20
4.68925
 30
0.0
 10
7.36051
 20
4.67361
 30
0.0
 10
7.3895
 20
4.66148
 30
0.0
 10
7.41919
 20
4.65296
 30
0.0
 10
7.41919
 20
4.65296
 30
0.0
 10
7.44019
 20
4.64678
 30
0.0
 10
7.46311
 20
4.64287
 30
0.0
 10
7.48808
 20
4.64118
 30
0.0
 10
7.48808
 20
4.64118
 30
0.0
 10
7.48808
 20
4.64118
 30
0.0
 10
7.48808
 20
4.60956
 30
0.0
 10
7.48808
 20
4.60956
 30
0.0
 10
7.48808
 20
4.60956
 30
0.0
 10
7.46836
 20
4.60991
 30
0.0
 10
7.44456
 20
4.61376
 30
0.0
 10
7.41662
 20
4.62117
 30
0.0
 10
7.41662
 20
4.62117
 30
0.0
 10
7.38874
 20
4.62858
 30
0.0
 10
7.36179
 20
4.6392
 30
0.0
 10
7.33589
 20
4.65302
 30
0.0
 10
7.33589
 20
4.65302
 30
0.0
 10
7.30999
 20
4.66691
 30
0.0
 10
7.28811
 20
4.68161
 30
0.0
 10
7.27038
 20
4.69724
 30
0.0
 10
7.27038
 20
4.69724
 30
0.0
 10
7.27038
 20
4.69724
 30
0.0
 10
7.27038
 20
4.57451
 30
0.0
 10
7.27038
 20
4.57451
 30
0.0
  0
SPLINE
  5
EA
330
1F
100
AcDbEntity
  8
0
100
AcDbSpline
210
0.0
220
0.0
230
1.0
 70
    27
 71
     3
 72
    12
 73
     8
 74
     0
 42
0.0000000001
 43
0.0000000001
 40
0.0
 40
0.0
 40
0.0
 40
0.0
 40
0.3333333333333333
 40
0.3333333333333333
 40
0.3333333333333333
 40
0.3333333333333333
 40
1.0
 40
1.0
 40
1.0
 40
1.0
 10
-15.25208
 20
6.10215
 30
0.0
 10
-15.25208
 20
6.10215
 30
0.0
 10
-15.20128
 20
5.77195
 30
0.0
 10
-15.20128
 20
5.77195
 30
0.0
 10
-15.20128
 20
5.77195
 30
0.0
 10
-15.20128
 20
5.77195
 30
0.0
 10
-15.25208
 20
6.10215
 30
0.0
 10
-15.25208
 20
6.10215
 30
0.0
  0
SPLINE
  5
EB
330
1F
100
AcDbEntity
  8
0
100
AcDbSpline
210
0.0
220
0.0
230
1.0
 70
     8
 71
     3
 72
    12
 73
     8
 74
     0
 42
0.0000000001
 43
0.0000000001
 40
0.0
 40
0.0
 40
0.0
 40
0.0
 40
0.3333333333333333
 40
0.3333333333333333
 40
0.3333333333333333
 40
0.3333333333333333
 40
1.0
 40
1.0
 40
1.0
 40
1.0
 10
-15.20128
 20
5.77195
 30
0.0
 10
-15.20128
 20
5.77195
 30
0.0
 10
-15.30288
 20
5.77195
 30
0.0
 10
-15.30288
 20
5.77195
 30
0.0
 10
-15.30288
 20
5.77195
 30
0.0
 10
-15.30288
 20
5.77195
 30
0.0
 10
-15.25208
 20
6.10215
 30
0.0
 10
-15.25208
 20
6.10215
 30
0.0
  0
SPLINE
  5
EC
330
1F
100
AcDbEntity
  8
0
370
     9
100
AcDbSpline
210
0.0
220
0.0
230
1.0
 70
    24
 71
     3
 72
     8
 73
     4
 74
     0
 42
0.0000000001
 43
0.0000000001
 40
0.0
 40
0.0
 40
0.0
 40
0.0
 40
1.0
 40
1.0
 40
1.0
 40
1.0
 10
-15.25208
 20
6.10215
 30
0.0
 10
-15.25208
 20
6.10215
 30
0.0
 10
-15.20128
 20
5.77195
 30
0.0
 10
-15.20128
 20
5.77195
 30
0.0
  0
SPLINE
  5
ED
330
1F
100
AcDbEntity
  8
0
370
     9
100
AcDbSpline
210
0.0
220
0.0
230
1.0
 70
     8
 71
     3
 72
    12
 73
     8
 74
     0
 42
0.0000000001
 43
0.0000000001
 40
0.0
 40
0.0
 40
0.0
 40
0.0
 40
0.3333333333333333
 40
0.3333333333333333
 40
0.3333333333333333
 40
0.3333333333333333
 40
1.0
 40
1.0
 40
1.0
 40
1.0
 10
-15.20128
 20
5.77195
 30
0.0
 10
-15.20128
 20
5.77195
 30
0.0
 10
-15.30288
 20
5.77195
 30
0.0
 10
-15.30288
 20
5.77195
 30
0.0
 10
-15.30288
 20
5.77195
 30
0.0
 10
-15.30288
 20
5.77195
 30
0.0
 10
-15.25208
 20
6.10215
 30
0.0
 10
-15.25208
 20
6.10215
 30
0.0
  0
SPLINE
  5
EE
330
1F
100
AcDbEntity
  8
0
100
AcDbSpline
210
0.0
220
0.0
230
1.0
 70
    27
 71
     3
 72
    12
 73
     8
 74
     0
 42
0.0000000001
 43
0.0000000001
 40
0.0
 40
0.0
 40
0.0
 40
0.0
 40
0.3333333333333333
 40
0.3333333333333333
 40
0.3333333333333333
 40
0.3333333333333333
 40
1.0
 40
1.0
 40
1.0
 40
1.0
 10
-15.25208
 20
2.70215
 30
0.0
 10
-15.25208
 20
2.70215
 30
0.0
 10
-15.30288
 20
3.03235
 30
0.0
 10
-15.30288
 20
3.03235
 30
0.0
 10
-15.30288
 20
3.03235
 30
0.0
 10
-15.30288
 20
3.03235
 30
0.0
 10
-15.25208
 20
2.70215
 30
0.0
 10
-15.25208
 20
2.70215
 30
0.0
  0
SPLINE
  5
EF
330
1F
100
AcDbEntity
  8
0
100
AcDbSpline
210
0.0
220
0.0
230
1.0
 70
     8
 71
     3
 72
    12
 73
     8
 74
     0
 42
0.0000000001
 43
0.0000000001
 40
0.0
 40
0.0
 40
0.0
 40
0.0
 40
0.3333333333333333
 40
0.3333333333333333
 40
0.3333333333333333
 40
0.3333333333333333
 40
1.0
 40
1.0
 40
1.0
 40
1.0
 10
-15.30288
 20
3.03235
 30
0.0
 10
-15.30288
 20
3.03235
 30
0.0
 10
-15.20128
 20
3.03235
 30
0.0
 10
-15.20128
 20
3.03235
 30
0.0
 10
-15.20128
 20
3.03235
 30
0.0
 10
-15.20128
 20
3.03235
 30
0.0
 10
-15.25208
 20
2.70215
 30
0.0
 10
-15.25208
 20
2.70215
 30
0.0
  0
SPLINE
  5
F0
330
1F
100
AcDbEntity
  8
0
370
     9
100
AcDbSpline
210
0.0
220
0.0
230
1.0
 70
    24
 71
     3
 72
     8
 73
     4
 74
     0
 42
0.0000000001
 43
0.0000000001
 40
0.0
 40
0.0
 40
0.0
 40
0.0
 40
1.0
 40
1.0
 40
1.0
 40
1.0
 10
-15.25208
 20
2.70215
 30
0.0
 10
-15.25208
 20
2.70215
 30
0.0
 10
-15.30288
 20
3.03235
 30
0.0
 10
-15.30288
 20
3.03235
 30
0.0
  0
SPLINE
  5
F1
330
1F
100
AcDbEntity
  8
0
370
     9
100
AcDbSpline
210
0.0
220
0.0
230
1.0
 70
     8
 71
     3
 72
    12
 73
     8
 74
     0
 42
0.0000000001
 43
0.0000000001
 40
0.0
 40
0.0
 40
0.0
 40
0.0
 40
0.3333333333333333
 40
0.3333333333333333
 40
0.3333333333333333
 40
0.3333333333333333
 40
1.0
 40
1.0
 40
1.0
 40
1.0
 10
-15.30288
 20
3.03235
 30
0.0
 10
-15.30288
 20
3.03235
 30
0.0
 10
-15.20128
 20
3.03235
 30
0.0
 10
-15.20128
 20
3.03235
 30
0.0
 10
-15.20128
 20
3.03235
 30
0.0
 10
-15.20128
 20
3.03235
 30
0.0
 10
-15.25208
 20
2.70215
 30
0.0
 10
-15.25208
 20
2.70215
 30
0.0
  0
SPLINE
  5
F2
330
1F
100
AcDbEntity
  8
0
370
     9
100
AcDbSpline
210
0.0
220
0.0
230
1.0
 70
    24
 71
     3
 72
     8
 73
     4
 74
     0
 42
0.0000000001
 43
0.0000000001
 40
0.0
 40
0.0
 40
0.0
 40
0.0
 40
1.0
 40
1.0
 40
1.0
 40
1.0
 10
-14.09429
 20
6.10215
 30
0.0
 10
-14.09429
 20
6.10215
 30
0.0
 10
-15.35208
 20
6.10215
 30
0.0
 10
-15.35208
 20
6.10215
 30
0.0
  0
SPLINE
  5
F3
330
1F
100
AcDbEntity
  8
0
370
     9
100
AcDbSpline
210
0.0
220
0.0
230
1.0
 70
    24
 71
     3
 72
     8
 73
     4
 74
     0
 42
0.0000000001
 43
0.0000000001
 40
0.0
 40
0.0
 40
0.0
 40
0.0
 40
1.0
 40
1.0
 40
1.0
 40
1.0
 10
-13.69429
 20
2.70215
 30
0.0
 10
-13.69429
 20
2.70215
 30
0.0
 10
-15.35208
 20
2.70215
 30
0.0
 10
-15.35208
 20
2.70215
 30
0.0
  0
SPLINE
  5
F4
330
1F
100
AcDbEntity
  8
0
370
     9
100
AcDbSpline
210
0.0
220
0.0
230
1.0
 70
    24
 71
     3
 72
     8
 73
     4
 74
     0
 42
0.0000000001
 43
0.0000000001
 40
0.0
 40
0.0
 40
0.0
 40
0.0
 40
1.0
 40
1.0
 40
1.0
 40
1.0
 10
-15.25208
 20
6.10215
 30
0.0
 10
-15.25208
 20
6.10215
 30
0.0
 10
-15.25208
 20
2.70215
 30
0.0
 10
-15.25208
 20
2.70215
 30
0.0
  0
SPLINE
  5
F5
330
1F
100
AcDbEntity
  8
0
100
AcDbSpline
210
0.0
220
0.0
230
1.0
 70
    11
 71
     3
 72
    40
 73
    36
 74
     0
 42
0.0000000001
 43
0.0000000001
 40
0.0
 40
0.0
 40
0.0
 40
0.0
 40
0.1
 40
0.1
 40
0.1
 40
0.1
 40
0.2
 40
0.2
 40
0.2
 40
0.2
 40
0.3
 40
0.3
 40
0.3
 40
0.3
 40
0.4
 40
0.4
 40
0.4
 40
0.4
 40
0.5
 40
0.5
 40
0.5
 40
0.5
 40
0.6
 40
0.6
 40
0.6
 40
0.6
 40
0.7
 40
0.7
 40
0.7
 40
0.7
 40
0.8
 40
0.8
 40
0.8
 40
0.8
 40
1.0
 40
1.0
 40
1.0
 40
1.0
 10
-15.38639
 20
4.11885
 30
0.0
 10
-15.38639
 20
4.11885
 30
0.0
 10
-15.38639
 20
4.08811
 30
0.0
 10
-15.38639
 20
4.08811
 30
0.0
 10
-15.38639
 20
4.08811
 30
0.0
 10
-15.38639
 20
4.08811
 30
0.0
 10
-15.58239
 20
4.08811
 30
0.0
 10
-15.58239
 20
4.08811
 30
0.0
 10
-15.58239
 20
4.08811
 30
0.0
 10
-15.57533
 20
4.0807
 30
0.0
 10
-15.56827
 20
4.07102
 30
0.0
 10
-15.56121
 20
4.059
 30
0.0
 10
-15.56121
 20
4.059
 30
0.0
 10
-15.55416
 20
4.04693
 30
0.0
 10
-15.54885
 20
4.03614
 30
0.0
 10
-15.54535
 20
4.02657
 30
0.0
 10
-15.54535
 20
4.02657
 30
0.0
 10
-15.54535
 20
4.02657
 30
0.0
 10
-15.57504
 20
4.02657
 30
0.0
 10
-15.57504
 20
4.02657
 30
0.0
 10
-15.57504
 20
4.02657
 30
0.0
 10
-15.58315
 20
4.04378
 30
0.0
 10
-15.59295
 20
4.05883
 30
0.0
 10
-15.60444
 20
4.07172
 30
0.0
 10
-15.60444
 20
4.07172
 30
0.0
 10
-15.61599
 20
4.08455
 30
0.0
 10
-15.62713
 20
4.09371
 30
0.0
 10
-15.63792
 20
4.09908
 30
0.0
 10
-15.63792
 20
4.09908
 30
0.0
 10
-15.63792
 20
4.09908
 30
0.0
 10
-15.63792
 20
4.11885
 30
0.0
 10
-15.63792
 20
4.11885
 30
0.0
 10
-15.63792
 20
4.11885
 30
0.0
 10
-15.63792
 20
4.11885
 30
0.0
 10
-15.38639
 20
4.11885
 30
0.0
 10
-15.38639
 20
4.11885
 30
0.0
  0
SPLINE
  5
F6
330
1F
100
AcDbEntity
  8
0
100
AcDbSpline
210
0.0
220
0.0
230
1.0
 70
    11
 71
     3
 72
    52
 73
    48
 74
     0
 42
0.0000000001
 43
0.0000000001
 40
0.0
 40
0.0
 40
0.0
 40
0.0
 40
0.0769230769230769
 40
0.0769230769230769
 40
0.0769230769230769
 40
0.0769230769230769
 40
0.1538461538461539
 40
0.1538461538461539
 40
0.1538461538461539
 40
0.1538461538461539
 40
0.2307692307692308
 40
0.2307692307692308
 40
0.2307692307692308
 40
0.2307692307692308
 40
0.3076923076923077
 40
0.3076923076923077
 40
0.3076923076923077
 40
0.3076923076923077
 40
0.3846153846153846
 40
0.3846153846153846
 40
0.3846153846153846
 40
0.3846153846153846
 40
0.4615384615384616
 40
0.4615384615384616
 40
0.4615384615384616
 40
0.4615384615384616
 40
0.5384615384615384
 40
0.5384615384615384
 40
0.5384615384615384
 40
0.5384615384615384
 40
0.6153846153846154
 40
0.6153846153846154
 40
0.6153846153846154
 40
0.6153846153846154
 40
0.6923076923076923
 40
0.6923076923076923
 40
0.6923076923076923
 40
0.6923076923076923
 40
0.7692307692307693
 40
0.7692307692307693
 40
0.7692307692307693
 40
0.7692307692307693
 40
0.8461538461538461
 40
0.8461538461538461
 40
0.8461538461538461
 40
0.8461538461538461
 40
1.0
 40
1.0
 40
1.0
 40
1.0
 10
-15.50994
 20
4.19766
 30
0.0
 10
-15.53957
 20
4.19766
 30
0.0
 10
-15.56343
 20
4.2007
 30
0.0
 10
-15.58146
 20
4.20682
 30
0.0
 10
-15.58146
 20
4.20682
 30
0.0
 10
-15.59954
 20
4.21289
 30
0.0
 10
-15.61348
 20
4.22199
 30
0.0
 10
-15.62328
 20
4.23401
 30
0.0
 10
-15.62328
 20
4.23401
 30
0.0
 10
-15.63308
 20
4.24602
 30
0.0
 10
-15.63792
 20
4.26113
 30
0.0
 10
-15.63792
 20
4.27933
 30
0.0
 10
-15.63792
 20
4.27933
 30
0.0
 10
-15.63792
 20
4.29281
 30
0.0
 10
-15.63524
 20
4.30459
 30
0.0
 10
-15.62981
 20
4.31474
 30
0.0
 10
-15.62981
 20
4.31474
 30
0.0
 10
-15.62445
 20
4.32489
 30
0.0
 10
-15.61663
 20
4.33323
 30
0.0
 10
-15.60642
 20
4.33988
 30
0.0
 10
-15.60642
 20
4.33988
 30
0.0
 10
-15.59621
 20
4.34647
 30
0.0
 10
-15.58379
 20
4.35166
 30
0.0
 10
-15.56915
 20
4.3554
 30
0.0
 10
-15.56915
 20
4.3554
 30
0.0
 10
-15.55451
 20
4.35919
 30
0.0
 10
-15.53479
 20
4.36106
 30
0.0
 10
-15.50994
 20
4.36106
 30
0.0
 10
-15.50994
 20
4.36106
 30
0.0
 10
-15.48054
 20
4.36106
 30
0.0
 10
-15.45686
 20
4.35802
 30
0.0
 10
-15.43877
 20
4.35201
 30
0.0
 10
-15.43877
 20
4.35201
 30
0.0
 10
-15.42069
 20
4.34595
 30
0.0
 10
-15.40675
 20
4.33691
 30
0.0
 10
-15.39689
 20
4.32489
 30
0.0
 10
-15.39689
 20
4.32489
 30
0.0
 10
-15.38703
 20
4.31287
 30
0.0
 10
-15.38213
 20
4.29771
 30
0.0
 10
-15.38213
 20
4.27933
 30
0.0
 10
-15.38213
 20
4.27933
 30
0.0
 10
-15.38213
 20
4.25518
 30
0.0
 10
-15.39076
 20
4.23622
 30
0.0
 10
-15.40809
 20
4.22246
 30
0.0
 10
-15.40809
 20
4.22246
 30
0.0
 10
-15.42891
 20
4.20595
 30
0.0
 10
-15.46292
 20
4.19766
 30
0.0
 10
-15.50994
 20
4.19766
 30
0.0
  0
SPLINE
  5
F7
330
1F
100
AcDbEntity
  8
0
100
AcDbSpline
210
0.0
220
0.0
230
1.0
 70
    11
 71
     3
 72
    36
 73
    32
 74
     0
 42
0.0000000001
 43
0.0000000001
 40
0.0
 40
0.0
 40
0.0
 40
0.0
 40
0.1111111111111111
 40
0.1111111111111111
 40
0.1111111111111111
 40
0.1111111111111111
 40
0.2222222222222222
 40
0.2222222222222222
 40
0.2222222222222222
 40
0.2222222222222222
 40
0.3333333333333333
 40
0.3333333333333333
 40
0.3333333333333333
 40
0.3333333333333333
 40
0.4444444444444444
 40
0.4444444444444444
 40
0.4444444444444444
 40
0.4444444444444444
 40
0.5555555555555556
 40
0.5555555555555556
 40
0.5555555555555556
 40
0.5555555555555556
 40
0.6666666666666666
 40
0.6666666666666666
 40
0.6666666666666666
 40
0.6666666666666666
 40
0.7777777777777778
 40
0.7777777777777778
 40
0.7777777777777778
 40
0.7777777777777778
 40
1.0
 40
1.0
 40
1.0
 40
1.0
 10
-15.50994
 20
4.22928
 30
0.0
 10
-15.46881
 20
4.22928
 30
0.0
 10
-15.44146
 20
4.23412
 30
0.0
 10
-15.42781
 20
4.24375
 30
0.0
 10
-15.42781
 20
4.24375
 30
0.0
 10
-15.41421
 20
4.25337
 30
0.0
 10
-15.40739
 20
4.26521
 30
0.0
 10
-15.40739
 20
4.27933
 30
0.0
 10
-15.40739
 20
4.27933
 30
0.0
 10
-15.40739
 20
4.29351
 30
0.0
 10
-15.41427
 20
4.30535
 30
0.0
 10
-15.42792
 20
4.31497
 30
0.0
 10
-15.42792
 20
4.31497
 30
0.0
 10
-15.44157
 20
4.3246
 30
0.0
 10
-15.46893
 20
4.32944
 30
0.0
 10
-15.50994
 20
4.32944
 30
0.0
 10
-15.50994
 20
4.32944
 30
0.0
 10
-15.55118
 20
4.32944
 30
0.0
 10
-15.5786
 20
4.3246
 30
0.0
 10
-15.59213
 20
4.31497
 30
0.0
 10
-15.59213
 20
4.31497
 30
0.0
 10
-15.60572
 20
4.30535
 30
0.0
 10
-15.61249
 20
4.29339
 30
0.0
 10
-15.61249
 20
4.27904
 30
0.0
 10
-15.61249
 20
4.27904
 30
0.0
 10
-15.61249
 20
4.26486
 30
0.0
 10
-15.60648
 20
4.25361
 30
0.0
 10
-15.59452
 20
4.24515
 30
0.0
 10
-15.59452
 20
4.24515
 30
0.0
 10
-15.5793
 20
4.23459
 30
0.0
 10
-15.55106
 20
4.22928
 30
0.0
 10
-15.50994
 20
4.22928
 30
0.0
  0
SPLINE
  5
F8
330
1F
100
AcDbEntity
  8
0
100
AcDbSpline
210
0.0
220
0.0
230
1.0
 70
    11
 71
     3
 72
    92
 73
    88
 74
     0
 42
0.0000000001
 43
0.0000000001
 40
0.0
 40
0.0
 40
0.0
 40
0.0
 40
0.0434782608695652
 40
0.0434782608695652
 40
0.0434782608695652
 40
0.0434782608695652
 40
0.0869565217391304
 40
0.0869565217391304
 40
0.0869565217391304
 40
0.0869565217391304
 40
0.1304347826086956
 40
0.1304347826086956
 40
0.1304347826086956
 40
0.1304347826086956
 40
0.1739130434782609
 40
0.1739130434782609
 40
0.1739130434782609
 40
0.1739130434782609
 40
0.2173913043478261
 40
0.2173913043478261
 40
0.2173913043478261
 40
0.2173913043478261
 40
0.2608695652173913
 40
0.2608695652173913
 40
0.2608695652173913
 40
0.2608695652173913
 40
0.3043478260869565
 40
0.3043478260869565
 40
0.3043478260869565
 40
0.3043478260869565
 40
0.3478260869565217
 40
0.3478260869565217
 40
0.3478260869565217
 40
0.3478260869565217
 40
0.391304347826087
 40
0.391304347826087
 40
0.391304347826087
 40
0.391304347826087
 40
0.4347826086956522
 40
0.4347826086956522
 40
0.4347826086956522
 40
0.4347826086956522
 40
0.4782608695652174
 40
0.4782608695652174
 40
0.4782608695652174
 40
0.4782608695652174
 40
0.5217391304347826
 40
0.5217391304347826
 40
0.5217391304347826
 40
0.5217391304347826
 40
0.5652173913043478
 40
0.5652173913043478
 40
0.5652173913043478
 40
0.5652173913043478
 40
0.6086956521739131
 40
0.6086956521739131
 40
0.6086956521739131
 40
0.6086956521739131
 40
0.6521739130434783
 40
0.6521739130434783
 40
0.6521739130434783
 40
0.6521739130434783
 40
0.6956521739130435
 40
0.6956521739130435
 40
0.6956521739130435
 40
0.6956521739130435
 40
0.7391304347826086
 40
0.7391304347826086
 40
0.7391304347826086
 40
0.7391304347826086
 40
0.782608695652174
 40
0.782608695652174
 40
0.782608695652174
 40
0.782608695652174
 40
0.8260869565217391
 40
0.8260869565217391
 40
0.8260869565217391
 40
0.8260869565217391
 40
0.8695652173913043
 40
0.8695652173913043
 40
0.8695652173913043
 40
0.8695652173913043
 40
0.9130434782608695
 40
0.9130434782608695
 40
0.9130434782608695
 40
0.9130434782608695
 40
1.0
 40
1.0
 40
1.0
 40
1.0
 10
-15.41596
 20
4.55402
 30
0.0
 10
-15.41596
 20
4.55402
 30
0.0
 10
-15.38639
 20
4.55402
 30
0.0
 10
-15.38639
 20
4.55402
 30
0.0
 10
-15.38639
 20
4.55402
 30
0.0
 10
-15.38639
 20
4.55402
 30
0.0
 10
-15.38639
 20
4.38842
 30
0.0
 10
-15.38639
 20
4.38842
 30
0.0
 10
-15.38639
 20
4.38842
 30
0.0
 10
-15.3938
 20
4.38818
 30
0.0
 10
-15.40091
 20
4.38935
 30
0.0
 10
-15.40774
 20
4.39197
 30
0.0
 10
-15.40774
 20
4.39197
 30
0.0
 10
-15.41906
 20
4.39617
 30
0.0
 10
-15.43014
 20
4.40294
 30
0.0
 10
-15.44105
 20
4.41222
 30
0.0
 10
-15.44105
 20
4.41222
 30
0.0
 10
-15.45201
 20
4.42155
 30
0.0
 10
-15.46467
 20
4.43497
 30
0.0
 10
-15.47902
 20
4.45247
 30
0.0
 10
-15.47902
 20
4.45247
 30
0.0
 10
-15.50136
 20
4.47971
 30
0.0
 10
-15.51904
 20
4.49814
 30
0.0
 10
-15.53211
 20
4.50771
 30
0.0
 10
-15.53211
 20
4.50771
 30
0.0
 10
-15.54511
 20
4.51727
 30
0.0
 10
-15.55748
 20
4.52206
 30
0.0
 10
-15.56909
 20
4.52206
 30
0.0
 10
-15.56909
 20
4.52206
 30
0.0
 10
-15.58128
 20
4.52206
 30
0.0
 10
-15.59155
 20
4.51768
 30
0.0
 10
-15.59995
 20
4.50899
 30
0.0
 10
-15.59995
 20
4.50899
 30
0.0
 10
-15.60829
 20
4.50024
 30
0.0
 10
-15.61249
 20
4.48887
 30
0.0
 10
-15.61249
 20
4.47487
 30
0.0
 10
-15.61249
 20
4.47487
 30
0.0
 10
-15.61249
 20
4.46005
 30
0.0
 10
-15.60806
 20
4.44821
 30
0.0
 10
-15.59913
 20
4.43934
 30
0.0
 10
-15.59913
 20
4.43934
 30
0.0
 10
-15.59026
 20
4.43042
 30
0.0
 10
-15.57796
 20
4.42592
 30
0.0
 10
-15.56226
 20
4.42581
 30
0.0
 10
-15.56226
 20
4.42581
 30
0.0
 10
-15.56226
 20
4.42581
 30
0.0
 10
-15.56547
 20
4.39419
 30
0.0
 10
-15.56547
 20
4.39419
 30
0.0
 10
-15.56547
 20
4.39419
 30
0.0
 10
-15.5891
 20
4.39635
 30
0.0
 10
-15.60706
 20
4.40452
 30
0.0
 10
-15.61943
 20
4.41863
 30
0.0
 10
-15.61943
 20
4.41863
 30
0.0
 10
-15.6318
 20
4.43275
 30
0.0
 10
-15.63792
 20
4.45177
 30
0.0
 10
-15.63792
 20
4.47557
 30
0.0
 10
-15.63792
 20
4.47557
 30
0.0
 10
-15.63792
 20
4.4996
 30
0.0
 10
-15.63127
 20
4.51862
 30
0.0
 10
-15.61797
 20
4.53262
 30
0.0
 10
-15.61797
 20
4.53262
 30
0.0
 10
-15.60461
 20
4.54667
 30
0.0
 10
-15.58811
 20
4.55367
 30
0.0
 10
-15.56839
 20
4.55367
 30
0.0
 10
-15.56839
 20
4.55367
 30
0.0
 10
-15.55836
 20
4.55367
 30
0.0
 10
-15.5485
 20
4.55163
 30
0.0
 10
-15.53881
 20
4.54749
 30
0.0
 10
-15.53881
 20
4.54749
 30
0.0
 10
-15.52913
 20
4.54341
 30
0.0
 10
-15.51892
 20
4.53658
 30
0.0
 10
-15.50825
 20
4.52707
 30
0.0
 10
-15.50825
 20
4.52707
 30
0.0
 10
-15.49751
 20
4.51757
 30
0.0
 10
-15.48281
 20
4.50176
 30
0.0
 10
-15.46415
 20
4.47965
 30
0.0
 10
-15.46415
 20
4.47965
 30
0.0
 10
-15.44863
 20
4.46122
 30
0.0
 10
-15.43813
 20
4.44937
 30
0.0
 10
-15.43259
 20
4.44412
 30
0.0
 10
-15.43259
 20
4.44412
 30
0.0
 10
-15.42711
 20
4.43887
 30
0.0
 10
-15.42156
 20
4.43456
 30
0.0
 10
-15.41596
 20
4.43112
 30
0.0
 10
-15.41596
 20
4.43112
 30
0.0
 10
-15.41596
 20
4.43112
 30
0.0
 10
-15.41596
 20
4.55402
 30
0.0
 10
-15.41596
 20
4.55402
 30
0.0
  0
ENDSEC
  0
SECTION
  2
OBJECTS
  0
DICTIONARY
  5
C
330
0
100
AcDbDictionary
281
     1
  3
ACAD_GROUP
350
D
  3
ACAD_LAYOUT
350
1A
  3
ACAD_MATERIAL
350
3B
  3
ACAD_MLEADERSTYLE
350
11A
  3
ACAD_MLINESTYLE
350
17
  3
ACAD_PLOTSETTINGS
350
19
  3
ACAD_PLOTSTYLENAME
350
E
  3
ACAD_TABLESTYLE
350
119
  3
ACAD_VISUALSTYLE
350
2A
  0
DICTIONARY
  5
D
102
{ACAD_REACTORS
330
C
102
}
330
C
100
AcDbDictionary
281
     1
  0
DICTIONARY
  5
1A
102
{ACAD_REACTORS
330
C
102
}
330
C
100
AcDbDictionary
281
     1
  3
Layout1
350
1E
  3
Layout2
350
26
  3
Model
350
22
  0
DICTIONARY
  5
3B
102
{ACAD_REACTORS
330
C
102
}
330
C
100
AcDbDictionary
281
     1
  3
ByBlock
350
3D
  3
ByLayer
350
3C
  3
Global
350
3E
  0
DICTIONARY
  5
11A
102
{ACAD_REACTORS
330
C
102
}
330
C
100
AcDbDictionary
281
     1
  0
DICTIONARY
  5
17
102
{ACAD_REACTORS
330
C
102
}
330
C
100
AcDbDictionary
281
     1
  3
Standard
350
18
  0
DICTIONARY
  5
19
102
{ACAD_REACTORS
330
C
102
}
330
C
100
AcDbDictionary
281
     1
  0
ACDBDICTIONARYWDFLT
  5
E
102
{ACAD_REACTORS
330
C
102
}
330
C
100
AcDbDictionary
281
     1
  3
Normal
350
F
100
AcDbDictionaryWithDefault
340
F
  0
DICTIONARY
  5
119
102
{ACAD_REACTORS
330
C
102
}
330
C
100
AcDbDictionary
281
     1
  0
DICTIONARY
  5
2A
102
{ACAD_REACTORS
330
C
102
}
330
C
100
AcDbDictionary
281
     1
  3
2dWireframe
350
2F
  3
3D Hidden
350
31
  3
3dWireframe
350
30
  3
Basic
350
32
  3
Brighten
350
36
  3
ColorChange
350
3A
  3
Conceptual
350
34
  3
Dim
350
35
  3
Facepattern
350
39
  3
Flat
350
2B
  3
FlatWithEdges
350
2C
  3
Gouraud
350
2D
  3
GouraudWithEdges
350
2E
  3
Linepattern
350
38
  3
Realistic
350
33
  3
Thicken
350
37
  0
LAYOUT
  5
1E
102
{ACAD_REACTORS
330
1A
102
}
330
1A
100
AcDbPlotSettings
  1

  2
none_device
  4

  6

 40
0.0
 41
0.0
 42
0.0
 43
0.0
 44
0.0
 45
0.0
 46
0.0
 47
0.0
 48
0.0
 49
0.0
140
0.0
141
0.0
142
1.0
143
1.0
 70
   688
 72
     0
 73
     0
 74
     5
  7

 75
    16
 76
     0
 77
     2
 78
   300
147
1.0
148
0.0
149
0.0
100
AcDbLayout
  1
Layout1
 70
     1
 71
     1
 10
0.0
 20
0.0
 11
12.0
 21
9.0
 12
0.0
 22
0.0
 32
0.0
 14
1.000000000000000E+20
 24
1.000000000000000E+20
 34
1.000000000000000E+20
 15
-1.000000000000000E+20
 25
-1.000000000000000E+20
 35
-1.000000000000000E+20
146
0.0
 13
0.0
 23
0.0
 33
0.0
 16
1.0
 26
0.0
 36
0.0
 17
0.0
 27
1.0
 37
0.0
 76
     0
330
1B
  0
LAYOUT
  5
26
102
{ACAD_REACTORS
330
1A
102
}
330
1A
100
AcDbPlotSettings
  1

  2
none_device
  4

  6

 40
0.0
 41
0.0
 42
0.0
 43
0.0
 44
0.0
 45
0.0
 46
0.0
 47
0.0
 48
0.0
 49
0.0
140
0.0
141
0.0
142
1.0
143
1.0
 70
   688
 72
     0
 73
     0
 74
     5
  7

 75
    16
 76
     0
 77
     2
 78
   300
147
1.0
148
0.0
149
0.0
100
AcDbLayout
  1
Layout2
 70
     1
 71
     2
 10
0.0
 20
0.0
 11
0.0
 21
0.0
 12
0.0
 22
0.0
 32
0.0
 14
0.0
 24
0.0
 34
0.0
 15
0.0
 25
0.0
 35
0.0
146
0.0
 13
0.0
 23
0.0
 33
0.0
 16
1.0
 26
0.0
 36
0.0
 17
0.0
 27
1.0
 37
0.0
 76
     0
330
23
  0
LAYOUT
  5
22
102
{ACAD_REACTORS
330
1A
102
}
330
1A
100
AcDbPlotSettings
  1

  2
none_device
  4

  6

 40
0.0
 41
0.0
 42
0.0
 43
0.0
 44
0.0
 45
0.0
 46
0.0
 47
0.0
 48
0.0
 49
0.0
140
0.0
141
0.0
142
1.0
143
1.0
 70
  1712
 72
     0
 73
     0
 74
     0
  7

 75
     0
 76
     0
 77
     2
 78
   300
147
1.0
148
0.0
149
0.0
100
AcDbLayout
  1
Model
 70
     1
 71
     0
 10
0.0
 20
0.0
 11
12.0
 21
9.0
 12
0.0
 22
0.0
 32
0.0
 14
-15.70326
 24
1.03925
 34
0.0
 15
15.82508
 25
13.07532
 35
0.0
146
0.0
 13
0.0
 23
0.0
 33
0.0
 16
1.0
 26
0.0
 36
0.0
 17
0.0
 27
1.0
 37
0.0
 76
     0
330
1F
331
29
  0
MATERIAL
  5
3D
102
{ACAD_REACTORS
330
3B
102
}
330
3B
100
AcDbMaterial
  1
ByBlock
 72
     1
 94
      127
  0
MATERIAL
  5
3C
102
{ACAD_REACTORS
330
3B
102
}
330
3B
100
AcDbMaterial
  1
ByLayer
 72
     1
 94
      127
  0
MATERIAL
  5
3E
102
{ACAD_REACTORS
330
3B
102
}
330
3B
100
AcDbMaterial
  1
Global
 72
     1
 94
      127
  0
MLINESTYLE
  5
18
102
{ACAD_REACTORS
330
17
102
}
330
17
100
AcDbMlineStyle
  2
Standard
 70
     0
  3

 62
   256
 51
90.0
 52
90.0
 71
     2
 49
0.5
 62
   256
  6
BYLAYER
 49
-0.5
 62
   256
  6
BYLAYER
  0
ACDBPLACEHOLDER
  5
F
102
{ACAD_REACTORS
330
E
102
}
330
E
  0
VISUALSTYLE
  5
2F
102
{ACAD_REACTORS
330
2A
102
}
102
{ACAD_XDICTIONARY
360
101
102
}
330
2A
100
AcDbVisualStyle
  2
2dWireframe
 70
     4
 71
     0
 72
     2
 73
     0
 90
        0
 40
-0.6
 41
-30.0
 62
     5
 63
     7
421
 16777215
 74
     1
 91
        4
 64
     7
 65
   257
 75
     1
175
     1
 42
1.0
 92
        0
 66
   257
 43
1.0
 76
     1
 77
     6
 78
     2
 67
     7
 79
     5
170
     0
171
     0
290
     0
174
     0
 93
        1
 44
0.0
173
     0
291
     0
 45
0.0
  0
VISUALSTYLE
  5
31
102
{ACAD_REACTORS
330
2A
102
}
102
{ACAD_XDICTIONARY
360
105
102
}
330
2A
100
AcDbVisualStyle
  2
3D Hidden
 70
     6
 71
     1
 72
     2
 73
     2
 90
        0
 40
-0.6
 41
-30.0
 62
     5
 63
     7
421
 16777215
 74
     2
 91
        2
 64
     7
 65
   257
 75
     2
175
     1
 42
40.0
 92
        0
 66
   257
 43
1.0
 76
     1
 77
     6
 78
     2
 67
     7
 79
     3
170
     0
171
     0
290
     0
174
     0
 93
        1
 44
0.0
173
     0
291
     0
 45
0.0
  0
VISUALSTYLE
  5
30
102
{ACAD_REACTORS
330
2A
102
}
102
{ACAD_XDICTIONARY
360
103
102
}
330
2A
100
AcDbVisualStyle
  2
3dWireframe
 70
     5
 71
     0
 72
     2
 73
     0
 90
        0
 40
-0.6
 41
-30.0
 62
     5
 63
     7
421
 16777215
 74
     1
 91
        4
 64
     7
 65
   257
 75
     1
175
     1
 42
1.0
 92
        0
 66
   257
 43
1.0
 76
     1
 77
     6
 78
     2
 67
     7
 79
     5
170
     0
171
     0
290
     0
174
     0
 93
        1
 44
0.0
173
     0
291
     0
 45
0.0
  0
VISUALSTYLE
  5
32
102
{ACAD_REACTORS
330
2A
102
}
102
{ACAD_XDICTIONARY
360
107
102
}
330
2A
100
AcDbVisualStyle
  2
Basic
 70
     7
 71
     1
 72
     0
 73
     1
 90
        0
 40
-0.6
 41
-30.0
 62
     5
 63
     7
421
 16777215
 74
     0
 91
        4
 64
     7
 65
   257
 75
     1
175
     1
 42
1.0
 92
        8
 66
     7
 43
1.0
 76
     1
 77
     6
 78
     2
 67
     7
 79
     5
170
     0
171
     0
290
     0
174
     0
 93
        1
 44
0.0
173
     0
291
     1
 45
0.0
  0
VISUALSTYLE
  5
36
102
{ACAD_REACTORS
330
2A
102
}
102
{ACAD_XDICTIONARY
360
10F
102
}
330
2A
100
AcDbVisualStyle
  2
Brighten
 70
    12
 71
     2
 72
     2
 73
     0
 90
        0
 40
-0.6
 41
-30.0
 62
     5
 63
     7
421
 16777215
 74
     1
 91
        4
 64
     7
 65
   257
 75
     1
175
     1
 42
1.0
 92
        8
 66
     7
 43
1.0
 76
     1
 77
     6
 78
     2
 67
     7
 79
     5
170
     0
171
     0
290
     0
174
     0
 93
        1
 44
50.0
173
     0
291
     1
 45
0.0
  0
VISUALSTYLE
  5
3A
102
{ACAD_REACTORS
330
2A
102
}
102
{ACAD_XDICTIONARY
360
117
102
}
330
2A
100
AcDbVisualStyle
  2
ColorChange
 70
    16
 71
     2
 72
     2
 73
     3
 90
        0
 40
-0.6
 41
-30.0
 62
     5
 63
     8
421
  8421504
 74
     1
 91
        4
 64
     7
 65
   257
 75
     1
175
     1
 42
1.0
 92
        8
 66
     8
424
  8421504
 43
1.0
 76
     1
 77
     6
 78
     2
 67
     7
 79
     5
170
     0
171
     0
290
     0
174
     0
 93
        1
 44
0.0
173
     0
291
     1
 45
0.0
  0
VISUALSTYLE
  5
34
102
{ACAD_REACTORS
330
2A
102
}
102
{ACAD_XDICTIONARY
360
10B
102
}
330
2A
100
AcDbVisualStyle
  2
Conceptual
 70
     9
 71
     3
 72
     2
 73
     0
 90
        0
 40
-0.6
 41
-30.0
 62
     5
 63
     7
421
 16777215
 74
     2
 91
        2
 64
     7
 65
   257
 75
     1
175
     1
 42
40.0
 92
        8
 66
     7
 43
1.0
 76
     1
 77
     6
 78
     2
 67
     7
 79
     3
170
     0
171
     0
290
     0
174
     0
 93
        1
 44
0.0
173
     0
291
     0
 45
0.0
  0
VISUALSTYLE
  5
35
102
{ACAD_REACTORS
330
2A
102
}
102
{ACAD_XDICTIONARY
360
10D
102
}
330
2A
100
AcDbVisualStyle
  2
Dim
 70
    11
 71
     2
 72
     2
 73
     0
 90
        0
 40
-0.6
 41
-30.0
 62
     5
 63
     7
421
 16777215
 74
     1
 91
        4
 64
     7
 65
   257
 75
     1
175
     1
 42
1.0
 92
        8
 66
     7
 43
1.0
 76
     1
 77
     6
 78
     2
 67
     7
 79
     5
170
     0
171
     0
290
     0
174
     0
 93
        1
 44
-50.0
173
     0
291
     1
 45
0.0
  0
VISUALSTYLE
  5
39
102
{ACAD_REACTORS
330
2A
102
}
102
{ACAD_XDICTIONARY
360
115
102
}
330
2A
100
AcDbVisualStyle
  2
Facepattern
 70
    15
 71
     2
 72
     2
 73
     0
 90
        0
 40
-0.6
 41
-30.0
 62
     5
 63
     7
421
 16777215
 74
     1
 91
        4
 64
     7
 65
   257
 75
     1
175
     1
 42
1.0
 92
        8
 66
     7
 43
1.0
 76
     1
 77
     6
 78
     2
 67
     7
 79
     5
170
     0
171
     0
290
     0
174
     0
 93
        1
 44
0.0
173
     0
291
     1
 45
0.0
  0
VISUALSTYLE
  5
2B
102
{ACAD_REACTORS
330
2A
102
}
102
{ACAD_XDICTIONARY
360
F9
102
}
330
2A
100
AcDbVisualStyle
  2
Flat
 70
     0
 71
     2
 72
     1
 73
     1
 90
        2
 40
-0.6
 41
30.0
 62
     5
 63
     7
421
 16777215
 74
     0
 91
        4
 64
     7
 65
   257
 75
     1
175
     1
 42
1.0
 92
        8
 66
     7
 43
1.0
 76
     1
 77
     6
 78
     2
 67
     7
 79
     5
170
     0
171
     0
290
     0
174
     0
 93
       13
 44
0.0
173
     0
291
     1
 45
0.0
  0
VISUALSTYLE
  5
2C
102
{ACAD_REACTORS
330
2A
102
}
102
{ACAD_XDICTIONARY
360
FB
102
}
330
2A
100
AcDbVisualStyle
  2
FlatWithEdges
 70
     1
 71
     2
 72
     1
 73
     1
 90
        2
 40
-0.6
 41
30.0
 62
     5
 63
     7
421
 16777215
 74
     1
 91
        4
 64
     7
 65
   257
 75
     1
175
     1
 42
1.0
 92
        0
 66
   257
 43
1.0
 76
     1
 77
     6
 78
     2
 67
     7
 79
     5
170
     0
171
     0
290
     0
174
     0
 93
       13
 44
0.0
173
     0
291
     1
 45
0.0
  0
VISUALSTYLE
  5
2D
102
{ACAD_REACTORS
330
2A
102
}
102
{ACAD_XDICTIONARY
360
FD
102
}
330
2A
100
AcDbVisualStyle
  2
Gouraud
 70
     2
 71
     2
 72
     2
 73
     1
 90
        2
 40
-0.6
 41
30.0
 62
     5
 63
     7
421
 16777215
 74
     0
 91
        4
 64
     7
 65
   257
 75
     1
175
     1
 42
1.0
 92
        0
 66
     7
 43
1.0
 76
     1
 77
     6
 78
     2
 67
     7
 79
     5
170
     0
171
     0
290
     0
174
     0
 93
       13
 44
0.0
173
     0
291
     1
 45
0.0
  0
VISUALSTYLE
  5
2E
102
{ACAD_REACTORS
330
2A
102
}
102
{ACAD_XDICTIONARY
360
FF
102
}
330
2A
100
AcDbVisualStyle
  2
GouraudWithEdges
 70
     3
 71
     2
 72
     2
 73
     1
 90
        2
 40
-0.6
 41
30.0
 62
     5
 63
     7
421
 16777215
 74
     1
 91
        4
 64
     7
 65
   257
 75
     1
175
     1
 42
1.0
 92
        0
 66
   257
 43
1.0
 76
     1
 77
     6
 78
     2
 67
     7
 79
     5
170
     0
171
     0
290
     0
174
     0
 93
       13
 44
0.0
173
     0
291
     1
 45
0.0
  0
VISUALSTYLE
  5
38
102
{ACAD_REACTORS
330
2A
102
}
102
{ACAD_XDICTIONARY
360
113
102
}
330
2A
100
AcDbVisualStyle
  2
Linepattern
 70
    14
 71
     2
 72
     2
 73
     0
 90
        0
 40
-0.6
 41
-30.0
 62
     5
 63
     7
421
 16777215
 74
     1
 91
        4
 64
     7
 65
   257
 75
     7
175
     7
 42
1.0
 92
        8
 66
     7
 43
1.0
 76
     1
 77
     6
 78
     2
 67
     7
 79
     5
170
     0
171
     0
290
     0
174
     0
 93
        1
 44
0.0
173
     0
291
     1
 45
0.0
  0
VISUALSTYLE
  5
33
102
{ACAD_REACTORS
330
2A
102
}
102
{ACAD_XDICTIONARY
360
109
102
}
330
2A
100
AcDbVisualStyle
  2
Realistic
 70
     8
 71
     2
 72
     2
 73
     0
 90
        0
 40
-0.6
 41
-30.0
 62
     5
 63
     7
421
 16777215
 74
     1
 91
        0
 64
     7
 65
   257
 75
     1
175
     1
 42
1.0
 92
        8
 66
     8
424
  7895160
 43
1.0
 76
     1
 77
     6
 78
     2
 67
     7
 79
     5
170
     0
171
     0
290
     0
174
     0
 93
       13
 44
0.0
173
     0
291
     0
 45
0.0
  0
VISUALSTYLE
  5
37
102
{ACAD_REACTORS
330
2A
102
}
102
{ACAD_XDICTIONARY
360
111
102
}
330
2A
100
AcDbVisualStyle
  2
Thicken
 70
    13
 71
     2
 72
     2
 73
     0
 90
        0
 40
-0.6
 41
-30.0
 62
     5
 63
     7
421
 16777215
 74
     1
 91
        4
 64
     7
 65
   257
 75
     1
175
     1
 42
1.0
 92
       12
 66
     7
 43
1.0
 76
     1
 77
     6
 78
     2
 67
     7
 79
     5
170
     0
171
     0
290
     0
174
     0
 93
        1
 44
0.0
173
     0
291
     1
 45
0.0
  0
DICTIONARY
  5
101
330
2F
100
AcDbDictionary
280
     1
281
     1
  3
ACAD_XREC_ROUNDTRIP
360
102
  0
DICTIONARY
  5
105
330
31
100
AcDbDictionary
280
     1
281
     1
  3
ACAD_XREC_ROUNDTRIP
360
106
  0
DICTIONARY
  5
103
330
30
100
AcDbDictionary
280
     1
281
     1
  3
ACAD_XREC_ROUNDTRIP
360
104
  0
DICTIONARY
  5
107
330
32
100
AcDbDictionary
280
     1
281
     1
  3
ACAD_XREC_ROUNDTRIP
360
108
  0
DICTIONARY
  5
10F
330
36
100
AcDbDictionary
280
     1
281
     1
  3
ACAD_XREC_ROUNDTRIP
360
110
  0
DICTIONARY
  5
117
330
3A
100
AcDbDictionary
280
     1
281
     1
  3
ACAD_XREC_ROUNDTRIP
360
118
  0
DICTIONARY
  5
10B
330
34
100
AcDbDictionary
280
     1
281
     1
  3
ACAD_XREC_ROUNDTRIP
360
10C
  0
DICTIONARY
  5
10D
330
35
100
AcDbDictionary
280
     1
281
     1
  3
ACAD_XREC_ROUNDTRIP
360
10E
  0
DICTIONARY
  5
115
330
39
100
AcDbDictionary
280
     1
281
     1
  3
ACAD_XREC_ROUNDTRIP
360
116
  0
DICTIONARY
  5
F9
330
2B
100
AcDbDictionary
280
     1
281
     1
  3
ACAD_XREC_ROUNDTRIP
360
FA
  0
DICTIONARY
  5
FB
330
2C
100
AcDbDictionary
280
     1
281
     1
  3
ACAD_XREC_ROUNDTRIP
360
FC
  0
DICTIONARY
  5
FD
330
2D
100
AcDbDictionary
280
     1
281
     1
  3
ACAD_XREC_ROUNDTRIP
360
FE
  0
DICTIONARY
  5
FF
330
2E
100
AcDbDictionary
280
     1
281
     1
  3
ACAD_XREC_ROUNDTRIP
360
100
  0
DICTIONARY
  5
113
330
38
100
AcDbDictionary
280
     1
281
     1
  3
ACAD_XREC_ROUNDTRIP
360
114
  0
DICTIONARY
  5
109
330
33
100
AcDbDictionary
280
     1
281
     1
  3
ACAD_XREC_ROUNDTRIP
360
10A
  0
DICTIONARY
  5
111
330
37
100
AcDbDictionary
280
     1
281
     1
  3
ACAD_XREC_ROUNDTRIP
360
112
  0
XRECORD
  5
102
102
{ACAD_REACTORS
330
101
102
}
330
101
100
AcDbXrecord
280
     1
102
RTVSPropertyOp0
 70
     1
102
RTVSPropertyOp1
 70
     1
102
RTVSPropertyOp2
 70
     1
102
RTVSPropertyOp3
 70
     1
102
RTVSPropertyOp4
 70
     1
102
RTVSPropertyOp5
 70
     1
102
RTVSPropertyOp6
 70
     1
102
RTVSPropertyOp7
 70
     1
102
RTVSPropertyOp8
 70
     1
102
RTVSPropertyOp9
 70
     1
102
RTVSPropertyOp10
 70
     1
102
RTVSPropertyOp11
 70
     1
102
RTVSPropertyOp12
 70
     1
102
RTVSPropertyOp13
 70
     1
102
RTVSPropertyOp14
 70
     1
102
RTVSPropertyOp15
 70
     1
102
RTVSPropertyOp16
 70
     1
102
RTVSPropertyOp17
 70
     1
102
RTVSPropertyOp18
 70
     1
102
RTVSPropertyOp19
 70
     1
102
RTVSPropertyOp20
 70
     1
102
RTVSPropertyOp21
 70
     1
102
RTVSPropertyOp22
 70
     1
102
RTVSPropertyOp23
 70
     1
102
RTVSPropertyOp24
 70
     1
102
RTVSPropertyOp25
 70
     1
102
RTVSPropertyOp26
 70
     1
102
RTVSPropertyOp27
 70
     1
  0
XRECORD
  5
106
102
{ACAD_REACTORS
330
105
102
}
330
105
100
AcDbXrecord
280
     1
102
RTVSPropertyOp0
 70
     1
102
RTVSPropertyOp1
 70
     1
102
RTVSPropertyOp2
 70
     1
102
RTVSPropertyOp3
 70
     1
102
RTVSPropertyOp4
 70
     1
102
RTVSPropertyOp5
 70
     1
102
RTVSPropertyOp6
 70
     1
102
RTVSPropertyOp7
 70
     1
102
RTVSPropertyOp8
 70
     1
102
RTVSPropertyOp9
 70
     1
102
RTVSPropertyOp10
 70
     1
102
RTVSPropertyOp11
 70
     1
102
RTVSPropertyOp12
 70
     1
102
RTVSPropertyOp13
 70
     1
102
RTVSPropertyOp14
 70
     1
102
RTVSPropertyOp15
 70
     1
102
RTVSPropertyOp16
 70
     1
102
RTVSPropertyOp17
 70
     1
102
RTVSPropertyOp18
 70
     1
102
RTVSPropertyOp19
 70
     1
102
RTVSPropertyOp20
 70
     1
102
RTVSPropertyOp21
 70
     1
102
RTVSPropertyOp22
 70
     1
102
RTVSPropertyOp23
 70
     1
102
RTVSPropertyOp24
 70
     1
102
RTVSPropertyOp25
 70
     1
102
RTVSPropertyOp26
 70
     1
102
RTVSPropertyOp27
 70
     1
  0
XRECORD
  5
104
102
{ACAD_REACTORS
330
103
102
}
330
103
100
AcDbXrecord
280
     1
102
RTVSPropertyOp0
 70
     1
102
RTVSPropertyOp1
 70
     1
102
RTVSPropertyOp2
 70
     1
102
RTVSPropertyOp3
 70
     1
102
RTVSPropertyOp4
 70
     1
102
RTVSPropertyOp5
 70
     1
102
RTVSPropertyOp6
 70
     1
102
RTVSPropertyOp7
 70
     1
102
RTVSPropertyOp8
 70
     1
102
RTVSPropertyOp9
 70
     1
102
RTVSPropertyOp10
 70
     1
102
RTVSPropertyOp11
 70
     1
102
RTVSPropertyOp12
 70
     1
102
RTVSPropertyOp13
 70
     1
102
RTVSPropertyOp14
 70
     1
102
RTVSPropertyOp15
 70
     1
102
RTVSPropertyOp16
 70
     1
102
RTVSPropertyOp17
 70
     1
102
RTVSPropertyOp18
 70
     1
102
RTVSPropertyOp19
 70
     1
102
RTVSPropertyOp20
 70
     1
102
RTVSPropertyOp21
 70
     1
102
RTVSPropertyOp22
 70
     1
102
RTVSPropertyOp23
 70
     1
102
RTVSPropertyOp24
 70
     1
102
RTVSPropertyOp25
 70
     1
102
RTVSPropertyOp26
 70
     1
102
RTVSPropertyOp27
 70
     1
  0
XRECORD
  5
108
102
{ACAD_REACTORS
330
107
102
}
330
107
100
AcDbXrecord
280
     1
102
RTVSPropertyOp0
 70
     1
102
RTVSPropertyOp1
 70
     1
102
RTVSPropertyOp2
 70
     1
102
RTVSPropertyOp3
 70
     1
102
RTVSPropertyOp4
 70
     1
102
RTVSPropertyOp5
 70
     1
102
RTVSPropertyOp6
 70
     1
102
RTVSPropertyOp7
 70
     1
102
RTVSPropertyOp8
 70
     1
102
RTVSPropertyOp9
 70
     1
102
RTVSPropertyOp10
 70
     1
102
RTVSPropertyOp11
 70
     1
102
RTVSPropertyOp12
 70
     1
102
RTVSPropertyOp13
 70
     1
102
RTVSPropertyOp14
 70
     1
102
RTVSPropertyOp15
 70
     1
102
RTVSPropertyOp16
 70
     1
102
RTVSPropertyOp17
 70
     1
102
RTVSPropertyOp18
 70
     1
102
RTVSPropertyOp19
 70
     1
102
RTVSPropertyOp20
 70
     1
102
RTVSPropertyOp21
 70
     1
102
RTVSPropertyOp22
 70
     1
102
RTVSPropertyOp23
 70
     1
102
RTVSPropertyOp24
 70
     1
102
RTVSPropertyOp25
 70
     1
102
RTVSPropertyOp26
 70
     1
102
RTVSPropertyOp27
 70
     1
  0
XRECORD
  5
110
102
{ACAD_REACTORS
330
10F
102
}
330
10F
100
AcDbXrecord
280
     1
102
RTVSPropertyOp0
 70
     1
102
RTVSPropertyOp1
 70
     1
102
RTVSPropertyOp2
 70
     1
102
RTVSPropertyOp3
 70
     1
102
RTVSPropertyOp4
 70
     1
102
RTVSPropertyOp5
 70
     1
102
RTVSPropertyOp6
 70
     1
102
RTVSPropertyOp7
 70
     1
102
RTVSPropertyOp8
 70
     1
102
RTVSPropertyOp9
 70
     1
102
RTVSPropertyOp10
 70
     1
102
RTVSPropertyOp11
 70
     1
102
RTVSPropertyOp12
 70
     1
102
RTVSPropertyOp13
 70
     1
102
RTVSPropertyOp14
 70
     1
102
RTVSPropertyOp15
 70
     1
102
RTVSPropertyOp16
 70
     1
102
RTVSPropertyOp17
 70
     1
102
RTVSPropertyOp18
 70
     1
102
RTVSPropertyOp19
 70
     1
102
RTVSPropertyOp20
 70
     1
102
RTVSPropertyOp21
 70
     1
102
RTVSPropertyOp22
 70
     1
102
RTVSPropertyOp23
 70
     1
102
RTVSPropertyOp24
 70
     1
102
RTVSPropertyOp25
 70
     1
102
RTVSPropertyOp26
 70
     1
102
RTVSPropertyOp27
 70
     1
  0
XRECORD
  5
118
102
{ACAD_REACTORS
330
117
102
}
330
117
100
AcDbXrecord
280
     1
102
RTVSPropertyOp0
 70
     1
102
RTVSPropertyOp1
 70
     1
102
RTVSPropertyOp2
 70
     1
102
RTVSPropertyOp3
 70
     1
102
RTVSPropertyOp4
 70
     1
102
RTVSPropertyOp5
 70
     1
102
RTVSPropertyOp6
 70
     1
102
RTVSPropertyOp7
 70
     1
102
RTVSPropertyOp8
 70
     1
102
RTVSPropertyOp9
 70
     1
102
RTVSPropertyOp10
 70
     1
102
RTVSPropertyOp11
 70
     1
102
RTVSPropertyOp12
 70
     1
102
RTVSPropertyOp13
 70
     1
102
RTVSPropertyOp14
 70
     1
102
RTVSPropertyOp15
 70
     1
102
RTVSPropertyOp16
 70
     1
102
RTVSPropertyOp17
 70
     1
102
RTVSPropertyOp18
 70
     1
102
RTVSPropertyOp19
 70
     1
102
RTVSPropertyOp20
 70
     1
102
RTVSPropertyOp21
 70
     1
102
RTVSPropertyOp22
 70
     1
102
RTVSPropertyOp23
 70
     1
102
RTVSPropertyOp24
 70
     1
102
RTVSPropertyOp25
 70
     1
102
RTVSPropertyOp26
 70
     1
102
RTVSPropertyOp27
 70
     1
  0
XRECORD
  5
10C
102
{ACAD_REACTORS
330
10B
102
}
330
10B
100
AcDbXrecord
280
     1
102
RTVSPropertyOp0
 70
     1
102
RTVSPropertyOp1
 70
     1
102
RTVSPropertyOp2
 70
     1
102
RTVSPropertyOp3
 70
     1
102
RTVSPropertyOp4
 70
     1
102
RTVSPropertyOp5
 70
     1
102
RTVSPropertyOp6
 70
     1
102
RTVSPropertyOp7
 70
     1
102
RTVSPropertyOp8
 70
     1
102
RTVSPropertyOp9
 70
     1
102
RTVSPropertyOp10
 70
     1
102
RTVSPropertyOp11
 70
     1
102
RTVSPropertyOp12
 70
     1
102
RTVSPropertyOp13
 70
     1
102
RTVSPropertyOp14
 70
     1
102
RTVSPropertyOp15
 70
     1
102
RTVSPropertyOp16
 70
     1
102
RTVSPropertyOp17
 70
     1
102
RTVSPropertyOp18
 70
     1
102
RTVSPropertyOp19
 70
     1
102
RTVSPropertyOp20
 70
     1
102
RTVSPropertyOp21
 70
     1
102
RTVSPropertyOp22
 70
     1
102
RTVSPropertyOp23
 70
     1
102
RTVSPropertyOp24
 70
     1
102
RTVSPropertyOp25
 70
     1
102
RTVSPropertyOp26
 70
     1
102
RTVSPropertyOp27
 70
     1
  0
XRECORD
  5
10E
102
{ACAD_REACTORS
330
10D
102
}
330
10D
100
AcDbXrecord
280
     1
102
RTVSPropertyOp0
 70
     1
102
RTVSPropertyOp1
 70
     1
102
RTVSPropertyOp2
 70
     1
102
RTVSPropertyOp3
 70
     1
102
RTVSPropertyOp4
 70
     1
102
RTVSPropertyOp5
 70
     1
102
RTVSPropertyOp6
 70
     1
102
RTVSPropertyOp7
 70
     1
102
RTVSPropertyOp8
 70
     1
102
RTVSPropertyOp9
 70
     1
102
RTVSPropertyOp10
 70
     1
102
RTVSPropertyOp11
 70
     1
102
RTVSPropertyOp12
 70
     1
102
RTVSPropertyOp13
 70
     1
102
RTVSPropertyOp14
 70
     1
102
RTVSPropertyOp15
 70
     1
102
RTVSPropertyOp16
 70
     1
102
RTVSPropertyOp17
 70
     1
102
RTVSPropertyOp18
 70
     1
102
RTVSPropertyOp19
 70
     1
102
RTVSPropertyOp20
 70
     1
102
RTVSPropertyOp21
 70
     1
102
RTVSPropertyOp22
 70
     1
102
RTVSPropertyOp23
 70
     1
102
RTVSPropertyOp24
 70
     1
102
RTVSPropertyOp25
 70
     1
102
RTVSPropertyOp26
 70
     1
102
RTVSPropertyOp27
 70
     1
  0
XRECORD
  5
116
102
{ACAD_REACTORS
330
115
102
}
330
115
100
AcDbXrecord
280
     1
102
RTVSPropertyOp0
 70
     1
102
RTVSPropertyOp1
 70
     1
102
RTVSPropertyOp2
 70
     1
102
RTVSPropertyOp3
 70
     1
102
RTVSPropertyOp4
 70
     1
102
RTVSPropertyOp5
 70
     1
102
RTVSPropertyOp6
 70
     1
102
RTVSPropertyOp7
 70
     1
102
RTVSPropertyOp8
 70
     1
102
RTVSPropertyOp9
 70
     1
102
RTVSPropertyOp10
 70
     1
102
RTVSPropertyOp11
 70
     1
102
RTVSPropertyOp12
 70
     1
102
RTVSPropertyOp13
 70
     1
102
RTVSPropertyOp14
 70
     1
102
RTVSPropertyOp15
 70
     1
102
RTVSPropertyOp16
 70
     1
102
RTVSPropertyOp17
 70
     1
102
RTVSPropertyOp18
 70
     1
102
RTVSPropertyOp19
 70
     1
102
RTVSPropertyOp20
 70
     1
102
RTVSPropertyOp21
 70
     1
102
RTVSPropertyOp22
 70
     1
102
RTVSPropertyOp23
 70
     1
102
RTVSPropertyOp24
 70
     1
102
RTVSPropertyOp25
 70
     1
102
RTVSPropertyOp26
 70
     1
102
RTVSPropertyOp27
 70
     1
  0
XRECORD
  5
FA
102
{ACAD_REACTORS
330
F9
102
}
330
F9
100
AcDbXrecord
280
     1
102
RTVSPropertyOp0
 70
     1
102
RTVSPropertyOp1
 70
     1
102
RTVSPropertyOp2
 70
     1
102
RTVSPropertyOp3
 70
     1
102
RTVSPropertyOp4
 70
     1
102
RTVSPropertyOp5
 70
     1
102
RTVSPropertyOp6
 70
     1
102
RTVSPropertyOp7
 70
     1
102
RTVSPropertyOp8
 70
     1
102
RTVSPropertyOp9
 70
     1
102
RTVSPropertyOp10
 70
     1
102
RTVSPropertyOp11
 70
     1
102
RTVSPropertyOp12
 70
     1
102
RTVSPropertyOp13
 70
     1
102
RTVSPropertyOp14
 70
     1
102
RTVSPropertyOp15
 70
     1
102
RTVSPropertyOp16
 70
     1
102
RTVSPropertyOp17
 70
     1
102
RTVSPropertyOp18
 70
     1
102
RTVSPropertyOp19
 70
     1
102
RTVSPropertyOp20
 70
     1
102
RTVSPropertyOp21
 70
     1
102
RTVSPropertyOp22
 70
     1
102
RTVSPropertyOp23
 70
     1
102
RTVSPropertyOp24
 70
     1
102
RTVSPropertyOp25
 70
     1
102
RTVSPropertyOp26
 70
     1
102
RTVSPropertyOp27
 70
     1
  0
XRECORD
  5
FC
102
{ACAD_REACTORS
330
FB
102
}
330
FB
100
AcDbXrecord
280
     1
102
RTVSPropertyOp0
 70
     1
102
RTVSPropertyOp1
 70
     1
102
RTVSPropertyOp2
 70
     1
102
RTVSPropertyOp3
 70
     1
102
RTVSPropertyOp4
 70
     1
102
RTVSPropertyOp5
 70
     1
102
RTVSPropertyOp6
 70
     1
102
RTVSPropertyOp7
 70
     1
102
RTVSPropertyOp8
 70
     1
102
RTVSPropertyOp9
 70
     1
102
RTVSPropertyOp10
 70
     1
102
RTVSPropertyOp11
 70
     1
102
RTVSPropertyOp12
 70
     1
102
RTVSPropertyOp13
 70
     1
102
RTVSPropertyOp14
 70
     1
102
RTVSPropertyOp15
 70
     1
102
RTVSPropertyOp16
 70
     1
102
RTVSPropertyOp17
 70
     1
102
RTVSPropertyOp18
 70
     1
102
RTVSPropertyOp19
 70
     1
102
RTVSPropertyOp20
 70
     1
102
RTVSPropertyOp21
 70
     1
102
RTVSPropertyOp22
 70
     1
102
RTVSPropertyOp23
 70
     1
102
RTVSPropertyOp24
 70
     1
102
RTVSPropertyOp25
 70
     1
102
RTVSPropertyOp26
 70
     1
102
RTVSPropertyOp27
 70
     1
  0
XRECORD
  5
FE
102
{ACAD_REACTORS
330
FD
102
}
330
FD
100
AcDbXrecord
280
     1
102
RTVSPropertyOp0
 70
     1
102
RTVSPropertyOp1
 70
     1
102
RTVSPropertyOp2
 70
     1
102
RTVSPropertyOp3
 70
     1
102
RTVSPropertyOp4
 70
     1
102
RTVSPropertyOp5
 70
     1
102
RTVSPropertyOp6
 70
     1
102
RTVSPropertyOp7
 70
     1
102
RTVSPropertyOp8
 70
     1
102
RTVSPropertyOp9
 70
     1
102
RTVSPropertyOp10
 70
     1
102
RTVSPropertyOp11
 70
     1
102
RTVSPropertyOp12
 70
     1
102
RTVSPropertyOp13
 70
     1
102
RTVSPropertyOp14
 70
     1
102
RTVSPropertyOp15
 70
     1
102
RTVSPropertyOp16
 70
     1
102
RTVSPropertyOp17
 70
     1
102
RTVSPropertyOp18
 70
     1
102
RTVSPropertyOp19
 70
     1
102
RTVSPropertyOp20
 70
     1
102
RTVSPropertyOp21
 70
     1
102
RTVSPropertyOp22
 70
     1
102
RTVSPropertyOp23
 70
     1
102
RTVSPropertyOp24
 70
     1
102
RTVSPropertyOp25
 70
     1
102
RTVSPropertyOp26
 70
     1
102
RTVSPropertyOp27
 70
     1
  0
XRECORD
  5
100
102
{ACAD_REACTORS
330
FF
102
}
330
FF
100
AcDbXrecord
280
     1
102
RTVSPropertyOp0
 70
     1
102
RTVSPropertyOp1
 70
     1
102
RTVSPropertyOp2
 70
     1
102
RTVSPropertyOp3
 70
     1
102
RTVSPropertyOp4
 70
     1
102
RTVSPropertyOp5
 70
     1
102
RTVSPropertyOp6
 70
     1
102
RTVSPropertyOp7
 70
     1
102
RTVSPropertyOp8
 70
     1
102
RTVSPropertyOp9
 70
     1
102
RTVSPropertyOp10
 70
     1
102
RTVSPropertyOp11
 70
     1
102
RTVSPropertyOp12
 70
     1
102
RTVSPropertyOp13
 70
     1
102
RTVSPropertyOp14
 70
     1
102
RTVSPropertyOp15
 70
     1
102
RTVSPropertyOp16
 70
     1
102
RTVSPropertyOp17
 70
     1
102
RTVSPropertyOp18
 70
     1
102
RTVSPropertyOp19
 70
     1
102
RTVSPropertyOp20
 70
     1
102
RTVSPropertyOp21
 70
     1
102
RTVSPropertyOp22
 70
     1
102
RTVSPropertyOp23
 70
     1
102
RTVSPropertyOp24
 70
     1
102
RTVSPropertyOp25
 70
     1
102
RTVSPropertyOp26
 70
     1
102
RTVSPropertyOp27
 70
     1
  0
XRECORD
  5
114
102
{ACAD_REACTORS
330
113
102
}
330
113
100
AcDbXrecord
280
     1
102
RTVSPropertyOp0
 70
     1
102
RTVSPropertyOp1
 70
     1
102
RTVSPropertyOp2
 70
     1
102
RTVSPropertyOp3
 70
     1
102
RTVSPropertyOp4
 70
     1
102
RTVSPropertyOp5
 70
     1
102
RTVSPropertyOp6
 70
     1
102
RTVSPropertyOp7
 70
     1
102
RTVSPropertyOp8
 70
     1
102
RTVSPropertyOp9
 70
     1
102
RTVSPropertyOp10
 70
     1
102
RTVSPropertyOp11
 70
     1
102
RTVSPropertyOp12
 70
     1
102
RTVSPropertyOp13
 70
     1
102
RTVSPropertyOp14
 70
     1
102
RTVSPropertyOp15
 70
     1
102
RTVSPropertyOp16
 70
     1
102
RTVSPropertyOp17
 70
     1
102
RTVSPropertyOp18
 70
     1
102
RTVSPropertyOp19
 70
     1
102
RTVSPropertyOp20
 70
     1
102
RTVSPropertyOp21
 70
     1
102
RTVSPropertyOp22
 70
     1
102
RTVSPropertyOp23
 70
     1
102
RTVSPropertyOp24
 70
     1
102
RTVSPropertyOp25
 70
     1
102
RTVSPropertyOp26
 70
     1
102
RTVSPropertyOp27
 70
     1
  0
XRECORD
  5
10A
102
{ACAD_REACTORS
330
109
102
}
330
109
100
AcDbXrecord
280
     1
102
RTVSPropertyOp0
 70
     1
102
RTVSPropertyOp1
 70
     1
102
RTVSPropertyOp2
 70
     1
102
RTVSPropertyOp3
 70
     1
102
RTVSPropertyOp4
 70
     1
102
RTVSPropertyOp5
 70
     1
102
RTVSPropertyOp6
 70
     1
102
RTVSPropertyOp7
 70
     1
102
RTVSPropertyOp8
 70
     1
102
RTVSPropertyOp9
 70
     1
102
RTVSPropertyOp10
 70
     1
102
RTVSPropertyOp11
 70
     1
102
RTVSPropertyOp12
 70
     1
102
RTVSPropertyOp13
 70
     1
102
RTVSPropertyOp14
 70
     1
102
RTVSPropertyOp15
 70
     1
102
RTVSPropertyOp16
 70
     1
102
RTVSPropertyOp17
 70
     1
102
RTVSPropertyOp18
 70
     1
102
RTVSPropertyOp19
 70
     1
102
RTVSPropertyOp20
 70
     1
102
RTVSPropertyOp21
 70
     1
102
RTVSPropertyOp22
 70
     1
102
RTVSPropertyOp23
 70
     1
102
RTVSPropertyOp24
 70
     1
102
RTVSPropertyOp25
 70
     1
102
RTVSPropertyOp26
 70
     1
102
RTVSPropertyOp27
 70
     1
  0
XRECORD
  5
112
102
{ACAD_REACTORS
330
111
102
}
330
111
100
AcDbXrecord
280
     1
102
RTVSPropertyOp0
 70
     1
102
RTVSPropertyOp1
 70
     1
102
RTVSPropertyOp2
 70
     1
102
RTVSPropertyOp3
 70
     1
102
RTVSPropertyOp4
 70
     1
102
RTVSPropertyOp5
 70
     1
102
RTVSPropertyOp6
 70
     1
102
RTVSPropertyOp7
 70
     1
102
RTVSPropertyOp8
 70
     1
102
RTVSPropertyOp9
 70
     1
102
RTVSPropertyOp10
 70
     1
102
RTVSPropertyOp11
 70
     1
102
RTVSPropertyOp12
 70
     1
102
RTVSPropertyOp13
 70
     1
102
RTVSPropertyOp14
 70
     1
102
RTVSPropertyOp15
 70
     1
102
RTVSPropertyOp16
 70
     1
102
RTVSPropertyOp17
 70
     1
102
RTVSPropertyOp18
 70
     1
102
RTVSPropertyOp19
 70
     1
102
RTVSPropertyOp20
 70
     1
102
RTVSPropertyOp21
 70
     1
102
RTVSPropertyOp22
 70
     1
102
RTVSPropertyOp23
 70
     1
102
RTVSPropertyOp24
 70
     1
102
RTVSPropertyOp25
 70
     1
102
RTVSPropertyOp26
 70
     1
102
RTVSPropertyOp27
 70
     1
  0
ENDSEC
  0
EOF
