  0
SECTION
  2
HEADER
  9
$ACADVER
  1
AC1024
  9
$ACADMAINTVER
 70
     6
  9
$DWGCODEPAGE
  3
ANSI_1252
  9
$LASTSAVEDBY
  1
p.perez
  9
$INSBASE
 10
0.0
 20
0.0
 30
0.0
  9
$EXTMIN
 10
0.0
 20
0.0
 30
0.0
  9
$EXTMAX
 10
210.0
 20
297.0
 30
0.0
  9
$LIMMIN
 10
0.0
 20
0.0
  9
$LIMMAX
 10
210.0
 20
297.0
  9
$ORTHOMODE
 70
     0
  9
$REGENMODE
 70
     1
  9
$FILLMODE
 70
     1
  9
$QTEXTMODE
 70
     0
  9
$MIRRTEXT
 70
     1
  9
$LTSCALE
 40
1.0
  9
$ATTMODE
 70
     1
  9
$TEXTSIZE
 40
3.5
  9
$TRACEWID
 40
1.0
  9
$TEXTSTYLE
  7
STANDARD
  9
$CLAYER
  8
0
  9
$CELTYPE
  6
ByLayer
  9
$CECOLOR
 62
   256
  9
$CELTSCALE
 40
1.0
  9
$DISPSILH
 70
     0
  9
$DIMSCALE
 40
1.0
  9
$DIMASZ
 40
3.302
  9
$DIMEXO
 40
1.0
  9
$DIMDLI
 40
3.75
  9
$DIMRND
 40
0.0
  9
$DIMDLE
 40
0.0
  9
$DIMEXE
 40
1.0
  9
$DIMTP
 40
0.0
  9
$DIMTM
 40
0.0
  9
$DIMTXT
 40
3.5
  9
$DIMCEN
 40
2.5
  9
$DIMTSZ
 40
0.0
  9
$DIMTOL
 70
     0
  9
$DIMLIM
 70
     0
  9
$DIMTIH
 70
     1
  9
$DIMTOH
 70
     1
  9
$DIMSE1
 70
     0
  9
$DIMSE2
 70
     0
  9
$DIMTAD
 70
     1
  9
$DIMZIN
 70
     0
  9
$DIMBLK
  1

  9
$DIMASO
 70
     1
  9
$DIMSHO
 70
     1
  9
$DIMPOST
  1

  9
$DIMAPOST
  1

  9
$DIMALT
 70
     0
  9
$DIMALTD
 70
     3
  9
$DIMALTF
 40
0.0393700787
  9
$DIMLFAC
 40
0.5
  9
$DIMTOFL
 70
     1
  9
$DIMTVP
 40
0.0
  9
$DIMTIX
 70
     0
  9
$DIMSOXD
 70
     0
  9
$DIMSAH
 70
     0
  9
$DIMBLK1
  1

  9
$DIMBLK2
  1

  9
$DIMSTYLE
  2
ISO-25
  9
$DIMCLRD
 70
     0
  9
$DIMCLRE
 70
     0
  9
$DIMCLRT
 70
     0
  9
$DIMTFAC
 40
1.0
  9
$DIMGAP
 40
1.524
  9
$DIMJUST
 70
     0
  9
$DIMSD1
 70
     0
  9
$DIMSD2
 70
     0
  9
$DIMTOLJ
 70
     0
  9
$DIMTZIN
 70
     0
  9
$DIMALTZ
 70
     0
  9
$DIMALTTZ
 70
     0
  9
$DIMUPT
 70
     0
  9
$DIMDEC
 70
     2
  9
$DIMTDEC
 70
     2
  9
$DIMALTU
 70
     2
  9
$DIMALTTD
 70
     3
  9
$DIMTXSTY
  7
STANDARD
  9
$DIMAUNIT
 70
     0
  9
$DIMADEC
 70
     2
  9
$DIMALTRND
 40
0.0
  9
$DIMAZIN
 70
     0
  9
$DIMDSEP
 70
    44
  9
$DIMATFIT
 70
     3
  9
$DIMFRAC
 70
     0
  9
$DIMLDRBLK
  1

  9
$DIMLUNIT
 70
     2
  9
$DIMLWD
 70
    -2
  9
$DIMLWE
 70
    -2
  9
$DIMTMOVE
 70
     0
  9
$DIMFXL
 40
1.0
  9
$DIMFXLON
 70
     0
  9
$DIMJOGANG
 40
0.7853981634
  9
$DIMTFILL
 70
     0
  9
$DIMTFILLCLR
 70
     0
  9
$DIMARCSYM
 70
     0
  9
$DIMLTYPE
  6

  9
$DIMLTEX1
  6

  9
$DIMLTEX2
  6

  9
$DIMTXTDIRECTION
 70
     0
  9
$LUNITS
 70
     2
  9
$LUPREC
 70
     2
  9
$SKETCHINC
 40
1.0
  9
$FILLETRAD
 40
10.0
  9
$AUNITS
 70
     0
  9
$AUPREC
 70
     2
  9
$MENU
  1
.
  9
$ELEVATION
 40
0.0
  9
$PELEVATION
 40
0.0
  9
$THICKNESS
 40
0.0
  9
$LIMCHECK
 70
     0
  9
$CHAMFERA
 40
0.0
  9
$CHAMFERB
 40
0.0
  9
$CHAMFERC
 40
0.0
  9
$CHAMFERD
 40
0.0
  9
$SKPOLY
 70
     0
  9
$TDCREATE
 40
2459074.650463507
  9
$TDUCREATE
 40
2459074.567130174
  9
$TDUPDATE
 40
2459074.650463854
  9
$TDUUPDATE
 40
2459074.567130521
  9
$TDINDWG
 40
0.0000000116
  9
$TDUSRTIMER
 40
0.0000000116
  9
$USRTIMER
 70
     1
  9
$ANGBASE
 50
0.0
  9
$ANGDIR
 70
     0
  9
$PDMODE
 70
     0
  9
$PDSIZE
 40
-1.0
  9
$PLINEWID
 40
0.0
  9
$SPLFRAME
 70
     0
  9
$SPLINETYPE
 70
     6
  9
$SPLINESEGS
 70
     8
  9
$HANDSEED
  5
1C4
  9
$SURFTAB1
 70
     6
  9
$SURFTAB2
 70
     6
  9
$SURFTYPE
 70
     6
  9
$SURFU
 70
     6
  9
$SURFV
 70
     6
  9
$UCSBASE
  2

  9
$UCSNAME
  2

  9
$UCSORG
 10
0.0
 20
0.0
 30
0.0
  9
$UCSXDIR
 10
1.0
 20
0.0
 30
0.0
  9
$UCSYDIR
 10
0.0
 20
1.0
 30
0.0
  9
$UCSORTHOREF
  2

  9
$UCSORTHOVIEW
 70
     0
  9
$UCSORGTOP
 10
0.0
 20
0.0
 30
0.0
  9
$UCSORGBOTTOM
 10
0.0
 20
0.0
 30
0.0
  9
$UCSORGLEFT
 10
0.0
 20
0.0
 30
0.0
  9
$UCSORGRIGHT
 10
0.0
 20
0.0
 30
0.0
  9
$UCSORGFRONT
 10
0.0
 20
0.0
 30
0.0
  9
$UCSORGBACK
 10
0.0
 20
0.0
 30
0.0
  9
$PUCSBASE
  2

  9
$PUCSNAME
  2

  9
$PUCSORG
 10
0.0
 20
0.0
 30
0.0
  9
$PUCSXDIR
 10
1.0
 20
0.0
 30
0.0
  9
$PUCSYDIR
 10
0.0
 20
1.0
 30
0.0
  9
$PUCSORTHOREF
  2

  9
$PUCSORTHOVIEW
 70
     0
  9
$PUCSORGTOP
 10
0.0
 20
0.0
 30
0.0
  9
$PUCSORGBOTTOM
 10
0.0
 20
0.0
 30
0.0
  9
$PUCSORGLEFT
 10
0.0
 20
0.0
 30
0.0
  9
$PUCSORGRIGHT
 10
0.0
 20
0.0
 30
0.0
  9
$PUCSORGFRONT
 10
0.0
 20
0.0
 30
0.0
  9
$PUCSORGBACK
 10
0.0
 20
0.0
 30
0.0
  9
$USERI1
 70
     0
  9
$USERI2
 70
     0
  9
$USERI3
 70
     0
  9
$USERI4
 70
     0
  9
$USERI5
 70
     0
  9
$USERR1
 40
0.0
  9
$USERR2
 40
0.0
  9
$USERR3
 40
0.0
  9
$USERR4
 40
0.0
  9
$USERR5
 40
0.0
  9
$WORLDVIEW
 70
     1
  9
$SHADEDGE
 70
     3
  9
$SHADEDIF
 70
    70
  9
$TILEMODE
 70
     1
  9
$MAXACTVP
 70
    64
  9
$PINSBASE
 10
0.0
 20
0.0
 30
0.0
  9
$PLIMCHECK
 70
     0
  9
$PEXTMIN
 10
1.0000000000E+20
 20
1.0000000000E+20
 30
1.0000000000E+20
  9
$PEXTMAX
 10
-1.0000000000E+20
 20
-1.0000000000E+20
 30
-1.0000000000E+20
  9
$PLIMMIN
 10
0.0
 20
0.0
  9
$PLIMMAX
 10
420.0
 20
297.0
  9
$UNITMODE
 70
     0
  9
$VISRETAIN
 70
     1
  9
$PLINEGEN
 70
     0
  9
$PSLTSCALE
 70
     1
  9
$TREEDEPTH
 70
  3020
  9
$CMLSTYLE
  2
Standard
  9
$CMLJUST
 70
     0
  9
$CMLSCALE
 40
20.0
  9
$PROXYGRAPHICS
 70
     1
  9
$MEASUREMENT
 70
     1
  9
$CELWEIGHT
370
    -1
  9
$ENDCAPS
280
     0
  9
$JOINSTYLE
280
     0
  9
$LWDISPLAY
290
     1
  9
$INSUNITS
 70
     4
  9
$HYPERLINKBASE
  1

  9
$STYLESHEET
  1

  9
$XEDIT
290
     1
  9
$CEPSNTYPE
380
     0
  9
$PSTYLEMODE
290
     1
  9
$FINGERPRINTGUID
  2
{d3990eb9-f618-4ff9-842c-312df2edcbf8}
  9
$VERSIONGUID
  2
{FAEB1C32-E019-11D5-929B-00C0DF256EC4}
  9
$EXTNAMES
290
     1
  9
$PSVPSCALE
 40
0.0
  9
$OLESTARTUP
290
     0
  9
$SORTENTS
280
   127
  9
$INDEXCTL
280
     0
  9
$HIDETEXT
280
     1
  9
$XCLIPFRAME
280
     2
  9
$HALOGAP
280
     0
  9
$OBSCOLOR
 70
   257
  9
$OBSLTYPE
280
     0
  9
$INTERSECTIONDISPLAY
280
     0
  9
$INTERSECTIONCOLOR
 70
   257
  9
$DIMASSOC
280
     2
  9
$PROJECTNAME
  1

  9
$CAMERADISPLAY
290
     0
  9
$LENSLENGTH
 40
50.0
  9
$CAMERAHEIGHT
 40
0.0
  9
$STEPSPERSEC
 40
2.0
  9
$STEPSIZE
 40
6.0
  9
$3DDWFPREC
 40
2.0
  9
$PSOLWIDTH
 40
5.0
  9
$PSOLHEIGHT
 40
80.0
  9
$LOFTANG1
 40
1.5707963268
  9
$LOFTANG2
 40
1.5707963268
  9
$LOFTMAG1
 40
0.0
  9
$LOFTMAG2
 40
0.0
  9
$LOFTPARAM
 70
     7
  9
$LOFTNORMALS
280
     1
  9
$LATITUDE
 40
37.795
  9
$LONGITUDE
 40
-122.394
  9
$NORTHDIRECTION
 40
0.0
  9
$TIMEZONE
 70
 -8000
  9
$LIGHTGLYPHDISPLAY
280
     1
  9
$TILEMODELIGHTSYNCH
280
     1
  9
$CMATERIAL
347
44
  9
$SOLIDHIST
280
     0
  9
$SHOWHIST
280
     1
  9
$DWFFRAME
280
     2
  9
$DGNFRAME
280
     2
  9
$REALWORLDSCALE
290
     1
  9
$INTERFERECOLOR
 62
   256
  9
$CSHADOW
280
     0
  9
$SHADOWPLANELOCATION
 40
0.0
  0
ENDSEC
  0
SECTION
  2
CLASSES
  0
CLASS
  1
ACDBDICTIONARYWDFLT
  2
AcDbDictionaryWithDefault
  3
ObjectDBX Classes
 90
        0
 91
        3
280
     0
281
     0
  0
CLASS
  1
VISUALSTYLE
  2
AcDbVisualStyle
  3
ObjectDBX Classes
 90
     4095
 91
        3
280
     0
281
     0
  0
CLASS
  1
MATERIAL
  2
AcDbMaterial
  3
ObjectDBX Classes
 90
     1153
 91
        3
280
     0
281
     0
  0
CLASS
  1
SCALE
  2
AcDbScale
  3
ObjectDBX Classes
 90
     1153
 91
        3
280
     0
281
     0
  0
CLASS
  1
TABLESTYLE
  2
AcDbTableStyle
  3
ObjectDBX Classes
 90
     4095
 91
        3
280
     0
281
     0
  0
CLASS
  1
MLEADERSTYLE
  2
AcDbMLeaderStyle
  3
ACDB_MLEADERSTYLE_CLASS
 90
     4095
 91
        3
280
     0
281
     0
  0
CLASS
  1
SUN
  2
AcDbSun
  3
SCENEOE
 90
     1153
 91
        3
280
     0
281
     0
  0
CLASS
  1
DICTIONARYVAR
  2
AcDbDictionaryVar
  3
ObjectDBX Classes
 90
        0
 91
        3
280
     0
281
     0
  0
CLASS
  1
CELLSTYLEMAP
  2
AcDbCellStyleMap
  3
ObjectDBX Classes
 90
     1152
 91
        3
280
     0
281
     0
  0
ENDSEC
  0
SECTION
  2
TABLES
  0
TABLE
  2
VPORT
  5
8
330
0
100
AcDbSymbolTable
 70
     1
  0
VPORT
  5
29
330
8
100
AcDbSymbolTableRecord
100
AcDbViewportTableRecord
  2
*Active
 70
     0
 10
0.0
 20
0.0
 11
1.0
 21
1.0
 12
105.0
 22
148.5
 13
0.0
 23
0.0
 14
10.0
 24
10.0
 15
10.0
 25
10.0
 16
0.0
 26
0.0
 36
1.0
 17
0.0
 27
0.0
 37
0.0
 40
297.0
 41
0.7070707071
 42
50.0
 43
0.0
 44
0.0
 50
0.0
 51
0.0
 71
     0
 72
  2000
 73
     1
 74
     3
 75
     0
 76
     0
 77
     0
 78
     0
281
     0
 65
     1
110
0.0
120
0.0
130
0.0
111
1.0
121
0.0
131
0.0
112
0.0
122
1.0
132
0.0
 79
     0
146
0.0
348
2F
 60
     3
 61
     5
292
     1
282
     1
141
0.0
142
0.0
 63
   250
361
6D
  0
ENDTAB
  0
TABLE
  2
LTYPE
  5
5
330
0
100
AcDbSymbolTable
 70
     8
  0
LTYPE
  5
14
330
5
100
AcDbSymbolTableRecord
100
AcDbLinetypeTableRecord
  2
ByBlock
 70
     0
  3

 72
    65
 73
     0
 40
0.0
  0
LTYPE
  5
15
330
5
100
AcDbSymbolTableRecord
100
AcDbLinetypeTableRecord
  2
ByLayer
 70
     0
  3

 72
    65
 73
     0
 40
0.0
  0
LTYPE
  5
16
330
5
100
AcDbSymbolTableRecord
100
AcDbLinetypeTableRecord
  2
Continuous
 70
     0
  3
Solid line
 72
    65
 73
     0
 40
0.0
  0
LTYPE
  5
6E
330
5
100
AcDbSymbolTableRecord
100
AcDbLinetypeTableRecord
  2
SLD-Durchgehend
 70
     0
  3
SolidWorks Line Style
 72
    65
 73
     0
 40
0.0
  0
LTYPE
  5
6F
330
5
100
AcDbSymbolTableRecord
100
AcDbLinetypeTableRecord
  2
SLD-Gestrichelt
 70
     0
  3
SolidWorks Line Style
 72
    65
 73
     2
 40
1.905
 49
1.27
 74
     0
 49
-0.635
 74
     0
  0
LTYPE
  5
70
330
5
100
AcDbSymbolTableRecord
100
AcDbLinetypeTableRecord
  2
SLD-Phantom
 70
     0
  3
SolidWorks Line Style
 72
    65
 73
     6
 40
12.7
 49
6.35
 74
     0
 49
-1.27
 74
     0
 49
1.27
 74
     0
 49
-1.27
 74
     0
 49
1.27
 74
     0
 49
-1.27
 74
     0
  0
LTYPE
  5
71
330
5
100
AcDbSymbolTableRecord
100
AcDbLinetypeTableRecord
  2
SLD-Kette
 70
     0
  3
SolidWorks Line Style
 72
    65
 73
     4
 40
10.16
 49
6.35
 74
     0
 49
-1.27
 74
     0
 49
1.27
 74
     0
 49
-1.27
 74
     0
  0
LTYPE
  5
72
330
5
100
AcDbSymbolTableRecord
100
AcDbLinetypeTableRecord
  2
SLD-Punktstrich
 70
     0
  3
SolidWorks Line Style
 72
    65
 73
     4
 40
19.05
 49
15.24
 74
     0
 49
-1.27
 74
     0
 49
1.27
 74
     0
 49
-1.27
 74
     0
  0
LTYPE
  5
73
330
5
100
AcDbSymbolTableRecord
100
AcDbLinetypeTableRecord
  2
SLD-Naht
 70
     0
  3
SolidWorks Line Style
 72
    65
 73
     2
 40
0.635
 49
0.0
 74
     0
 49
-0.635
 74
     0
  0
LTYPE
  5
74
330
5
100
AcDbSymbolTableRecord
100
AcDbLinetypeTableRecord
  2
SLD-Dicke-Dünne-Kette
 70
     0
  3
SolidWorks Line Style
 72
    65
 73
     4
 40
10.16
 49
6.35
 74
     0
 49
-1.27
 74
     0
 49
1.27
 74
     0
 49
-1.27
 74
     0
  0
ENDTAB
  0
TABLE
  2
LAYER
  5
2
330
0
100
AcDbSymbolTable
 70
     4
  0
LAYER
  5
10
330
2
100
AcDbSymbolTableRecord
100
AcDbLayerTableRecord
  2
0
 70
     0
 62
     7
  6
Continuous
370
    -3
390
F
347
46
  0
LAYER
  5
75
330
2
100
AcDbSymbolTableRecord
100
AcDbLayerTableRecord
  2
RAHMEN
 70
     0
 62
   179
  6
SLD-Durchgehend
370
    -3
390
F
347
46
  0
LAYER
  5
76
330
2
100
AcDbSymbolTableRecord
100
AcDbLayerTableRecord
  2
KOPF
 70
     0
 62
     7
  6
SLD-Durchgehend
370
    -3
390
F
347
46
  0
LAYER
  5
77
330
2
100
AcDbSymbolTableRecord
100
AcDbLayerTableRecord
  2
ZEICHNUNG
 70
     0
 62
     7
  6
SLD-Durchgehend
370
    -3
390
F
347
46
  0
ENDTAB
  0
TABLE
  2
STYLE
  5
3
330
0
100
AcDbSymbolTable
 70
     1
  0
STYLE
  5
11
330
3
100
AcDbSymbolTableRecord
100
AcDbTextStyleTableRecord
  2
STANDARD
 70
     0
 40
0.0
 41
1.0
 50
0.0
 71
     0
 42
3.5
  3
GOTHIC.TTF
  4

1001
ACAD
1000
CENTURY GOTHIC
1071
       34
  0
ENDTAB
  0
TABLE
  2
VIEW
  5
6
330
0
100
AcDbSymbolTable
 70
     0
  0
ENDTAB
  0
TABLE
  2
UCS
  5
7
330
0
100
AcDbSymbolTable
 70
     0
  0
ENDTAB
  0
TABLE
  2
APPID
  5
9
330
0
100
AcDbSymbolTable
 70
     1
  0
APPID
  5
12
330
9
100
AcDbSymbolTableRecord
100
AcDbRegAppTableRecord
  2
ACAD
 70
     0
  0
ENDTAB
  0
TABLE
  2
DIMSTYLE
  5
A
330
0
100
AcDbSymbolTable
 70
     1
100
AcDbDimStyleTable
  0
DIMSTYLE
105
27
330
A
100
AcDbSymbolTableRecord
100
AcDbDimStyleTableRecord
  2
ISO-25
 70
     0
 41
2.5
 42
0.625
 43
3.75
 44
1.25
 73
     0
 74
     0
 77
     1
 78
     8
140
2.5
141
2.5
143
0.0393700787
147
0.625
171
     3
172
     1
178
     0
271
     2
272
     2
274
     3
278
    44
283
     0
284
     8
340
11
  0
ENDTAB
  0
TABLE
  2
BLOCK_RECORD
  5
1
330
0
100
AcDbSymbolTable
 70
     2
  0
BLOCK_RECORD
  5
1F
330
1
100
AcDbSymbolTableRecord
100
AcDbBlockTableRecord
  2
*Model_Space
340
22
 70
     0
280
     1
281
     0
  0
BLOCK_RECORD
  5
1B
330
1
100
AcDbSymbolTableRecord
100
AcDbBlockTableRecord
  2
*Paper_Space
340
1E
 70
     0
280
     1
281
     0
  0
BLOCK_RECORD
  5
23
330
1
100
AcDbSymbolTableRecord
100
AcDbBlockTableRecord
  2
*Paper_Space0
340
26
 70
     0
280
     1
281
     0
  0
BLOCK_RECORD
  5
78
330
1
100
AcDbSymbolTableRecord
100
AcDbBlockTableRecord
  2
Block2
340
0
 70
     0
280
     1
281
     0
  0
ENDTAB
  0
ENDSEC
  0
SECTION
  2
BLOCKS
  0
BLOCK
  5
20
330
1F
100
AcDbEntity
  8
0
100
AcDbBlockBegin
  2
*Model_Space
 70
     0
 10
0.0
 20
0.0
 30
0.0
  3
*Model_Space
  1

  0
ENDBLK
  5
21
330
1F
100
AcDbEntity
  8
0
100
AcDbBlockEnd
  0
BLOCK
  5
1C
330
1B
100
AcDbEntity
 67
     1
  8
0
100
AcDbBlockBegin
  2
*Paper_Space
 70
     0
 10
0.0
 20
0.0
 30
0.0
  3
*Paper_Space
  1

  0
ENDBLK
  5
1D
330
1B
100
AcDbEntity
 67
     1
  8
0
100
AcDbBlockEnd
  0
BLOCK
  5
24
330
23
100
AcDbEntity
  8
0
100
AcDbBlockBegin
  2
*Paper_Space0
 70
     0
 10
0.0
 20
0.0
 30
0.0
  3
*Paper_Space0
  1

  0
ENDBLK
  5
25
330
23
100
AcDbEntity
  8
0
100
AcDbBlockEnd
  0
BLOCK
  5
79
330
78
100
AcDbEntity
  8
0
100
AcDbBlockBegin
  2
Block2
 70
     0
 10
0.0
 20
0.0
 30
0.0
  3
Block2
  1

  0
LINE
  5
7B
330
78
100
AcDbEntity
  8
0
  6
SLD-Durchgehend
 62
     7
370
    18
100
AcDbLine
 10
232.946671374
 20
51.7797156982
 30
0.0
 11
232.9472759882
 21
51.7797156982
 31
0.0
  0
LINE
  5
7C
330
78
100
AcDbEntity
  8
0
  6
SLD-Durchgehend
 62
     7
370
    18
100
AcDbLine
 10
233.6727459183
 20
55.2624953613
 30
0.0
 11
232.946671374
 21
55.2624953613
 31
0.0
  0
LINE
  5
7D
330
78
100
AcDbEntity
  8
0
  6
SLD-Durchgehend
 62
     7
370
    18
100
AcDbLine
 10
253.2143962099
 20
49.5548695882
 30
0.0
 11
253.2143962099
 21
52.1631754964
 31
0.0
  0
LINE
  5
7E
330
78
100
AcDbEntity
  8
0
  6
SLD-Durchgehend
 62
     7
370
    18
100
AcDbLine
 10
264.9174441429
 20
55.2308538818
 30
0.0
 11
264.9174441429
 21
49.5548695882
 31
0.0
  0
LINE
  5
7F
330
78
100
AcDbEntity
  8
0
  6
SLD-Durchgehend
 62
     7
370
    18
100
AcDbLine
 10
252.5518733421
 20
49.5548695882
 30
0.0
 11
253.2143962099
 21
49.5548695882
 31
0.0
  0
LINE
  5
80
330
78
100
AcDbEntity
  8
0
  6
SLD-Durchgehend
 62
     7
370
    18
100
AcDbLine
 10
249.836685069
 20
49.4456359456
 30
0.0
 11
249.841521983
 21
49.4456359456
 31
0.0
  0
LINE
  5
81
330
78
100
AcDbEntity
  8
0
  6
SLD-Durchgehend
 62
     7
370
    18
100
AcDbLine
 10
259.9476493024
 20
53.0527646077
 30
0.0
 11
259.9116411643
 21
53.1341188151
 31
0.0
  0
LINE
  5
82
330
78
100
AcDbEntity
  8
0
  6
SLD-Durchgehend
 62
     7
370
    18
100
AcDbLine
 10
267.7771352236
 20
49.5548695882
 30
0.0
 11
268.4404642438
 21
49.5548695882
 31
0.0
  0
LINE
  5
83
330
78
100
AcDbEntity
  8
0
  6
SLD-Durchgehend
 62
     7
370
    18
100
AcDbLine
 10
233.6739551468
 20
51.7216727295
 30
0.0
 11
233.6727459183
 21
51.7216727295
 31
0.0
  0
LINE
  5
84
330
78
100
AcDbEntity
  8
0
  6
SLD-Durchgehend
 62
     7
370
    18
100
AcDbLine
 10
265.579832652
 20
49.5548695882
 30
0.0
 11
265.579832652
 21
52.1637129313
 31
0.0
  0
LINE
  5
85
330
78
100
AcDbEntity
  8
0
  6
SLD-Durchgehend
 62
     7
370
    18
100
AcDbLine
 10
251.7394061383
 20
50.8797809652
 30
0.0
 11
251.7625830182
 21
50.954350057
 31
0.0
  0
LINE
  5
86
330
78
100
AcDbEntity
  8
0
  6
SLD-Durchgehend
 62
     7
370
    18
100
AcDbLine
 10
259.2890228375
 20
53.0527646077
 30
0.0
 11
259.9476493024
 21
53.0527646077
 31
0.0
  0
LINE
  5
87
330
78
100
AcDbEntity
  8
0
  6
SLD-Durchgehend
 62
     7
370
    18
100
AcDbLine
 10
233.6727459183
 20
51.7216727295
 30
0.0
 11
233.6727459183
 21
55.2624953613
 31
0.0
  0
LINE
  5
88
330
78
100
AcDbEntity
  8
0
  6
SLD-Durchgehend
 62
     7
370
    18
100
AcDbLine
 10
232.946671374
 20
55.2624953613
 30
0.0
 11
232.946671374
 21
51.7797156982
 31
0.0
  0
LINE
  5
89
330
78
100
AcDbEntity
  8
0
  6
SLD-Durchgehend
 62
     7
370
    18
100
AcDbLine
 10
276.3746954633
 20
50.0044338772
 30
0.0
 11
276.3746599345
 21
49.5548695882
 31
0.0
  0
LINE
  5
8A
330
78
100
AcDbEntity
  8
0
  6
SLD-Durchgehend
 62
     7
370
    18
100
AcDbLine
 10
267.7771352236
 20
52.4097237549
 30
0.0
 11
267.7771352236
 21
49.5548695882
 31
0.0
  0
LINE
  5
8B
330
78
100
AcDbEntity
  8
0
  6
SLD-Durchgehend
 62
     7
370
    18
100
AcDbLine
 10
279.6434249755
 20
53.6669183209
 30
0.0
 11
279.6434249755
 21
54.0432571068
 31
0.0
  0
LINE
  5
8C
330
78
100
AcDbEntity
  8
0
  6
SLD-Durchgehend
 62
     7
370
    18
100
AcDbLine
 10
255.4121690371
 20
49.5548695882
 30
0.0
 11
256.0747590843
 21
49.5548695882
 31
0.0
  0
LINE
  5
8D
330
78
100
AcDbEntity
  8
0
  6
SLD-Durchgehend
 62
     7
370
    18
100
AcDbLine
 10
240.2502572939
 20
49.4456359456
 30
0.0
 11
240.252138316
 21
49.4456359456
 31
0.0
  0
LINE
  5
8E
330
78
100
AcDbEntity
  8
0
  6
SLD-Durchgehend
 62
     7
370
    18
100
AcDbLine
 10
247.024825694
 20
51.7258378499
 30
0.0
 11
247.0260349225
 21
51.7258378499
 31
0.0
  0
LINE
  5
8F
330
78
100
AcDbEntity
  8
0
  6
SLD-Durchgehend
 62
     7
370
    18
100
AcDbLine
 10
253.2143962099
 20
54.0432571208
 30
0.0
 11
252.5518733421
 21
54.0432571208
 31
0.0
  0
LINE
  5
90
330
78
100
AcDbEntity
  8
0
  6
SLD-Durchgehend
 62
     7
370
    18
100
AcDbLine
 10
258.3740399274
 20
54.1393236084
 30
0.0
 11
258.3170718284
 21
54.1387861735
 31
0.0
  0
LINE
  5
91
330
78
100
AcDbEntity
  8
0
  6
SLD-Durchgehend
 62
     7
370
    18
100
AcDbLine
 10
278.710930268
 20
53.4717792044
 30
0.0
 11
276.3746954633
 21
50.0044338772
 31
0.0
  0
LINE
  5
92
330
78
100
AcDbEntity
  8
0
  6
SLD-Durchgehend
 62
     7
370
    18
100
AcDbLine
 10
263.7180238141
 20
52.978397054
 30
0.0
 11
264.4359024762
 21
52.9736944987
 31
0.0
  0
LINE
  5
93
330
78
100
AcDbEntity
  8
0
  6
SLD-Durchgehend
 62
     7
370
    18
100
AcDbLine
 10
279.6776899522
 20
50.1267003034
 30
0.0
 11
277.2619165934
 21
50.1267003034
 31
0.0
  0
LINE
  5
94
330
78
100
AcDbEntity
  8
0
  6
SLD-Durchgehend
 62
     7
370
    18
100
AcDbLine
 10
244.9913735862
 20
49.4456359456
 30
0.0
 11
244.9984945986
 21
49.4456359456
 31
0.0
  0
LINE
  5
95
330
78
100
AcDbEntity
  8
0
  6
SLD-Durchgehend
 62
     7
370
    18
100
AcDbLine
 10
279.6434249755
 20
54.0432571068
 30
0.0
 11
276.3750146496
 21
54.0432571068
 31
0.0
  0
LINE
  5
96
330
78
100
AcDbEntity
  8
0
  6
SLD-Durchgehend
 62
     7
370
    18
100
AcDbLine
 10
279.6774157734
 20
49.5548695882
 30
0.0
 11
279.6776899522
 21
50.1267003034
 31
0.0
  0
LINE
  5
97
330
78
100
AcDbEntity
  8
0
  6
SLD-Durchgehend
 62
     7
370
    18
100
AcDbLine
 10
264.4359024762
 20
52.9736944987
 30
0.0
 11
264.4000286969
 21
53.055586141
 31
0.0
  0
LINE
  5
98
330
78
100
AcDbEntity
  8
0
  6
SLD-Durchgehend
 62
     7
370
    18
100
AcDbLine
 10
277.2619165934
 20
50.1267003034
 30
0.0
 11
279.6434249755
 21
53.6669183209
 31
0.0
  0
LINE
  5
99
330
78
100
AcDbEntity
  8
0
  6
SLD-Durchgehend
 62
     7
370
    18
100
AcDbLine
 10
276.3746599345
 20
49.5548695882
 30
0.0
 11
279.6774157734
 21
49.5548695882
 31
0.0
  0
LINE
  5
9A
330
78
100
AcDbEntity
  8
0
  6
SLD-Durchgehend
 62
     7
370
    18
100
AcDbLine
 10
253.2143962099
 20
53.5326939697
 30
0.0
 11
253.2143962099
 21
54.0432571208
 31
0.0
  0
LINE
  5
9B
330
78
100
AcDbEntity
  8
0
  6
SLD-Durchgehend
 62
     7
370
    18
100
AcDbLine
 10
276.3749694859
 20
53.4717792044
 30
0.0
 11
276.3750146496
 21
54.0432571068
 31
0.0
  0
LINE
  5
9C
330
78
100
AcDbEntity
  8
0
  6
SLD-Durchgehend
 62
     7
370
    18
100
AcDbLine
 10
264.9174441429
 20
49.5548695882
 30
0.0
 11
265.579832652
 21
49.5548695882
 31
0.0
  0
LINE
  5
9D
330
78
100
AcDbEntity
  8
0
  6
SLD-Durchgehend
 62
     7
370
    18
100
AcDbLine
 10
264.4688203636
 20
50.7029648844
 30
0.0
 11
264.4999915875
 21
50.7819678141
 31
0.0
  0
LINE
  5
9E
330
78
100
AcDbEntity
  8
0
  6
SLD-Durchgehend
 62
     7
370
    18
100
AcDbLine
 10
276.3749694859
 20
53.4717792044
 30
0.0
 11
278.710930268
 21
53.4717792044
 31
0.0
  0
LINE
  5
9F
330
78
100
AcDbEntity
  8
0
  6
SLD-Durchgehend
 62
     7
370
    18
100
AcDbLine
 10
259.272227997
 20
53.0812486572
 30
0.0
 11
259.2890228375
 21
53.0527646077
 31
0.0
  0
LINE
  5
A0
330
78
100
AcDbEntity
  8
0
  6
SLD-Durchgehend
 62
     7
370
    18
100
AcDbLine
 10
251.8036296083
 20
51.7591588135
 30
0.0
 11
251.8015470481
 21
51.8196202393
 31
0.0
  0
LINE
  5
A1
330
78
100
AcDbEntity
  8
0
  6
SLD-Durchgehend
 62
     7
370
    18
100
AcDbLine
 10
256.0747590843
 20
49.5548695882
 30
0.0
 11
256.0747590843
 21
52.5733055013
 31
0.0
  0
LINE
  5
A2
330
78
100
AcDbEntity
  8
0
  6
SLD-Durchgehend
 62
     7
370
    18
100
AcDbLine
 10
274.3795206485
 20
53.4714263916
 30
0.0
 11
274.3795206485
 21
50.2778538818
 31
0.0
  0
LINE
  5
A3
330
78
100
AcDbEntity
  8
0
  6
SLD-Durchgehend
 62
     7
370
    18
100
AcDbLine
 10
275.0414733219
 20
55.2308538818
 30
0.0
 11
274.3795206485
 21
55.2308538818
 31
0.0
  0
LINE
  5
A4
330
78
100
AcDbEntity
  8
0
  6
SLD-Durchgehend
 62
     7
370
    18
100
AcDbLine
 10
275.0421778775
 20
53.4714263997
 30
0.0
 11
275.7691929911
 21
53.4714263997
 31
0.0
  0
LINE
  5
A5
330
78
100
AcDbEntity
  8
0
  6
SLD-Durchgehend
 62
     7
370
    18
100
AcDbLine
 10
249.8141799827
 20
50.071881958
 30
0.0
 11
249.8012143658
 21
50.0721506755
 31
0.0
  0
LINE
  5
A6
330
78
100
AcDbEntity
  8
0
  6
SLD-Durchgehend
 62
     7
370
    18
100
AcDbLine
 10
256.6612349143
 20
50.8026590576
 30
0.0
 11
256.684747691
 21
50.7275525309
 31
0.0
  0
LINE
  5
A7
330
78
100
AcDbEntity
  8
0
  6
SLD-Durchgehend
 62
     7
370
    18
100
AcDbLine
 10
247.0260349225
 20
51.7258378499
 30
0.0
 11
247.0260349225
 21
55.2308538818
 31
0.0
  0
LINE
  5
A8
330
78
100
AcDbEntity
  8
0
  6
SLD-Durchgehend
 62
     7
370
    18
100
AcDbLine
 10
255.4121690371
 20
52.40918632
 30
0.0
 11
255.4121690371
 21
49.5548695882
 31
0.0
  0
LINE
  5
A9
330
78
100
AcDbEntity
  8
0
  6
SLD-Durchgehend
 62
     7
370
    18
100
AcDbLine
 10
263.7743201194
 20
50.7822365316
 30
0.0
 11
263.7591375836
 21
50.7491842855
 31
0.0
  0
LINE
  5
AA
330
78
100
AcDbEntity
  8
0
  6
SLD-Durchgehend
 62
     7
370
    18
100
AcDbLine
 10
265.579832652
 20
53.5253714193
 30
0.0
 11
265.579832652
 21
55.2308538818
 31
0.0
  0
LINE
  5
AB
330
78
100
AcDbEntity
  8
0
  6
SLD-Durchgehend
 62
     7
370
    18
100
AcDbLine
 10
275.0421778775
 20
50.6422347493
 30
0.0
 11
275.0421778775
 21
53.4714263997
 31
0.0
  0
LINE
  5
AC
330
78
100
AcDbEntity
  8
0
  6
SLD-Durchgehend
 62
     7
370
    18
100
AcDbLine
 10
251.0529674176
 20
52.3307208252
 30
0.0
 11
248.4766388857
 21
52.3307208252
 31
0.0
  0
LINE
  5
AD
330
78
100
AcDbEntity
  8
0
  6
SLD-Durchgehend
 62
     7
370
    18
100
AcDbLine
 10
265.579832652
 20
55.2308538818
 30
0.0
 11
264.9174441429
 21
55.2308538818
 31
0.0
  0
LINE
  5
AE
330
78
100
AcDbEntity
  8
0
  6
SLD-Durchgehend
 62
     7
370
    18
100
AcDbLine
 10
264.4999915875
 20
50.7819678141
 30
0.0
 11
263.7743201194
 21
50.7822365316
 31
0.0
  0
LINE
  5
AF
330
78
100
AcDbEntity
  8
0
  6
SLD-Durchgehend
 62
     7
370
    18
100
AcDbLine
 10
275.7691929394
 20
49.5336409268
 30
0.0
 11
275.7691929394
 21
50.0978132087
 31
0.0
  0
LINE
  5
B0
330
78
100
AcDbEntity
  8
0
  6
SLD-Durchgehend
 62
     7
370
    18
100
AcDbLine
 10
274.3795206485
 20
55.2308538818
 30
0.0
 11
274.3795206485
 21
54.0429884033
 31
0.0
  0
LINE
  5
B1
330
78
100
AcDbEntity
  8
0
  6
SLD-Durchgehend
 62
     7
370
    18
100
AcDbLine
 10
274.3795206485
 20
54.0429884033
 30
0.0
 11
273.7919506049
 21
54.0429884033
 31
0.0
  0
LINE
  5
B2
330
78
100
AcDbEntity
  8
0
  6
SLD-Durchgehend
 62
     7
370
    18
100
AcDbLine
 10
275.0419489884
 20
54.0430117619
 30
0.0
 11
275.0414733219
 21
55.2308538818
 31
0.0
  0
LINE
  5
B3
330
78
100
AcDbEntity
  8
0
  6
SLD-Durchgehend
 62
     7
370
    18
100
AcDbLine
 10
246.3676771751
 20
55.2308538818
 30
0.0
 11
246.3676771751
 21
53.54109139
 31
0.0
  0
LINE
  5
B4
330
78
100
AcDbEntity
  8
0
  6
SLD-Durchgehend
 62
     7
370
    18
100
AcDbLine
 10
248.4676368512
 20
51.7591588135
 30
0.0
 11
251.8036296083
 21
51.7591588135
 31
0.0
  0
LINE
  5
B5
330
78
100
AcDbEntity
  8
0
  6
SLD-Durchgehend
 62
     7
370
    18
100
AcDbLine
 10
273.7919506049
 20
53.4714263916
 30
0.0
 11
274.3795206485
 21
53.4714263916
 31
0.0
  0
LINE
  5
B6
330
78
100
AcDbEntity
  8
0
  6
SLD-Durchgehend
 62
     7
370
    18
100
AcDbLine
 10
273.7919506049
 20
54.0429884033
 30
0.0
 11
273.7919506049
 21
53.4714263916
 31
0.0
  0
LINE
  5
B7
330
78
100
AcDbEntity
  8
0
  6
SLD-Durchgehend
 62
     7
370
    18
100
AcDbLine
 10
251.0299248964
 20
50.954350057
 30
0.0
 11
251.0163546653
 21
50.9159234619
 31
0.0
  0
LINE
  5
B8
330
78
100
AcDbEntity
  8
0
  6
SLD-Durchgehend
 62
     7
370
    18
100
AcDbLine
 10
275.7691929911
 20
53.4714263997
 30
0.0
 11
275.7689641251
 21
54.0429543063
 31
0.0
  0
LINE
  5
B9
330
78
100
AcDbEntity
  8
0
  6
SLD-Durchgehend
 62
     7
370
    18
100
AcDbLine
 10
252.5518733421
 20
54.0432571208
 30
0.0
 11
252.5518733421
 21
49.5548695882
 31
0.0
  0
LINE
  5
BA
330
78
100
AcDbEntity
  8
0
  6
SLD-Durchgehend
 62
     7
370
    18
100
AcDbLine
 10
268.4404642438
 20
49.5548695882
 30
0.0
 11
268.4404642438
 21
52.5733055013
 31
0.0
  0
LINE
  5
BB
330
78
100
AcDbEntity
  8
0
  6
SLD-Durchgehend
 62
     7
370
    18
100
AcDbLine
 10
275.7689641251
 20
54.0429543063
 30
0.0
 11
275.0419489884
 21
54.0430117619
 31
0.0
  0
LINE
  5
BC
330
78
100
AcDbEntity
  8
0
  6
SLD-Durchgehend
 62
     7
370
    18
100
AcDbLine
 10
263.7028412783
 20
53.0121882731
 30
0.0
 11
263.7180238141
 21
52.978397054
 31
0.0
  0
LINE
  5
BD
330
78
100
AcDbEntity
  8
0
  6
SLD-Durchgehend
 62
     7
370
    18
100
AcDbLine
 10
258.3170718284
 20
54.1387861735
 30
0.0
 11
258.3170718284
 21
54.1375097656
 31
0.0
  0
LINE
  5
BE
330
78
100
AcDbEntity
  8
0
  6
SLD-Durchgehend
 62
     7
370
    18
100
AcDbLine
 10
257.3349095563
 20
50.8026590576
 30
0.0
 11
256.6612349143
 21
50.8026590576
 31
0.0
  0
LINE
  5
BF
330
78
100
AcDbEntity
  8
0
  6
SLD-Durchgehend
 62
     7
370
    18
100
AcDbLine
 10
257.3465987652
 20
50.7604704183
 30
0.0
 11
257.3349095563
 21
50.8026590576
 31
0.0
  0
LINE
  5
C0
330
78
100
AcDbEntity
  8
0
  6
SLD-Durchgehend
 62
     7
370
    18
100
AcDbLine
 10
271.1938845969
 20
49.4456359307
 30
0.0
 11
271.1949594667
 21
49.4456359307
 31
0.0
  0
LINE
  5
C1
330
78
100
AcDbEntity
  8
0
  6
SLD-Durchgehend
 62
     7
370
    18
100
AcDbLine
 10
262.5728844098
 20
49.4456359456
 30
0.0
 11
262.5853797711
 21
49.4456359456
 31
0.0
  0
LINE
  5
C2
330
78
100
AcDbEntity
  8
0
  6
SLD-Durchgehend
 62
     7
370
    18
100
AcDbLine
 10
247.0260349225
 20
55.2308538818
 30
0.0
 11
246.3676771751
 21
55.2308538818
 31
0.0
  0
LINE
  5
C3
330
78
100
AcDbEntity
  8
0
  6
SLD-Durchgehend
 62
     7
370
    18
100
AcDbLine
 10
258.3976870628
 20
49.4356934001
 30
0.0
 11
258.4476685081
 21
49.436230835
 31
0.0
  0
LINE
  5
C4
330
78
100
AcDbEntity
  8
0
  6
SLD-Durchgehend
 62
     7
370
    18
100
AcDbLine
 10
248.4677712099
 20
51.6989661051
 30
0.0
 11
248.4676368512
 21
51.7591588135
 31
0.0
  0
LINE
  5
C5
330
78
100
AcDbEntity
  8
0
  6
SLD-Durchgehend
 62
     7
370
    18
100
AcDbLine
 10
251.7625830182
 20
50.954350057
 30
0.0
 11
251.0299248964
 21
50.954350057
 31
0.0
  0
LINE
  5
C6
330
78
100
AcDbEntity
  8
0
  6
SLD-Durchgehend
 62
     7
370
    18
100
AcDbLine
 10
272.5521168952
 20
54.0432571195
 30
0.0
 11
272.5521168952
 21
53.6264091784
 31
0.0
  0
LINE
  5
C7
330
78
100
AcDbEntity
  8
0
  6
SLD-Durchgehend
 62
     7
370
    18
100
AcDbLine
 10
269.7885180068
 20
51.7991976678
 30
0.0
 11
269.7882492894
 21
51.7991976678
 31
0.0
  0
LINE
  5
C8
330
78
100
AcDbEntity
  8
0
  6
SLD-Durchgehend
 62
     7
370
    18
100
AcDbLine
 10
272.6762643972
 20
49.5548695882
 30
0.0
 11
273.2284787527
 21
49.5548695882
 31
0.0
  0
LINE
  5
C9
330
78
100
AcDbEntity
  8
0
  6
SLD-Durchgehend
 62
     7
370
    18
100
AcDbLine
 10
272.5890655808
 20
50.0075241284
 30
0.0
 11
272.6762643972
 21
49.5548695882
 31
0.0
  0
LINE
  5
CA
330
78
100
AcDbEntity
  8
0
  6
SLD-Durchgehend
 62
     7
370
    18
100
AcDbLine
 10
273.2284787527
 20
49.5548695882
 30
0.0
 11
273.2284787527
 21
54.0432571195
 31
0.0
  0
LINE
  5
CB
330
78
100
AcDbEntity
  8
0
  6
SLD-Durchgehend
 62
     7
370
    18
100
AcDbLine
 10
272.5521168952
 20
54.0432571195
 30
0.0
 11
273.2284787527
 21
54.0432571195
 31
0.0
  0
SPLINE
  5
CC
330
78
100
AcDbEntity
  8
0
  6
SLD-Durchgehend
 62
     8
420
  8421504
370
     0
100
AcDbSpline
210
0.0
220
0.0
230
1.0
 70
     8
 71
     3
 72
     8
 73
     4
 74
     0
 42
0.00000001
 43
0.00000001
 40
23.0
 40
23.0
 40
23.0
 40
23.0
 40
24.0
 40
24.0
 40
24.0
 40
24.0
 10
260.0939659527489
 20
50.82039440917971
 30
0.0
 10
260.0961156923323
 20
51.7381988525391
 30
0.0
 10
259.4008092958479
 20
51.98891223144533
 30
0.0
 10
258.7550812685041
 20
52.13281042480472
 30
0.0
  0
SPLINE
  5
CD
330
78
100
AcDbEntity
  8
0
  6
SLD-Durchgehend
 62
     8
420
  8421504
370
     0
100
AcDbSpline
210
0.0
220
0.0
230
1.0
 70
     8
 71
     3
 72
     8
 73
     4
 74
     0
 42
0.00000001
 43
0.00000001
 40
3.0
 40
3.0
 40
3.0
 40
3.0
 40
4.0
 40
4.0
 40
4.0
 40
4.0
 10
246.363243337189
 20
51.79919771321618
 30
0.0
 10
246.3701628114729
 20
50.59198457845055
 30
0.0
 10
245.7664218853661
 20
50.07403169759117
 30
0.0
 10
244.9913735862125
 20
50.07188195800784
 30
0.0
  0
SPLINE
  5
CE
330
78
100
AcDbEntity
  8
0
  6
SLD-Durchgehend
 62
     8
420
  8421504
370
     0
100
AcDbSpline
210
0.0
220
0.0
230
1.0
 70
     8
 71
     3
 72
     8
 73
     4
 74
     0
 42
0.00000001
 43
0.00000001
 40
1.0
 40
1.0
 40
1.0
 40
1.0
 40
2.0
 40
2.0
 40
2.0
 40
2.0
 10
249.7665498150536
 20
54.15289383951826
 30
0.0
 10
249.2061395774234
 20
54.15289383951826
 30
0.0
 10
248.694904632762
 20
53.94645166015629
 30
0.0
 10
248.3258883974104
 20
53.54626420084637
 30
0.0
  0
SPLINE
  5
CF
330
78
100
AcDbEntity
  8
0
  6
SLD-Durchgehend
 62
     8
420
  8421504
370
     0
100
AcDbSpline
210
0.0
220
0.0
230
1.0
 70
     8
 71
     3
 72
     8
 73
     4
 74
     0
 42
0.00000001
 43
0.00000001
 40
5.0
 40
5.0
 40
5.0
 40
5.0
 40
6.0
 40
6.0
 40
6.0
 40
6.0
 10
232.9472759882492
 20
51.77971569824223
 30
0.0
 10
232.9535908482752
 20
50.25501289876306
 30
0.0
 10
233.8585640334966
 20
49.43676826985681
 30
0.0
 10
234.9778393834315
 20
49.43676826985681
 30
0.0
  0
SPLINE
  5
D0
330
78
100
AcDbEntity
  8
0
  6
SLD-Durchgehend
 62
     8
420
  8421504
370
     0
100
AcDbSpline
210
0.0
220
0.0
230
1.0
 70
     8
 71
     3
 72
     8
 73
     4
 74
     0
 42
0.00000001
 43
0.00000001
 40
12.0
 40
12.0
 40
12.0
 40
12.0
 40
13.0
 40
13.0
 40
13.0
 40
13.0
 10
268.0578105979312
 20
53.71165979003909
 30
0.0
 10
267.7943331402489
 20
53.99354439290368
 30
0.0
 10
267.3903164573062
 20
54.15289383951826
 30
0.0
 10
266.842804657176
 20
54.15289383951826
 30
0.0
  0
SPLINE
  5
D1
330
78
100
AcDbEntity
  8
0
  6
SLD-Durchgehend
 62
     8
420
  8421504
370
     0
100
AcDbSpline
210
0.0
220
0.0
230
1.0
 70
     8
 71
     3
 72
     8
 73
     4
 74
     0
 42
0.00000001
 43
0.00000001
 40
9.0
 40
9.0
 40
9.0
 40
9.0
 40
10.0
 40
10.0
 40
10.0
 40
10.0
 10
260.5381558941552
 20
51.799735148112
 30
0.0
 10
260.5538758648583
 20
50.3993141682943
 30
0.0
 10
261.4438680523583
 20
49.44469543457033
 30
0.0
 10
262.5728844097802
 20
49.44563594563805
 30
0.0
  0
SPLINE
  5
D2
330
78
100
AcDbEntity
  8
0
  6
SLD-Durchgehend
 62
     8
420
  8421504
370
     0
100
AcDbSpline
210
0.0
220
0.0
230
1.0
 70
     8
 71
     3
 72
     8
 73
     4
 74
     0
 42
0.00000001
 43
0.00000001
 40
3.0
 40
3.0
 40
3.0
 40
3.0
 40
4.0
 40
4.0
 40
4.0
 40
4.0
 10
242.9563763531395
 20
51.79919771321618
 30
0.0
 10
242.9563763531395
 20
51.04101143391929
 30
0.0
 10
243.1810913189599
 20
50.45144535319012
 30
0.0
 10
243.5503762717593
 20
50.05172814941409
 30
0.0
  0
SPLINE
  5
D3
330
78
100
AcDbEntity
  8
0
  6
SLD-Durchgehend
 62
     8
420
  8421504
370
     0
100
AcDbSpline
210
0.0
220
0.0
230
1.0
 70
     8
 71
     3
 72
     8
 73
     4
 74
     0
 42
0.00000001
 43
0.00000001
 40
0.0
 40
0.0
 40
0.0
 40
0.0
 40
1.0
 40
1.0
 40
1.0
 40
1.0
 10
246.3676771750796
 20
53.54109138997399
 30
0.0
 10
246.0469629009911
 20
53.931269124349
 30
0.0
 10
245.5208141379703
 20
54.15289383951826
 30
0.0
 10
244.9913735862125
 20
54.15289383951826
 30
0.0
  0
SPLINE
  5
D4
330
78
100
AcDbEntity
  8
0
  6
SLD-Durchgehend
 62
     8
420
  8421504
370
     0
100
AcDbSpline
210
0.0
220
0.0
230
1.0
 70
     8
 71
     3
 72
    11
 73
     7
 74
     0
 42
0.00000001
 43
0.00000001
 40
1.0
 40
1.0
 40
1.0
 40
1.0
 40
2.0
 40
2.0
 40
2.0
 40
3.0
 40
3.0
 40
3.0
 40
3.0
 10
235.7273595250331
 20
53.54102421061203
 30
0.0
 10
236.3061097284836
 20
53.32248974609381
 30
0.0
 10
236.7050879592778
 20
52.70645499674485
 30
0.0
 10
236.7050879592778
 20
51.7957043863933
 30
0.0
 10
236.7050879592778
 20
50.87816866048182
 30
0.0
 10
236.3067815221034
 20
50.26656774902347
 30
0.0
 10
235.7287031122727
 20
50.04930969238286
 30
0.0
  0
SPLINE
  5
D5
330
78
100
AcDbEntity
  8
0
  6
SLD-Durchgehend
 62
     8
420
  8421504
370
     0
100
AcDbSpline
210
0.0
220
0.0
230
1.0
 70
     8
 71
     3
 72
     8
 73
     4
 74
     0
 42
0.00000001
 43
0.00000001
 40
1.0
 40
1.0
 40
1.0
 40
1.0
 40
2.0
 40
2.0
 40
2.0
 40
2.0
 10
249.7665498150536
 20
53.52637910970056
 30
0.0
 10
250.6097851666161
 20
53.52456526692713
 30
0.0
 10
250.922908172801
 20
52.93708174641929
 30
0.0
 10
251.0529674175927
 20
52.33072082519535
 30
0.0
  0
SPLINE
  5
D6
330
78
100
AcDbEntity
  8
0
  6
SLD-Durchgehend
 62
     8
420
  8421504
370
     0
100
AcDbSpline
210
0.0
220
0.0
230
1.0
 70
     8
 71
     3
 72
     8
 73
     4
 74
     0
 42
0.00000001
 43
0.00000001
 40
6.0
 40
6.0
 40
6.0
 40
6.0
 40
7.0
 40
7.0
 40
7.0
 40
7.0
 10
234.9778393834315
 20
49.43676826985681
 30
0.0
 10
235.0608058954758
 20
49.43676826985681
 30
0.0
 10
235.14377240752
 20
49.43985852050785
 30
0.0
 10
235.2267389195643
 20
49.44563594563805
 30
0.0
  0
SPLINE
  5
D7
330
78
100
AcDbEntity
  8
0
  6
SLD-Durchgehend
 62
     8
420
  8421504
370
     0
100
AcDbSpline
210
0.0
220
0.0
230
1.0
 70
     8
 71
     3
 72
     8
 73
     4
 74
     0
 42
0.00000001
 43
0.00000001
 40
6.0
 40
6.0
 40
6.0
 40
6.0
 40
7.0
 40
7.0
 40
7.0
 40
7.0
 10
241.6913217877099
 20
50.05172814941409
 30
0.0
 10
242.0604723817854
 20
50.45144535319012
 30
0.0
 10
242.2852545269677
 20
51.04101143391929
 30
0.0
 10
242.2852545269677
 20
51.79919771321618
 30
0.0
  0
SPLINE
  5
D8
330
78
100
AcDbEntity
  8
0
  6
SLD-Durchgehend
 62
     8
420
  8421504
370
     0
100
AcDbSpline
210
0.0
220
0.0
230
1.0
 70
     8
 71
     3
 72
     8
 73
     4
 74
     0
 42
0.00000001
 43
0.00000001
 40
5.0
 40
5.0
 40
5.0
 40
5.0
 40
6.0
 40
6.0
 40
6.0
 40
6.0
 10
237.4308937861008
 20
51.79570438639327
 30
0.0
 10
237.4271317418299
 20
52.92707202148441
 30
0.0
 10
236.8167400588872
 20
53.57031441243492
 30
0.0
 10
236.0195897496424
 20
53.57185953776045
 30
0.0
  0
SPLINE
  5
D9
330
78
100
AcDbEntity
  8
0
  6
SLD-Durchgehend
 62
     8
420
  8421504
370
     0
100
AcDbSpline
210
0.0
220
0.0
230
1.0
 70
     8
 71
     3
 72
     8
 73
     4
 74
     0
 42
0.00000001
 43
0.00000001
 40
3.0
 40
3.0
 40
3.0
 40
3.0
 40
4.0
 40
4.0
 40
4.0
 40
4.0
 10
235.7287031122727
 20
50.04930969238285
 30
0.0
 10
235.8220824254237
 20
50.029424601237
 30
0.0
 10
235.9193581415695
 20
50.01948205566409
 30
0.0
 10
236.0195897496424
 20
50.01907897949221
 30
0.0
  0
SPLINE
  5
DA
330
78
100
AcDbEntity
  8
0
  6
SLD-Durchgehend
 62
     8
420
  8421504
370
     0
100
AcDbSpline
210
0.0
220
0.0
230
1.0
 70
     8
 71
     3
 72
     8
 73
     4
 74
     0
 42
0.00000001
 43
0.00000001
 40
3.0
 40
3.0
 40
3.0
 40
3.0
 40
4.0
 40
4.0
 40
4.0
 40
4.0
 10
258.3858634950666
 20
53.56460416666669
 30
0.0
 10
258.8105714214989
 20
53.56124519856773
 30
0.0
 10
259.0927247418114
 20
53.38248091634117
 30
0.0
 10
259.2722279970197
 20
53.08124865722658
 30
0.0
  0
SPLINE
  5
DB
330
78
100
AcDbEntity
  8
0
  6
SLD-Durchgehend
 62
     8
420
  8421504
370
     0
100
AcDbSpline
210
0.0
220
0.0
230
1.0
 70
     8
 71
     3
 72
     8
 73
     4
 74
     0
 42
0.00000001
 43
0.00000001
 40
0.0
 40
0.0
 40
0.0
 40
0.0
 40
1.0
 40
1.0
 40
1.0
 40
1.0
 10
254.4773682151187
 20
54.1524235839844
 30
0.0
 10
254.0052316591292
 20
54.15369999186201
 30
0.0
 10
253.5150910341292
 20
53.98333312988284
 30
0.0
 10
253.2143962099104
 20
53.53269396972657
 30
0.0
  0
SPLINE
  5
DC
330
78
100
AcDbEntity
  8
0
  6
SLD-Durchgehend
 62
     8
420
  8421504
370
     0
100
AcDbSpline
210
0.0
220
0.0
230
1.0
 70
     8
 71
     3
 72
     8
 73
     4
 74
     0
 42
0.00000001
 43
0.00000001
 40
4.0
 40
4.0
 40
4.0
 40
4.0
 40
5.0
 40
5.0
 40
5.0
 40
5.0
 10
236.0195897496424
 20
50.01907897949221
 30
0.0
 10
236.8172103144211
 20
50.02109436035159
 30
0.0
 10
237.4267286656581
 20
50.65526753743492
 30
0.0
 10
237.4308937861008
 20
51.79570438639327
 30
0.0
  0
SPLINE
  5
DD
330
78
100
AcDbEntity
  8
0
  6
SLD-Durchgehend
 62
     8
420
  8421504
370
     0
100
AcDbSpline
210
0.0
220
0.0
230
1.0
 70
     8
 71
     3
 72
     8
 73
     4
 74
     0
 42
0.00000001
 43
0.00000001
 40
13.0
 40
13.0
 40
13.0
 40
13.0
 40
14.0
 40
14.0
 40
14.0
 40
14.0
 10
258.1843254091291
 20
51.63823596191408
 30
0.0
 10
258.5088017274885
 20
51.5730719807943
 30
0.0
 10
258.8295160015771
 20
51.52094079589845
 30
0.0
 10
259.0598068544416
 20
51.40996048990888
 30
0.0
  0
SPLINE
  5
DE
330
78
100
AcDbEntity
  8
0
  6
SLD-Durchgehend
 62
     8
420
  8421504
370
     0
100
AcDbSpline
210
0.0
220
0.0
230
1.0
 70
     8
 71
     3
 72
     8
 73
     4
 74
     0
 42
0.00000001
 43
0.00000001
 40
11.0
 40
11.0
 40
11.0
 40
11.0
 40
12.0
 40
12.0
 40
12.0
 40
12.0
 10
256.0747590842593
 20
52.5733055013021
 30
0.0
 10
256.0747590842593
 20
53.03361848958336
 30
0.0
 10
255.9559859722802
 20
53.43037980143232
 30
0.0
 10
255.6924413352359
 20
53.71165979003909
 30
0.0
  0
SPLINE
  5
DF
330
78
100
AcDbEntity
  8
0
  6
SLD-Durchgehend
 62
     8
420
  8421504
370
     0
100
AcDbSpline
210
0.0
220
0.0
230
1.0
 70
     8
 71
     3
 72
     8
 73
     4
 74
     0
 42
0.00000001
 43
0.00000001
 40
0.0
 40
0.0
 40
0.0
 40
0.0
 40
1.0
 40
1.0
 40
1.0
 40
1.0
 10
248.4766388856916
 20
52.33072082519535
 30
0.0
 10
248.5873504742333
 20
53.00748571777345
 30
0.0
 10
249.0482008974104
 20
53.52537141927086
 30
0.0
 10
249.7665498150536
 20
53.52637910970056
 30
0.0
  0
SPLINE
  5
E0
330
78
100
AcDbEntity
  8
0
  6
SLD-Durchgehend
 62
     8
420
  8421504
370
     0
100
AcDbSpline
210
0.0
220
0.0
230
1.0
 70
     8
 71
     3
 72
     8
 73
     4
 74
     0
 42
0.00000001
 43
0.00000001
 40
14.0
 40
14.0
 40
14.0
 40
14.0
 40
15.0
 40
15.0
 40
15.0
 40
15.0
 10
259.0598068544416
 20
51.40996048990888
 30
0.0
 10
259.2900977073062
 20
51.29615865071617
 30
0.0
 10
259.4282184755354
 20
51.14339278157556
 30
0.0
 10
259.4309056500146
 20
50.83866719563805
 30
0.0
  0
SPLINE
  5
E1
330
78
100
AcDbEntity
  8
0
  6
SLD-Durchgehend
 62
     8
420
  8421504
370
     0
100
AcDbSpline
210
0.0
220
0.0
230
1.0
 70
     8
 71
     3
 72
     8
 73
     4
 74
     0
 42
0.00000001
 43
0.00000001
 40
7.0
 40
7.0
 40
7.0
 40
7.0
 40
8.0
 40
8.0
 40
8.0
 40
8.0
 10
235.2267389195643
 20
49.44563594563805
 30
0.0
 10
234.3484359410487
 20
49.66813399251304
 30
0.0
 10
233.6945792109055
 20
50.4570884195964
 30
0.0
 10
233.6739551467778
 20
51.72167272949222
 30
0.0
  0
SPLINE
  5
E2
330
78
100
AcDbEntity
  8
0
  6
SLD-Durchgehend
 62
     8
420
  8421504
370
     0
100
AcDbSpline
210
0.0
220
0.0
230
1.0
 70
     8
 71
     3
 72
     8
 73
     4
 74
     0
 42
0.00000001
 43
0.00000001
 40
7.0
 40
7.0
 40
7.0
 40
7.0
 40
8.0
 40
8.0
 40
8.0
 40
8.0
 10
242.2852545269677
 20
51.79919771321618
 30
0.0
 10
242.2852545269677
 20
52.55704809570316
 30
0.0
 10
242.0604723817854
 20
53.14695007324222
 30
0.0
 10
241.6913217877099
 20
53.54626420084637
 30
0.0
  0
SPLINE
  5
E3
330
78
100
AcDbEntity
  8
0
  6
SLD-Durchgehend
 62
     8
420
  8421504
370
     0
100
AcDbSpline
210
0.0
220
0.0
230
1.0
 70
     8
 71
     3
 72
     8
 73
     4
 74
     0
 42
0.00000001
 43
0.00000001
 40
0.0
 40
0.0
 40
0.0
 40
0.0
 40
1.0
 40
1.0
 40
1.0
 40
1.0
 10
236.0195897496424
 20
53.57185953776045
 30
0.0
 10
235.9188207066737
 20
53.57159082031254
 30
0.0
 10
235.8212090937179
 20
53.56117801920577
 30
0.0
 10
235.7273595250331
 20
53.54102421061203
 30
0.0
  0
SPLINE
  5
E4
330
78
100
AcDbEntity
  8
0
  6
SLD-Durchgehend
 62
     8
420
  8421504
370
     0
100
AcDbSpline
210
0.0
220
0.0
230
1.0
 70
     8
 71
     3
 72
     8
 73
     4
 74
     0
 42
0.00000001
 43
0.00000001
 40
12.0
 40
12.0
 40
12.0
 40
12.0
 40
13.0
 40
13.0
 40
13.0
 40
13.0
 10
251.016354665314
 20
50.9159234619141
 30
0.0
 10
250.8335596213687
 20
50.40294185384116
 30
0.0
 10
250.4579598085432
 20
50.0826306559245
 30
0.0
 10
249.8141799826968
 20
50.07188195800784
 30
0.0
  0
SPLINE
  5
E5
330
78
100
AcDbEntity
  8
0
  6
SLD-Durchgehend
 62
     8
420
  8421504
370
     0
100
AcDbSpline
210
0.0
220
0.0
230
1.0
 70
     8
 71
     3
 72
     8
 73
     4
 74
     0
 42
0.00000001
 43
0.00000001
 40
21.0
 40
21.0
 40
21.0
 40
21.0
 40
22.0
 40
22.0
 40
22.0
 40
22.0
 10
274.6302340347482
 20
49.67283655090634
 30
0.0
 10
274.7848809273797
 20
49.56158752935308
 30
0.0
 10
274.9834631217241
 20
49.53417835208514
 30
0.0
 10
275.1847324902169
 20
49.53390963708953
 30
0.0
  0
SPLINE
  5
E6
330
78
100
AcDbEntity
  8
0
  6
SLD-Durchgehend
 62
     8
420
  8421504
370
     0
100
AcDbSpline
210
0.0
220
0.0
230
1.0
 70
     8
 71
     3
 72
     8
 73
     4
 74
     0
 42
0.00000001
 43
0.00000001
 40
6.0
 40
6.0
 40
6.0
 40
6.0
 40
7.0
 40
7.0
 40
7.0
 40
7.0
 10
244.9984945985823
 20
49.44563594563805
 30
0.0
 10
245.9458579612125
 20
49.44563594563805
 30
0.0
 10
246.7583251649885
 20
50.01303283691409
 30
0.0
 10
246.9688652854312
 20
51.13371895345053
 30
0.0
  0
SPLINE
  5
E7
330
78
100
AcDbEntity
  8
0
  6
SLD-Durchgehend
 62
     8
420
  8421504
370
     0
100
AcDbSpline
210
0.0
220
0.0
230
1.0
 70
     8
 71
     3
 72
     8
 73
     4
 74
     0
 42
0.00000001
 43
0.00000001
 40
7.0
 40
7.0
 40
7.0
 40
7.0
 40
8.0
 40
8.0
 40
8.0
 40
8.0
 10
264.4000286968895
 20
53.05558614095054
 30
0.0
 10
263.9996396994937
 20
53.97654801432294
 30
0.0
 10
263.2563672385562
 20
54.15558101399741
 30
0.0
 10
262.6999877626448
 20
54.1524235839844
 30
0.0
  0
SPLINE
  5
E8
330
78
100
AcDbEntity
  8
0
  6
SLD-Durchgehend
 62
     8
420
  8421504
370
     0
100
AcDbSpline
210
0.0
220
0.0
230
1.0
 70
     8
 71
     3
 72
     8
 73
     4
 74
     0
 42
0.00000001
 43
0.00000001
 40
3.0
 40
3.0
 40
3.0
 40
3.0
 40
4.0
 40
4.0
 40
4.0
 40
4.0
 10
262.6275684104312
 20
53.52637910970056
 30
0.0
 10
263.1397438661604
 20
53.52456526692713
 30
0.0
 10
263.5299216005354
 20
53.37381477864585
 30
0.0
 10
263.7028412782698
 20
53.01218827311202
 30
0.0
  0
SPLINE
  5
E9
330
78
100
AcDbEntity
  8
0
  6
SLD-Durchgehend
 62
     8
420
  8421504
370
     0
100
AcDbSpline
210
0.0
220
0.0
230
1.0
 70
     8
 71
     3
 72
     8
 73
     4
 74
     0
 42
0.00000001
 43
0.00000001
 40
20.0
 40
20.0
 40
20.0
 40
20.0
 40
21.0
 40
21.0
 40
21.0
 40
21.0
 10
256.6847476910302
 20
50.7275525309245
 30
0.0
 10
256.9378795269677
 20
49.9117263590495
 30
0.0
 10
257.6850483909
 20
49.45960925292972
 30
0.0
 10
258.397687062775
 20
49.43569340006511
 30
0.0
  0
SPLINE
  5
EA
330
78
100
AcDbEntity
  8
0
  6
SLD-Durchgehend
 62
     8
420
  8421504
370
     0
100
AcDbSpline
210
0.0
220
0.0
230
1.0
 70
     8
 71
     3
 72
     8
 73
     4
 74
     0
 42
0.00000001
 43
0.00000001
 40
0.0
 40
0.0
 40
0.0
 40
0.0
 40
1.0
 40
1.0
 40
1.0
 40
1.0
 10
251.8015470481265
 20
51.81962023925784
 30
0.0
 10
251.7605004579573
 20
53.12733369954429
 30
0.0
 10
251.0964324647933
 20
54.1553122965495
 30
0.0
 10
249.7665498150536
 20
54.15289383951826
 30
0.0
  0
SPLINE
  5
EB
330
78
100
AcDbEntity
  8
0
  6
SLD-Durchgehend
 62
     8
420
  8421504
370
     0
100
AcDbSpline
210
0.0
220
0.0
230
1.0
 70
     8
 71
     3
 72
     8
 73
     4
 74
     0
 42
0.00000001
 43
0.00000001
 40
12.0
 40
12.0
 40
12.0
 40
12.0
 40
13.0
 40
13.0
 40
13.0
 40
13.0
 10
256.8442314963687
 20
52.87897159830732
 30
0.0
 10
256.8418130393375
 20
51.96848970540368
 30
0.0
 10
257.5411501975406
 20
51.76144291178387
 30
0.0
 10
258.1843254091291
 20
51.63823596191408
 30
0.0
  0
SPLINE
  5
EC
330
78
100
AcDbEntity
  8
0
  6
SLD-Durchgehend
 62
     8
420
  8421504
370
     0
100
AcDbSpline
210
0.0
220
0.0
230
1.0
 70
     8
 71
     3
 72
     8
 73
     4
 74
     0
 42
0.00000001
 43
0.00000001
 40
15.0
 40
15.0
 40
15.0
 40
15.0
 40
16.0
 40
16.0
 40
16.0
 40
16.0
 10
259.4309056500146
 20
50.83866719563805
 30
0.0
 10
259.4306369325666
 20
50.17480074055992
 30
0.0
 10
258.8938738303531
 20
50.022975382487
 30
0.0
 10
258.4449813336083
 20
50.00443387858074
 30
0.0
  0
SPLINE
  5
ED
330
78
100
AcDbEntity
  8
0
  6
SLD-Durchgehend
 62
     8
420
  8421504
370
     0
100
AcDbSpline
210
0.0
220
0.0
230
1.0
 70
     8
 71
     3
 72
     8
 73
     4
 74
     0
 42
0.00000001
 43
0.00000001
 40
6.0
 40
6.0
 40
6.0
 40
6.0
 40
7.0
 40
7.0
 40
7.0
 40
7.0
 10
249.8010128277489
 20
49.44644209798179
 30
0.0
 10
249.8100148622541
 20
49.44644209798179
 30
0.0
 10
249.8223086854963
 20
49.44563594563805
 30
0.0
 10
249.8366850689599
 20
49.44563594563805
 30
0.0
  0
SPLINE
  5
EE
330
78
100
AcDbEntity
  8
0
  6
SLD-Durchgehend
 62
     8
420
  8421504
370
     0
100
AcDbSpline
210
0.0
220
0.0
230
1.0
 70
     8
 71
     3
 72
     8
 73
     4
 74
     0
 42
0.00000001
 43
0.00000001
 40
2.0
 40
2.0
 40
2.0
 40
2.0
 40
3.0
 40
3.0
 40
3.0
 40
3.0
 10
261.2008131207177
 20
51.79919771321618
 30
0.0
 10
261.2039033713687
 20
52.97658321126303
 30
0.0
 10
261.9115707704573
 20
53.52355757649742
 30
0.0
 10
262.6275684104312
 20
53.52637910970056
 30
0.0
  0
SPLINE
  5
EF
330
78
100
AcDbEntity
  8
0
  6
SLD-Durchgehend
 62
     8
420
  8421504
370
     0
100
AcDbSpline
210
0.0
220
0.0
230
1.0
 70
     8
 71
     3
 72
     8
 73
     4
 74
     0
 42
0.00000001
 43
0.00000001
 40
1.0
 40
1.0
 40
1.0
 40
1.0
 40
2.0
 40
2.0
 40
2.0
 40
2.0
 10
257.8763752138166
 20
52.36605716959637
 30
0.0
 10
257.6433971864729
 20
52.47173030598961
 30
0.0
 10
257.5089041037905
 20
52.6036705729167
 30
0.0
 10
257.5067543642073
 20
52.86090034993494
 30
0.0
  0
SPLINE
  5
F0
330
78
100
AcDbEntity
  8
0
  6
SLD-Durchgehend
 62
     8
420
  8421504
370
     0
100
AcDbSpline
210
0.0
220
0.0
230
1.0
 70
     8
 71
     3
 72
     8
 73
     4
 74
     0
 42
0.00000001
 43
0.00000001
 40
7.0
 40
7.0
 40
7.0
 40
7.0
 40
8.0
 40
8.0
 40
8.0
 40
8.0
 10
254.4043442486473
 20
53.52637910970056
 30
0.0
 10
255.0787578635562
 20
53.51542887369794
 30
0.0
 10
255.4008829042463
 20
53.27620316569013
 30
0.0
 10
255.4121690370588
 20
52.409186319987
 30
0.0
  0
SPLINE
  5
F1
330
78
100
AcDbEntity
  8
0
  6
SLD-Durchgehend
 62
     8
420
  8421504
370
     0
100
AcDbSpline
210
0.0
220
0.0
230
1.0
 70
     8
 71
     3
 72
     8
 73
     4
 74
     0
 42
0.00000001
 43
0.00000001
 40
1.0
 40
1.0
 40
1.0
 40
1.0
 40
2.0
 40
2.0
 40
2.0
 40
2.0
 10
238.8781860048323
 20
51.79919771321618
 30
0.0
 10
238.8819480491031
 20
52.89966284179692
 30
0.0
 10
239.475746429637
 20
53.52456526692712
 30
0.0
 10
240.2502572938948
 20
53.52637910970054
 30
0.0
  0
SPLINE
  5
F2
330
78
100
AcDbEntity
  8
0
  6
SLD-Durchgehend
 62
     8
420
  8421504
370
     0
100
AcDbSpline
210
0.0
220
0.0
230
1.0
 70
     8
 71
     3
 72
     8
 73
     4
 74
     0
 42
0.00000001
 43
0.00000001
 40
8.0
 40
8.0
 40
8.0
 40
8.0
 40
9.0
 40
9.0
 40
9.0
 40
9.0
 10
249.8415219830224
 20
49.44563594563805
 30
0.0
 10
250.7082029319156
 20
49.44563594563805
 30
0.0
 10
251.4525502626448
 20
49.94867500813804
 30
0.0
 10
251.7394061382958
 20
50.87978096516928
 30
0.0
  0
SPLINE
  5
F3
330
78
100
AcDbEntity
  8
0
  6
SLD-Durchgehend
 62
     8
420
  8421504
370
     0
100
AcDbSpline
210
0.0
220
0.0
230
1.0
 70
     8
 71
     3
 72
     8
 73
     4
 74
     0
 42
0.00000001
 43
0.00000001
 40
8.0
 40
8.0
 40
8.0
 40
8.0
 40
9.0
 40
9.0
 40
9.0
 40
9.0
 10
258.4156911317854
 20
54.14039847819013
 30
0.0
 10
258.3994337261864
 20
54.14039847819013
 30
0.0
 10
258.3858634950666
 20
54.13932360839846
 30
0.0
 10
258.3740399273583
 20
54.13932360839846
 30
0.0
  0
SPLINE
  5
F4
330
78
100
AcDbEntity
  8
0
  6
SLD-Durchgehend
 62
     8
420
  8421504
370
     0
100
AcDbSpline
210
0.0
220
0.0
230
1.0
 70
     8
 71
     3
 72
     8
 73
     4
 74
     0
 42
0.00000001
 43
0.00000001
 40
20.0
 40
20.0
 40
20.0
 40
20.0
 40
21.0
 40
21.0
 40
21.0
 40
21.0
 10
274.3795206484703
 20
50.27785388183599
 30
0.0
 10
274.3784457823096
 20
49.9798462320833
 30
0.0
 10
274.474780989773
 20
49.78408557244977
 30
0.0
 10
274.6302340347482
 20
49.67283655090634
 30
0.0
  0
SPLINE
  5
F5
330
78
100
AcDbEntity
  8
0
  6
SLD-Durchgehend
 62
     8
420
  8421504
370
     0
100
AcDbSpline
210
0.0
220
0.0
230
1.0
 70
     8
 71
     3
 72
     8
 73
     4
 74
     0
 42
0.00000001
 43
0.00000001
 40
2.0
 40
2.0
 40
2.0
 40
2.0
 40
3.0
 40
3.0
 40
3.0
 40
3.0
 10
238.2156631369937
 20
51.79919771321618
 30
0.0
 10
238.2155287782698
 20
51.04101143391929
 30
0.0
 10
238.440310923452
 20
50.45144535319012
 30
0.0
 10
238.8093271588036
 20
50.05172814941409
 30
0.0
  0
SPLINE
  5
F6
330
78
100
AcDbEntity
  8
0
  6
SLD-Durchgehend
 62
     8
420
  8421504
370
     0
100
AcDbSpline
210
0.0
220
0.0
230
1.0
 70
     8
 71
     3
 72
     8
 73
     4
 74
     0
 42
0.00000001
 43
0.00000001
 40
8.0
 40
8.0
 40
8.0
 40
8.0
 40
9.0
 40
9.0
 40
9.0
 40
9.0
 10
262.6999877626448
 20
54.1524235839844
 30
0.0
 10
261.4113532411604
 20
54.15558101399741
 30
0.0
 10
260.5522635601708
 20
53.19773767089846
 30
0.0
 10
260.5381558941552
 20
51.799735148112
 30
0.0
  0
SPLINE
  5
F7
330
78
100
AcDbEntity
  8
0
  6
SLD-Durchgehend
 62
     8
420
  8421504
370
     0
100
AcDbSpline
210
0.0
220
0.0
230
1.0
 70
     8
 71
     3
 72
     8
 73
     4
 74
     0
 42
0.00000001
 43
0.00000001
 40
14.0
 40
14.0
 40
14.0
 40
14.0
 40
15.0
 40
15.0
 40
15.0
 40
15.0
 10
249.8012143658349
 20
50.07215067545575
 30
0.0
 10
248.8709145611474
 20
50.08155578613283
 30
0.0
 10
248.4738845318505
 20
50.74166019694015
 30
0.0
 10
248.4677712099104
 20
51.69896610514325
 30
0.0
  0
SPLINE
  5
F8
330
78
100
AcDbEntity
  8
0
  6
SLD-Durchgehend
 62
     8
420
  8421504
370
     0
100
AcDbSpline
210
0.0
220
0.0
230
1.0
 70
     8
 71
     3
 72
     8
 73
     4
 74
     0
 42
0.00000001
 43
0.00000001
 40
2.0
 40
2.0
 40
2.0
 40
2.0
 40
3.0
 40
3.0
 40
3.0
 40
3.0
 10
248.3258883974104
 20
53.54626420084637
 30
0.0
 10
247.9568721620588
 20
53.14695007324222
 30
0.0
 10
247.7316869407047
 20
52.55704809570316
 30
0.0
 10
247.7320900168766
 20
51.79866027832033
 30
0.0
  0
SPLINE
  5
F9
330
78
100
AcDbEntity
  8
0
  6
SLD-Durchgehend
 62
     8
420
  8421504
370
     0
100
AcDbSpline
210
0.0
220
0.0
230
1.0
 70
    24
 71
     2
 72
     6
 73
     3
 74
     0
 42
0.00000001
 43
0.00000001
 40
24.0
 40
24.0
 40
24.0
 40
25.0
 40
25.0
 40
25.0
 10
275.769192939439
 20
50.09781320866384
 30
0.0
 10
275.5543533398296
 20
50.09781320604619
 30
0.0
 10
275.3033712434755
 20
50.09781320298818
 30
0.0
  0
SPLINE
  5
FA
330
78
100
AcDbEntity
  8
0
  6
SLD-Durchgehend
 62
     8
420
  8421504
370
     0
100
AcDbSpline
210
0.0
220
0.0
230
1.0
 70
     8
 71
     3
 72
     8
 73
     4
 74
     0
 42
0.00000001
 43
0.00000001
 40
2.0
 40
2.0
 40
2.0
 40
2.0
 40
3.0
 40
3.0
 40
3.0
 40
3.0
 10
257.5067543642073
 20
52.86090034993494
 30
0.0
 10
257.5157563987125
 20
53.25866935221357
 30
0.0
 10
257.6615356142073
 20
53.52980525716148
 30
0.0
 10
258.3858634950666
 20
53.56460416666669
 30
0.0
  0
SPLINE
  5
FB
330
78
100
AcDbEntity
  8
0
  6
SLD-Durchgehend
 62
     8
420
  8421504
370
     0
100
AcDbSpline
210
0.0
220
0.0
230
1.0
 70
     8
 71
     3
 72
     8
 73
     4
 74
     0
 42
0.00000001
 43
0.00000001
 40
3.0
 40
3.0
 40
3.0
 40
3.0
 40
4.0
 40
4.0
 40
4.0
 40
4.0
 10
241.6222614035953
 20
51.79919771321618
 30
0.0
 10
241.6187008974104
 20
50.68979772949221
 30
0.0
 10
241.0255743104963
 20
50.07403169759117
 30
0.0
 10
240.2502572938948
 20
50.07161324055993
 30
0.0
  0
SPLINE
  5
FC
330
78
100
AcDbEntity
  8
0
  6
SLD-Durchgehend
 62
     8
420
  8421504
370
     0
100
AcDbSpline
210
0.0
220
0.0
230
1.0
 70
     8
 71
     3
 72
     8
 73
     4
 74
     0
 42
0.00000001
 43
0.00000001
 40
0.0
 40
0.0
 40
0.0
 40
0.0
 40
1.0
 40
1.0
 40
1.0
 40
1.0
 10
263.7591375836083
 20
50.74918428548179
 30
0.0
 10
263.573050750926
 20
50.36532141113282
 30
0.0
 10
263.234735483999
 20
50.0743004150391
 30
0.0
 10
262.5728844097802
 20
50.07161324055993
 30
0.0
  0
SPLINE
  5
FD
330
78
100
AcDbEntity
  8
0
  6
SLD-Durchgehend
 62
     8
420
  8421504
370
     0
100
AcDbSpline
210
0.0
220
0.0
230
1.0
 70
     8
 71
     3
 72
     8
 73
     4
 74
     0
 42
0.00000001
 43
0.00000001
 40
0.0
 40
0.0
 40
0.0
 40
0.0
 40
1.0
 40
1.0
 40
1.0
 40
1.0
 10
240.2502572938948
 20
50.07161324055993
 30
0.0
 10
239.4752761741031
 20
50.07403169759117
 30
0.0
 10
238.882216766551
 20
50.68979772949221
 30
0.0
 10
238.8781860048323
 20
51.79919771321618
 30
0.0
  0
SPLINE
  5
FE
330
78
100
AcDbEntity
  8
0
  6
SLD-Durchgehend
 62
     8
420
  8421504
370
     0
100
AcDbSpline
210
0.0
220
0.0
230
1.0
 70
     8
 71
     3
 72
     8
 73
     4
 74
     0
 42
0.00000001
 43
0.00000001
 40
7.0
 40
7.0
 40
7.0
 40
7.0
 40
8.0
 40
8.0
 40
8.0
 40
8.0
 10
246.9688652854312
 20
51.13371895345053
 30
0.0
 10
247.0101805930484
 20
51.35352982584638
 30
0.0
 10
247.0248256939599
 20
51.60007808430993
 30
0.0
 10
247.0248256939599
 20
51.7258378499349
 30
0.0
  0
SPLINE
  5
FF
330
78
100
AcDbEntity
  8
0
  6
SLD-Durchgehend
 62
     8
420
  8421504
370
     0
100
AcDbSpline
210
0.0
220
0.0
230
1.0
 70
     8
 71
     3
 72
     8
 73
     4
 74
     0
 42
0.00000001
 43
0.00000001
 40
7.0
 40
7.0
 40
7.0
 40
7.0
 40
8.0
 40
8.0
 40
8.0
 40
8.0
 10
259.9116411643375
 20
53.13411881510418
 30
0.0
 10
259.6226355491031
 20
53.78965502929691
 30
0.0
 10
259.0584632672021
 20
54.14140616861981
 30
0.0
 10
258.4156911317854
 20
54.14039847819013
 30
0.0
  0
SPLINE
  5
100
330
78
100
AcDbEntity
  8
0
  6
SLD-Durchgehend
 62
     8
420
  8421504
370
     0
100
AcDbSpline
210
0.0
220
0.0
230
1.0
 70
     8
 71
     3
 72
     8
 73
     4
 74
     0
 42
0.00000001
 43
0.00000001
 40
1.0
 40
1.0
 40
1.0
 40
1.0
 40
2.0
 40
2.0
 40
2.0
 40
2.0
 10
238.8093271588036
 20
53.54626420084637
 30
0.0
 10
238.440310923452
 20
53.14695007324222
 30
0.0
 10
238.2155287782698
 20
52.55704809570316
 30
0.0
 10
238.2156631369937
 20
51.79919771321618
 30
0.0
  0
SPLINE
  5
101
330
78
100
AcDbEntity
  8
0
  6
SLD-Durchgehend
 62
     8
420
  8421504
370
     0
100
AcDbSpline
210
0.0
220
0.0
230
1.0
 70
     8
 71
     3
 72
     8
 73
     4
 74
     0
 42
0.00000001
 43
0.00000001
 40
0.0
 40
0.0
 40
0.0
 40
0.0
 40
1.0
 40
1.0
 40
1.0
 40
1.0
 10
258.7550812685041
 20
52.13281042480472
 30
0.0
 10
258.4303362326968
 20
52.20764823404951
 30
0.0
 10
258.1084127300927
 20
52.26286966959638
 30
0.0
 10
257.8763752138166
 20
52.36605716959637
 30
0.0
  0
SPLINE
  5
102
330
78
100
AcDbEntity
  8
0
  6
SLD-Durchgehend
 62
     8
420
  8421504
370
     0
100
AcDbSpline
210
0.0
220
0.0
230
1.0
 70
     8
 71
     3
 72
     8
 73
     4
 74
     0
 42
0.00000001
 43
0.00000001
 40
7.0
 40
7.0
 40
7.0
 40
7.0
 40
8.0
 40
8.0
 40
8.0
 40
8.0
 10
266.7699822287906
 20
53.52637910970056
 30
0.0
 10
267.4439255881656
 20
53.51516015625004
 30
0.0
 10
267.7661178082177
 20
53.27620316569013
 30
0.0
 10
267.7771352235823
 20
52.40972375488285
 30
0.0
  0
SPLINE
  5
103
330
78
100
AcDbEntity
  8
0
  6
SLD-Durchgehend
 62
     8
420
  8421504
370
     0
100
AcDbSpline
210
0.0
220
0.0
230
1.0
 70
     8
 71
     3
 72
     8
 73
     4
 74
     0
 42
0.00000001
 43
0.00000001
 40
25.0
 40
25.0
 40
25.0
 40
25.0
 40
26.0
 40
26.0
 40
26.0
 40
26.0
 10
275.3033712434755
 20
50.09781320298818
 30
0.0
 10
275.1656535513739
 20
50.1014408868571
 30
0.0
 10
275.1203746608532
 20
50.1463167001075
 30
0.0
 10
275.0822167821244
 20
50.23862114300191
 30
0.0
  0
SPLINE
  5
104
330
78
100
AcDbEntity
  8
0
  6
SLD-Durchgehend
 62
     8
420
  8421504
370
     0
100
AcDbSpline
210
0.0
220
0.0
230
1.0
 70
     8
 71
     3
 72
     8
 73
     4
 74
     0
 42
0.00000001
 43
0.00000001
 40
4.0
 40
4.0
 40
4.0
 40
4.0
 40
5.0
 40
5.0
 40
5.0
 40
5.0
 10
248.3258883974104
 20
50.05172814941409
 30
0.0
 10
248.6946359153141
 20
49.65241402180991
 30
0.0
 10
249.2061395774234
 20
49.44536722819013
 30
0.0
 10
249.7665498150536
 20
49.44563594563805
 30
0.0
  0
SPLINE
  5
105
330
78
100
AcDbEntity
  8
0
  6
SLD-Durchgehend
 62
     8
420
  8421504
370
     0
100
AcDbSpline
210
0.0
220
0.0
230
1.0
 70
     8
 71
     3
 72
     8
 73
     4
 74
     0
 42
0.00000001
 43
0.00000001
 40
1.0
 40
1.0
 40
1.0
 40
1.0
 40
2.0
 40
2.0
 40
2.0
 40
2.0
 10
244.9913735862125
 20
54.15289383951826
 30
0.0
 10
244.4305602724104
 20
54.15289383951826
 30
0.0
 10
243.919190969025
 20
53.94645166015629
 30
0.0
 10
243.5503762717593
 20
53.54626420084637
 30
0.0
  0
SPLINE
  5
106
330
78
100
AcDbEntity
  8
0
  6
SLD-Durchgehend
 62
     8
420
  8421504
370
     0
100
AcDbSpline
210
0.0
220
0.0
230
1.0
 70
     8
 71
     3
 72
     8
 73
     4
 74
     0
 42
0.00000001
 43
0.00000001
 40
1.0
 40
1.0
 40
1.0
 40
1.0
 40
2.0
 40
2.0
 40
2.0
 40
2.0
 10
262.5728844097802
 20
50.07161324055993
 30
0.0
 10
261.9138548687646
 20
50.07376298014326
 30
0.0
 10
261.203097219025
 20
50.62154349772136
 30
0.0
 10
261.2008131207177
 20
51.79919771321618
 30
0.0
  0
SPLINE
  5
107
330
78
100
AcDbEntity
  8
0
  6
SLD-Durchgehend
 62
     8
420
  8421504
370
     0
100
AcDbSpline
210
0.0
220
0.0
230
1.0
 70
     8
 71
     2
 72
     6
 73
     3
 74
     0
 42
0.00000001
 43
0.00000001
 40
22.0
 40
22.0
 40
22.0
 40
23.0
 40
23.0
 40
23.0
 10
275.1847324902169
 20
49.53390963708953
 30
0.0
 10
275.2214124218576
 20
49.53390963753644
 30
0.0
 10
275.769192939439
 20
49.53364092676277
 30
0.0
  0
SPLINE
  5
108
330
78
100
AcDbEntity
  8
0
  6
SLD-Durchgehend
 62
     8
420
  8421504
370
     0
100
AcDbSpline
210
0.0
220
0.0
230
1.0
 70
     8
 71
     3
 72
     8
 73
     4
 74
     0
 42
0.00000001
 43
0.00000001
 40
26.0
 40
26.0
 40
26.0
 40
26.0
 40
27.0
 40
27.0
 40
27.0
 40
27.0
 10
275.0822167821244
 20
50.23862114300191
 30
0.0
 10
275.0460742842386
 20
50.33226917316051
 30
0.0
 10
275.0419091620066
 20
50.47912325839622
 30
0.0
 10
275.0421778774671
 20
50.64223474928492
 30
0.0
  0
SPLINE
  5
109
330
78
100
AcDbEntity
  8
0
  6
SLD-Durchgehend
 62
     8
420
  8421504
370
     0
100
AcDbSpline
210
0.0
220
0.0
230
1.0
 70
     8
 71
     3
 72
     8
 73
     4
 74
     0
 42
0.00000001
 43
0.00000001
 40
12.0
 40
12.0
 40
12.0
 40
12.0
 40
13.0
 40
13.0
 40
13.0
 40
13.0
 10
255.6924413352359
 20
53.71165979003909
 30
0.0
 10
255.4291654156395
 20
53.99381311035158
 30
0.0
 10
255.0250815533349
 20
54.15316255696617
 30
0.0
 10
254.4773682151187
 20
54.1524235839844
 30
0.0
  0
SPLINE
  5
10A
330
78
100
AcDbEntity
  8
0
  6
SLD-Durchgehend
 62
     8
420
  8421504
370
     0
100
AcDbSpline
210
0.0
220
0.0
230
1.0
 70
     8
 71
     3
 72
     8
 73
     4
 74
     0
 42
0.00000001
 43
0.00000001
 40
3.0
 40
3.0
 40
3.0
 40
3.0
 40
4.0
 40
4.0
 40
4.0
 40
4.0
 10
247.7320900168766
 20
51.79866027832033
 30
0.0
 10
247.7316869407047
 20
51.04101143391929
 30
0.0
 10
247.9568721620588
 20
50.45144535319012
 30
0.0
 10
248.3258883974104
 20
50.05172814941409
 30
0.0
  0
SPLINE
  5
10B
330
78
100
AcDbEntity
  8
0
  6
SLD-Durchgehend
 62
     8
420
  8421504
370
     0
100
AcDbSpline
210
0.0
220
0.0
230
1.0
 70
     8
 71
     3
 72
     8
 73
     4
 74
     0
 42
0.00000001
 43
0.00000001
 40
0.0
 40
0.0
 40
0.0
 40
0.0
 40
1.0
 40
1.0
 40
1.0
 40
1.0
 10
244.9913735862125
 20
50.07188195800785
 30
0.0
 10
244.215855031525
 20
50.07403169759117
 30
0.0
 10
243.6230643414208
 20
50.68979772949222
 30
0.0
 10
243.6193022971499
 20
51.79919771321618
 30
0.0
  0
SPLINE
  5
10C
330
78
100
AcDbEntity
  8
0
  6
SLD-Durchgehend
 62
     8
420
  8421504
370
     0
100
AcDbSpline
210
0.0
220
0.0
230
1.0
 70
     8
 71
     3
 72
     8
 73
     4
 74
     0
 42
0.00000001
 43
0.00000001
 40
1.0
 40
1.0
 40
1.0
 40
1.0
 40
2.0
 40
2.0
 40
2.0
 40
2.0
 10
243.61930229715
 20
51.79919771321617
 30
0.0
 10
243.6228628033349
 20
52.89966284179692
 30
0.0
 10
244.2162581076968
 20
53.52456526692713
 30
0.0
 10
244.9913735862125
 20
53.52637910970056
 30
0.0
  0
SPLINE
  5
10D
330
78
100
AcDbEntity
  8
0
  6
SLD-Durchgehend
 62
     8
420
  8421504
370
     0
100
AcDbSpline
210
0.0
220
0.0
230
1.0
 70
     8
 71
     3
 72
     8
 73
     4
 74
     0
 42
0.00000001
 43
0.00000001
 40
0.0
 40
0.0
 40
0.0
 40
0.0
 40
1.0
 40
1.0
 40
1.0
 40
1.0
 10
240.2502572938948
 20
54.1524235839844
 30
0.0
 10
239.6897126975406
 20
54.15289383951826
 30
0.0
 10
239.1780746767073
 20
53.94645166015629
 30
0.0
 10
238.8093271588036
 20
53.54626420084637
 30
0.0
  0
SPLINE
  5
10E
330
78
100
AcDbEntity
  8
0
  6
SLD-Durchgehend
 62
     8
420
  8421504
370
     0
100
AcDbSpline
210
0.0
220
0.0
230
1.0
 70
     8
 71
     3
 72
     8
 73
     4
 74
     0
 42
0.00000001
 43
0.00000001
 40
12.0
 40
12.0
 40
12.0
 40
12.0
 40
13.0
 40
13.0
 40
13.0
 40
13.0
 10
269.7527529176072
 20
50.05172811989913
 30
0.0
 10
270.1217019776297
 20
49.65241399602138
 30
0.0
 10
270.6333400005543
 20
49.4453672075692
 30
0.0
 10
271.1938845969058
 20
49.44563593067868
 30
0.0
  0
SPLINE
  5
10F
330
78
100
AcDbEntity
  8
0
  6
SLD-Durchgehend
 62
     8
420
  8421504
370
     0
100
AcDbSpline
210
0.0
220
0.0
230
1.0
 70
     8
 71
     3
 72
     8
 73
     4
 74
     0
 42
0.00000001
 43
0.00000001
 40
2.0
 40
2.0
 40
2.0
 40
2.0
 40
3.0
 40
3.0
 40
3.0
 40
3.0
 10
269.7882492893593
 20
51.79919766776327
 30
0.0
 10
269.7921456922359
 20
52.89966279634443
 30
0.0
 10
270.3860112520646
 20
53.52456522153849
 30
0.0
 10
271.1605892956841
 20
53.52637906439517
 30
0.0
  0
SPLINE
  5
110
330
78
100
AcDbEntity
  8
0
  6
SLD-Durchgehend
 62
     8
420
  8421504
370
     0
100
AcDbSpline
210
0.0
220
0.0
230
1.0
 70
     8
 71
     3
 72
     8
 73
     4
 74
     0
 42
0.00000001
 43
0.00000001
 40
0.0
 40
0.0
 40
0.0
 40
0.0
 40
1.0
 40
1.0
 40
1.0
 40
1.0
 10
271.1605892960555
 20
50.07188191270246
 30
0.0
 10
270.3854738175397
 20
50.07403165220246
 30
0.0
 10
269.7921456924734
 20
50.68979768403972
 30
0.0
 10
269.7885180068072
 20
51.79919766776329
 30
0.0
  0
SPLINE
  5
111
330
78
100
AcDbEntity
  8
0
  6
SLD-Durchgehend
 62
     8
420
  8421504
370
     0
100
AcDbSpline
210
0.0
220
0.0
230
1.0
 70
     8
 71
     3
 72
     8
 73
     4
 74
     0
 42
0.00000001
 43
0.00000001
 40
8.0
 40
8.0
 40
8.0
 40
8.0
 40
9.0
 40
9.0
 40
9.0
 40
9.0
 10
241.6913217877099
 20
53.54626420084637
 30
0.0
 10
241.3222383729963
 20
53.94645166015629
 30
0.0
 10
240.8108690696109
 20
54.15289383951826
 30
0.0
 10
240.2502572938948
 20
54.1524235839844
 30
0.0
  0
SPLINE
  5
112
330
78
100
AcDbEntity
  8
0
  6
SLD-Durchgehend
 62
     8
420
  8421504
370
     0
100
AcDbSpline
210
0.0
220
0.0
230
1.0
 70
     8
 71
     3
 72
     8
 73
     4
 74
     0
 42
0.00000001
 43
0.00000001
 40
10.0
 40
10.0
 40
10.0
 40
10.0
 40
11.0
 40
11.0
 40
11.0
 40
11.0
 10
269.7527528823119
 20
53.54626417133141
 30
0.0
 10
269.3842069065273
 20
53.14695004000491
 30
0.0
 10
269.1588873324072
 20
52.55704806019009
 30
0.0
 10
269.1588873400616
 20
51.79919767770311
 30
0.0
  0
SPLINE
  5
113
330
78
100
AcDbEntity
  8
0
  6
SLD-Durchgehend
 62
     8
420
  8421504
370
     0
100
AcDbSpline
210
0.0
220
0.0
230
1.0
 70
     8
 71
     3
 72
     8
 73
     4
 74
     0
 42
0.00000001
 43
0.00000001
 40
2.0
 40
2.0
 40
2.0
 40
2.0
 40
3.0
 40
3.0
 40
3.0
 40
3.0
 10
243.5503762717593
 20
53.54626420084637
 30
0.0
 10
243.1810913189599
 20
53.14695007324222
 30
0.0
 10
242.9563763531395
 20
52.55704809570316
 30
0.0
 10
242.9563763531395
 20
51.79919771321618
 30
0.0
  0
SPLINE
  5
114
330
78
100
AcDbEntity
  8
0
  6
SLD-Durchgehend
 62
     8
420
  8421504
370
     0
100
AcDbSpline
210
0.0
220
0.0
230
1.0
 70
     8
 71
     3
 72
     8
 73
     4
 74
     0
 42
0.00000001
 43
0.00000001
 40
8.0
 40
8.0
 40
8.0
 40
8.0
 40
9.0
 40
9.0
 40
9.0
 40
9.0
 10
272.5521168951743
 20
53.62640917844642
 30
0.0
 10
272.1912293591284
 20
53.97231570963218
 30
0.0
 10
271.7145246047004
 20
54.1528938298174
 30
0.0
 10
271.1938845493668
 20
54.15242356902503
 30
0.0
  0
SPLINE
  5
115
330
78
100
AcDbEntity
  8
0
  6
SLD-Durchgehend
 62
     8
420
  8421504
370
     0
100
AcDbSpline
210
0.0
220
0.0
230
1.0
 70
     8
 71
     3
 72
     8
 73
     4
 74
     0
 42
0.00000001
 43
0.00000001
 40
5.0
 40
5.0
 40
5.0
 40
5.0
 40
6.0
 40
6.0
 40
6.0
 40
6.0
 10
240.2521383160301
 20
49.44563594563805
 30
0.0
 10
240.8120111187646
 20
49.44563594563805
 30
0.0
 10
241.3224399110823
 20
49.65241402180991
 30
0.0
 10
241.6913217877099
 20
50.05172814941409
 30
0.0
  0
SPLINE
  5
116
330
78
100
AcDbEntity
  8
0
  6
SLD-Durchgehend
 62
     8
420
  8421504
370
     0
100
AcDbSpline
210
0.0
220
0.0
230
1.0
 70
     8
 71
     3
 72
     8
 73
     4
 74
     0
 42
0.00000001
 43
0.00000001
 40
0.0
 40
0.0
 40
0.0
 40
0.0
 40
1.0
 40
1.0
 40
1.0
 40
1.0
 10
266.842804657176
 20
54.15289383951826
 30
0.0
 10
266.3709368186343
 20
54.15369999186201
 30
0.0
 10
265.8797213238427
 20
53.98306441243492
 30
0.0
 10
265.5798326519676
 20
53.52537141927086
 30
0.0
  0
SPLINE
  5
117
330
78
100
AcDbEntity
  8
0
  6
SLD-Durchgehend
 62
     8
420
  8421504
370
     0
100
AcDbSpline
210
0.0
220
0.0
230
1.0
 70
     8
 71
     3
 72
     8
 73
     4
 74
     0
 42
0.00000001
 43
0.00000001
 40
5.0
 40
5.0
 40
5.0
 40
5.0
 40
6.0
 40
6.0
 40
6.0
 40
6.0
 10
249.7665498150536
 20
49.44563594563805
 30
0.0
 10
249.7813292746891
 20
49.44563594563805
 30
0.0
 10
249.7922123313296
 20
49.44644209798179
 30
0.0
 10
249.8010128277489
 20
49.44644209798179
 30
0.0
  0
SPLINE
  5
118
330
78
100
AcDbEntity
  8
0
  6
SLD-Durchgehend
 62
     8
420
  8421504
370
     0
100
AcDbSpline
210
0.0
220
0.0
230
1.0
 70
     8
 71
     3
 72
     8
 73
     4
 74
     0
 42
0.00000001
 43
0.00000001
 40
3.0
 40
3.0
 40
3.0
 40
3.0
 40
4.0
 40
4.0
 40
4.0
 40
4.0
 10
238.8093271588036
 20
50.05172814941409
 30
0.0
 10
239.1780746767073
 20
49.65241402180991
 30
0.0
 10
239.6897126975406
 20
49.44536722819013
 30
0.0
 10
240.2502572938948
 20
49.44563594563805
 30
0.0
  0
SPLINE
  5
119
330
78
100
AcDbEntity
  8
0
  6
SLD-Durchgehend
 62
     8
420
  8421504
370
     0
100
AcDbSpline
210
0.0
220
0.0
230
1.0
 70
     8
 71
     3
 72
     8
 73
     4
 74
     0
 42
0.00000001
 43
0.00000001
 40
16.0
 40
16.0
 40
16.0
 40
16.0
 40
17.0
 40
17.0
 40
17.0
 40
17.0
 10
258.4449813336083
 20
50.00443387858074
 30
0.0
 10
258.0674333192854
 20
50.01249540201825
 30
0.0
 10
257.526908172801
 20
50.1397331136068
 30
0.0
 10
257.3465987652489
 20
50.7604704182943
 30
0.0
  0
SPLINE
  5
11A
330
78
100
AcDbEntity
  8
0
  6
SLD-Durchgehend
 62
     8
420
  8421504
370
     0
100
AcDbSpline
210
0.0
220
0.0
230
1.0
 70
     8
 71
     3
 72
     8
 73
     4
 74
     0
 42
0.00000001
 43
0.00000001
 40
2.0
 40
2.0
 40
2.0
 40
2.0
 40
3.0
 40
3.0
 40
3.0
 40
3.0
 10
244.9913735862125
 20
53.52637910970056
 30
0.0
 10
245.7659516298322
 20
53.52456526692713
 30
0.0
 10
246.363243337189
 20
52.96791707356772
 30
0.0
 10
246.363243337189
 20
51.79919771321618
 30
0.0
  0
SPLINE
  5
11B
330
78
100
AcDbEntity
  8
0
  6
SLD-Durchgehend
 62
     8
420
  8421504
370
     0
100
AcDbSpline
210
0.0
220
0.0
230
1.0
 70
     8
 71
     3
 72
     8
 73
     4
 74
     0
 42
0.00000001
 43
0.00000001
 40
6.0
 40
6.0
 40
6.0
 40
6.0
 40
7.0
 40
7.0
 40
7.0
 40
7.0
 10
253.2143962099104
 20
52.16317549641928
 30
0.0
 10
253.219098765249
 20
53.12182499186201
 30
0.0
 10
253.7753438824364
 20
53.52167655436201
 30
0.0
 10
254.4043442486473
 20
53.52637910970056
 30
0.0
  0
SPLINE
  5
11C
330
78
100
AcDbEntity
  8
0
  6
SLD-Durchgehend
 62
     8
420
  8421504
370
     0
100
AcDbSpline
210
0.0
220
0.0
230
1.0
 70
     8
 71
     3
 72
     8
 73
     4
 74
     0
 42
0.00000001
 43
0.00000001
 40
9.0
 40
9.0
 40
9.0
 40
9.0
 40
10.0
 40
10.0
 40
10.0
 40
10.0
 10
271.1938845493668
 20
54.15242356902503
 30
0.0
 10
270.6333399530077
 20
54.15289381889733
 30
0.0
 10
270.1217019342595
 20
53.94645163436776
 30
0.0
 10
269.7527528823119
 20
53.54626417133141
 30
0.0
  0
SPLINE
  5
11D
330
78
100
AcDbEntity
  8
0
  6
SLD-Durchgehend
 62
     8
420
  8421504
370
     0
100
AcDbSpline
210
0.0
220
0.0
230
1.0
 70
     8
 71
     3
 72
     8
 73
     4
 74
     0
 42
0.00000001
 43
0.00000001
 40
3.0
 40
3.0
 40
3.0
 40
3.0
 40
4.0
 40
4.0
 40
4.0
 40
4.0
 10
271.1605892956841
 20
53.52637906439517
 30
0.0
 10
271.9350329805802
 20
53.524565221705
 30
0.0
 10
272.5287641818192
 20
52.89966279663861
 30
0.0
 10
272.5327949436563
 20
51.7991976680583
 30
0.0
  0
SPLINE
  5
11E
330
78
100
AcDbEntity
  8
0
  6
SLD-Durchgehend
 62
     8
420
  8421504
370
     0
100
AcDbSpline
210
0.0
220
0.0
230
1.0
 70
     8
 71
     3
 72
     8
 73
     4
 74
     0
 42
0.00000001
 43
0.00000001
 40
4.0
 40
4.0
 40
4.0
 40
4.0
 40
5.0
 40
5.0
 40
5.0
 40
5.0
 10
272.5327949436563
 20
51.7991976680583
 30
0.0
 10
272.5287641820568
 20
50.6897976843339
 30
0.0
 10
271.9355704158469
 20
50.07403165236909
 30
0.0
 10
271.1605892960555
 20
50.07188191270246
 30
0.0
  0
SPLINE
  5
11F
330
78
100
AcDbEntity
  8
0
  6
SLD-Durchgehend
 62
     8
420
  8421504
370
     0
100
AcDbSpline
210
0.0
220
0.0
230
1.0
 70
     8
 71
     3
 72
     8
 73
     4
 74
     0
 42
0.00000001
 43
0.00000001
 40
11.0
 40
11.0
 40
11.0
 40
11.0
 40
12.0
 40
12.0
 40
12.0
 40
12.0
 10
262.5853797711083
 20
49.44563594563805
 30
0.0
 10
263.5398641461083
 20
49.44563594563805
 30
0.0
 10
264.1459563498844
 20
49.87115002441409
 30
0.0
 10
264.4688203635562
 20
50.70296488444013
 30
0.0
  0
SPLINE
  5
120
330
78
100
AcDbEntity
  8
0
  6
SLD-Durchgehend
 62
     8
420
  8421504
370
     0
100
AcDbSpline
210
0.0
220
0.0
230
1.0
 70
     8
 71
     3
 72
     8
 73
     4
 74
     0
 42
0.00000001
 43
0.00000001
 40
14.0
 40
14.0
 40
14.0
 40
14.0
 40
15.0
 40
15.0
 40
15.0
 40
15.0
 10
271.1949594666974
 20
49.44563593067868
 30
0.0
 10
271.7330661561506
 20
49.44563593611291
 30
0.0
 10
272.2242816489937
 20
49.63857506867777
 30
0.0
 10
272.5890655808147
 20
50.00752412835124
 30
0.0
  0
SPLINE
  5
121
330
78
100
AcDbEntity
  8
0
  6
SLD-Durchgehend
 62
     8
420
  8421504
370
     0
100
AcDbSpline
210
0.0
220
0.0
230
1.0
 70
     8
 71
     3
 72
     8
 73
     4
 74
     0
 42
0.00000001
 43
0.00000001
 40
22.0
 40
22.0
 40
22.0
 40
22.0
 40
23.0
 40
23.0
 40
23.0
 40
23.0
 10
258.4476685080875
 20
49.43623083496097
 30
0.0
 10
259.4949947613427
 20
49.47237333170574
 30
0.0
 10
260.0955782574364
 20
50.09028910319014
 30
0.0
 10
260.0939659527489
 20
50.82039440917971
 30
0.0
  0
SPLINE
  5
122
330
78
100
AcDbEntity
  8
0
  6
SLD-Durchgehend
 62
     8
420
  8421504
370
     0
100
AcDbSpline
210
0.0
220
0.0
230
1.0
 70
     8
 71
     3
 72
     8
 73
     4
 74
     0
 42
0.00000001
 43
0.00000001
 40
2.0
 40
2.0
 40
2.0
 40
2.0
 40
3.0
 40
3.0
 40
3.0
 40
3.0
 10
240.2502572938948
 20
53.52637910970054
 30
0.0
 10
241.0251712343245
 20
53.52456526692713
 30
0.0
 10
241.6187008974104
 20
52.89966284179692
 30
0.0
 10
241.6222614035953
 20
51.79919771321618
 30
0.0
  0
SPLINE
  5
123
330
78
100
AcDbEntity
  8
0
  6
SLD-Durchgehend
 62
     8
420
  8421504
370
     0
100
AcDbSpline
210
0.0
220
0.0
230
1.0
 70
     8
 71
     3
 72
     8
 73
     4
 74
     0
 42
0.00000001
 43
0.00000001
 40
6.0
 40
6.0
 40
6.0
 40
6.0
 40
7.0
 40
7.0
 40
7.0
 40
7.0
 10
265.5798326519676
 20
52.16371293131513
 30
0.0
 10
265.5845352073062
 20
53.12182499186201
 30
0.0
 10
266.1406459657697
 20
53.52167655436201
 30
0.0
 10
266.7699822287906
 20
53.52637910970056
 30
0.0
  0
SPLINE
  5
124
330
78
100
AcDbEntity
  8
0
  6
SLD-Durchgehend
 62
     8
420
  8421504
370
     0
100
AcDbSpline
210
0.0
220
0.0
230
1.0
 70
     8
 71
     3
 72
     8
 73
     4
 74
     0
 42
0.00000001
 43
0.00000001
 40
11.0
 40
11.0
 40
11.0
 40
11.0
 40
12.0
 40
12.0
 40
12.0
 40
12.0
 10
258.3170718283999
 20
54.13750976562503
 30
0.0
 10
257.3694397483218
 20
54.10976468912763
 30
0.0
 10
256.8420817567854
 20
53.52429654947919
 30
0.0
 10
256.8442314963687
 20
52.87897159830732
 30
0.0
  0
SPLINE
  5
125
330
78
100
AcDbEntity
  8
0
  6
SLD-Durchgehend
 62
     8
420
  8421504
370
     0
100
AcDbSpline
210
0.0
220
0.0
230
1.0
 70
     8
 71
     3
 72
     8
 73
     4
 74
     0
 42
0.00000001
 43
0.00000001
 40
4.0
 40
4.0
 40
4.0
 40
4.0
 40
5.0
 40
5.0
 40
5.0
 40
5.0
 10
243.5503762717593
 20
50.05172814941409
 30
0.0
 10
243.919190969025
 20
49.65241402180991
 30
0.0
 10
244.4305602724104
 20
49.44536722819013
 30
0.0
 10
244.9913735862125
 20
49.44563594563805
 30
0.0
  0
SPLINE
  5
126
330
78
100
AcDbEntity
  8
0
  6
SLD-Durchgehend
 62
     8
420
  8421504
370
     0
100
AcDbSpline
210
0.0
220
0.0
230
1.0
 70
     8
 71
     3
 72
     8
 73
     4
 74
     0
 42
0.00000001
 43
0.00000001
 40
11.0
 40
11.0
 40
11.0
 40
11.0
 40
12.0
 40
12.0
 40
12.0
 40
12.0
 10
269.1588873400616
 20
51.79919767770311
 30
0.0
 10
269.1588873477193
 20
51.04101139840623
 30
0.0
 10
269.3842069337522
 20
50.4514453199528
 30
0.0
 10
269.7527529176072
 20
50.05172811989913
 30
0.0
  0
SPLINE
  5
127
330
78
100
AcDbEntity
  8
0
  6
SLD-Durchgehend
 62
     8
420
  8421504
370
     0
100
AcDbSpline
210
0.0
220
0.0
230
1.0
 70
     8
 71
     3
 72
     8
 73
     4
 74
     0
 42
0.00000001
 43
0.00000001
 40
11.0
 40
11.0
 40
11.0
 40
11.0
 40
12.0
 40
12.0
 40
12.0
 40
12.0
 10
268.4404642437646
 20
52.5733055013021
 30
0.0
 10
268.4404642437646
 20
53.03361848958336
 30
0.0
 10
268.3216911317854
 20
53.43037980143232
 30
0.0
 10
268.0578105979312
 20
53.71165979003909
 30
0.0
  0
HATCH
  5
128
330
78
100
AcDbEntity
  8
0
  6
Continuous
 62
     7
100
AcDbHatch
 10
0.0
 20
0.0
 30
0.0
210
0.0
220
0.0
230
1.0
  2
SOLID
 70
     1
 71
     0
 91
        2
 92
        0
 93
       12
 72
     4
 94
        3
 73
     1
 74
     0
 95
        8
 96
        4
 40
4.0
 40
4.0
 40
4.0
 40
4.0
 40
5.0
 40
5.0
 40
5.0
 40
5.0
 10
243.5503762717593
 20
50.05172814941409
 42
1.0
 10
243.919190969025
 20
49.65241402180991
 42
1.0
 10
244.4305602724104
 20
49.44536722819013
 42
1.0
 10
244.9913735862125
 20
49.44563594563805
 42
1.0
 97
        0
 72
     1
 10
244.9913735862125
 20
49.44563594563805
 11
244.9984945985823
 21
49.44563594563805
 72
     4
 94
        3
 73
     1
 74
     0
 95
        8
 96
        4
 40
6.0
 40
6.0
 40
6.0
 40
6.0
 40
7.0
 40
7.0
 40
7.0
 40
7.0
 10
244.9984945985823
 20
49.44563594563805
 42
1.0
 10
245.9458579612125
 20
49.44563594563805
 42
1.0
 10
246.7583251649885
 20
50.01303283691409
 42
1.0
 10
246.9688652854312
 20
51.13371895345053
 42
1.0
 97
        0
 72
     4
 94
        3
 73
     1
 74
     0
 95
        8
 96
        4
 40
7.0
 40
7.0
 40
7.0
 40
7.0
 40
8.0
 40
8.0
 40
8.0
 40
8.0
 10
246.9688652854312
 20
51.13371895345053
 42
1.0
 10
247.0101805930484
 20
51.35352982584638
 42
1.0
 10
247.0248256939599
 20
51.60007808430993
 42
1.0
 10
247.0248256939599
 20
51.7258378499349
 42
1.0
 97
        0
 72
     1
 10
247.0248256939599
 20
51.7258378499349
 11
247.0260349224755
 21
51.7258378499349
 72
     1
 10
247.0260349224755
 20
51.7258378499349
 11
247.0260349224755
 21
55.23085388183598
 72
     1
 10
247.0260349224755
 20
55.23085388183598
 11
246.3676771750796
 21
55.23085388183598
 72
     1
 10
246.3676771750796
 20
55.23085388183598
 11
246.3676771750796
 21
53.54109138997399
 72
     4
 94
        3
 73
     1
 74
     0
 95
        8
 96
        4
 40
0.0
 40
0.0
 40
0.0
 40
0.0
 40
1.0
 40
1.0
 40
1.0
 40
1.0
 10
246.3676771750796
 20
53.54109138997399
 42
1.0
 10
246.0469629009911
 20
53.931269124349
 42
1.0
 10
245.5208141379703
 20
54.15289383951826
 42
1.0
 10
244.9913735862125
 20
54.15289383951826
 42
1.0
 97
        0
 72
     4
 94
        3
 73
     1
 74
     0
 95
        8
 96
        4
 40
1.0
 40
1.0
 40
1.0
 40
1.0
 40
2.0
 40
2.0
 40
2.0
 40
2.0
 10
244.9913735862125
 20
54.15289383951826
 42
1.0
 10
244.4305602724104
 20
54.15289383951826
 42
1.0
 10
243.919190969025
 20
53.94645166015629
 42
1.0
 10
243.5503762717593
 20
53.54626420084637
 42
1.0
 97
        0
 72
     4
 94
        3
 73
     1
 74
     0
 95
        8
 96
        4
 40
2.0
 40
2.0
 40
2.0
 40
2.0
 40
3.0
 40
3.0
 40
3.0
 40
3.0
 10
243.5503762717593
 20
53.54626420084637
 42
1.0
 10
243.1810913189599
 20
53.14695007324222
 42
1.0
 10
242.9563763531395
 20
52.55704809570316
 42
1.0
 10
242.9563763531395
 20
51.79919771321618
 42
1.0
 97
        0
 72
     4
 94
        3
 73
     1
 74
     0
 95
        8
 96
        4
 40
3.0
 40
3.0
 40
3.0
 40
3.0
 40
4.0
 40
4.0
 40
4.0
 40
4.0
 10
242.9563763531395
 20
51.79919771321618
 42
1.0
 10
242.9563763531395
 20
51.04101143391929
 42
1.0
 10
243.1810913189599
 20
50.45144535319012
 42
1.0
 10
243.5503762717593
 20
50.05172814941409
 42
1.0
 97
        0
 97
        0
 92
        0
 93
        4
 72
     4
 94
        3
 73
     1
 74
     0
 95
        8
 96
        4
 40
1.0
 40
1.0
 40
1.0
 40
1.0
 40
2.0
 40
2.0
 40
2.0
 40
2.0
 10
243.61930229715
 20
51.79919771321617
 42
1.0
 10
243.6228628033349
 20
52.89966284179692
 42
1.0
 10
244.2162581076968
 20
53.52456526692713
 42
1.0
 10
244.9913735862125
 20
53.52637910970056
 42
1.0
 97
        0
 72
     4
 94
        3
 73
     1
 74
     0
 95
        8
 96
        4
 40
2.0
 40
2.0
 40
2.0
 40
2.0
 40
3.0
 40
3.0
 40
3.0
 40
3.0
 10
244.9913735862125
 20
53.52637910970056
 42
1.0
 10
245.7659516298322
 20
53.52456526692713
 42
1.0
 10
246.363243337189
 20
52.96791707356772
 42
1.0
 10
246.363243337189
 20
51.79919771321618
 42
1.0
 97
        0
 72
     4
 94
        3
 73
     1
 74
     0
 95
        8
 96
        4
 40
3.0
 40
3.0
 40
3.0
 40
3.0
 40
4.0
 40
4.0
 40
4.0
 40
4.0
 10
246.363243337189
 20
51.79919771321618
 42
1.0
 10
246.3701628114729
 20
50.59198457845055
 42
1.0
 10
245.7664218853661
 20
50.07403169759117
 42
1.0
 10
244.9913735862125
 20
50.07188195800784
 42
1.0
 97
        0
 72
     4
 94
        3
 73
     1
 74
     0
 95
        8
 96
        4
 40
0.0
 40
0.0
 40
0.0
 40
0.0
 40
1.0
 40
1.0
 40
1.0
 40
1.0
 10
244.9913735862125
 20
50.07188195800785
 42
1.0
 10
244.215855031525
 20
50.07403169759117
 42
1.0
 10
243.6230643414208
 20
50.68979772949222
 42
1.0
 10
243.6193022971499
 20
51.79919771321618
 42
1.0
 97
        0
 97
        0
 75
     0
 76
     1
 98
        1
 10
0.0
 20
0.0
  0
HATCH
  5
129
330
78
100
AcDbEntity
  8
0
  6
Continuous
 62
     7
100
AcDbHatch
 10
0.0
 20
0.0
 30
0.0
210
0.0
220
0.0
230
1.0
  2
SOLID
 70
     1
 71
     0
 91
        1
 92
        0
 93
        8
 72
     4
 94
        3
 73
     1
 74
     0
 95
        8
 96
        4
 40
7.0
 40
7.0
 40
7.0
 40
7.0
 40
8.0
 40
8.0
 40
8.0
 40
8.0
 10
235.2267389195643
 20
49.44563594563805
 42
1.0
 10
234.3484359410487
 20
49.66813399251304
 42
1.0
 10
233.6945792109055
 20
50.4570884195964
 42
1.0
 10
233.6739551467778
 20
51.72167272949222
 42
1.0
 97
        0
 72
     1
 10
233.6739551467778
 20
51.72167272949222
 11
233.6727459182622
 21
51.72167272949222
 72
     1
 10
233.6727459182622
 20
51.72167272949222
 11
233.6727459182622
 21
55.26249536132816
 72
     1
 10
233.6727459182622
 20
55.26249536132816
 11
232.9466713739914
 21
55.26249536132816
 72
     1
 10
232.9466713739914
 20
55.26249536132816
 11
232.9466713739914
 21
51.77971569824223
 72
     1
 10
232.9466713739914
 20
51.77971569824223
 11
232.9472759882492
 21
51.77971569824223
 72
     4
 94
        3
 73
     1
 74
     0
 95
        8
 96
        4
 40
5.0
 40
5.0
 40
5.0
 40
5.0
 40
6.0
 40
6.0
 40
6.0
 40
6.0
 10
232.9472759882492
 20
51.77971569824223
 42
1.0
 10
232.9535908482752
 20
50.25501289876306
 42
1.0
 10
233.8585640334966
 20
49.43676826985681
 42
1.0
 10
234.9778393834315
 20
49.43676826985681
 42
1.0
 97
        0
 72
     4
 94
        3
 73
     1
 74
     0
 95
        8
 96
        4
 40
6.0
 40
6.0
 40
6.0
 40
6.0
 40
7.0
 40
7.0
 40
7.0
 40
7.0
 10
234.9778393834315
 20
49.43676826985681
 42
1.0
 10
235.0608058954758
 20
49.43676826985681
 42
1.0
 10
235.14377240752
 20
49.43985852050785
 42
1.0
 10
235.2267389195643
 20
49.44563594563805
 42
1.0
 97
        0
 97
        0
 75
     0
 76
     1
 98
        1
 10
0.0
 20
0.0
  0
HATCH
  5
12A
330
78
100
AcDbEntity
  8
0
  6
Continuous
 62
     7
100
AcDbHatch
 10
0.0
 20
0.0
 30
0.0
210
0.0
220
0.0
230
1.0
  2
SOLID
 70
     1
 71
     0
 91
        2
 92
        0
 93
        9
 72
     4
 94
        3
 73
     1
 74
     0
 95
        8
 96
        4
 40
3.0
 40
3.0
 40
3.0
 40
3.0
 40
4.0
 40
4.0
 40
4.0
 40
4.0
 10
238.8093271588036
 20
50.05172814941409
 42
1.0
 10
239.1780746767073
 20
49.65241402180991
 42
1.0
 10
239.6897126975406
 20
49.44536722819013
 42
1.0
 10
240.2502572938948
 20
49.44563594563805
 42
1.0
 97
        0
 72
     1
 10
240.2502572938948
 20
49.44563594563805
 11
240.2521383160301
 21
49.44563594563805
 72
     4
 94
        3
 73
     1
 74
     0
 95
        8
 96
        4
 40
5.0
 40
5.0
 40
5.0
 40
5.0
 40
6.0
 40
6.0
 40
6.0
 40
6.0
 10
240.2521383160301
 20
49.44563594563805
 42
1.0
 10
240.8120111187646
 20
49.44563594563805
 42
1.0
 10
241.3224399110823
 20
49.65241402180991
 42
1.0
 10
241.6913217877099
 20
50.05172814941409
 42
1.0
 97
        0
 72
     4
 94
        3
 73
     1
 74
     0
 95
        8
 96
        4
 40
6.0
 40
6.0
 40
6.0
 40
6.0
 40
7.0
 40
7.0
 40
7.0
 40
7.0
 10
241.6913217877099
 20
50.05172814941409
 42
1.0
 10
242.0604723817854
 20
50.45144535319012
 42
1.0
 10
242.2852545269677
 20
51.04101143391929
 42
1.0
 10
242.2852545269677
 20
51.79919771321618
 42
1.0
 97
        0
 72
     4
 94
        3
 73
     1
 74
     0
 95
        8
 96
        4
 40
7.0
 40
7.0
 40
7.0
 40
7.0
 40
8.0
 40
8.0
 40
8.0
 40
8.0
 10
242.2852545269677
 20
51.79919771321618
 42
1.0
 10
242.2852545269677
 20
52.55704809570316
 42
1.0
 10
242.0604723817854
 20
53.14695007324222
 42
1.0
 10
241.6913217877099
 20
53.54626420084637
 42
1.0
 97
        0
 72
     4
 94
        3
 73
     1
 74
     0
 95
        8
 96
        4
 40
8.0
 40
8.0
 40
8.0
 40
8.0
 40
9.0
 40
9.0
 40
9.0
 40
9.0
 10
241.6913217877099
 20
53.54626420084637
 42
1.0
 10
241.3222383729963
 20
53.94645166015629
 42
1.0
 10
240.8108690696109
 20
54.15289383951826
 42
1.0
 10
240.2502572938948
 20
54.1524235839844
 42
1.0
 97
        0
 72
     4
 94
        3
 73
     1
 74
     0
 95
        8
 96
        4
 40
0.0
 40
0.0
 40
0.0
 40
0.0
 40
1.0
 40
1.0
 40
1.0
 40
1.0
 10
240.2502572938948
 20
54.1524235839844
 42
1.0
 10
239.6897126975406
 20
54.15289383951826
 42
1.0
 10
239.1780746767073
 20
53.94645166015629
 42
1.0
 10
238.8093271588036
 20
53.54626420084637
 42
1.0
 97
        0
 72
     4
 94
        3
 73
     1
 74
     0
 95
        8
 96
        4
 40
1.0
 40
1.0
 40
1.0
 40
1.0
 40
2.0
 40
2.0
 40
2.0
 40
2.0
 10
238.8093271588036
 20
53.54626420084637
 42
1.0
 10
238.440310923452
 20
53.14695007324222
 42
1.0
 10
238.2155287782698
 20
52.55704809570316
 42
1.0
 10
238.2156631369937
 20
51.79919771321618
 42
1.0
 97
        0
 72
     4
 94
        3
 73
     1
 74
     0
 95
        8
 96
        4
 40
2.0
 40
2.0
 40
2.0
 40
2.0
 40
3.0
 40
3.0
 40
3.0
 40
3.0
 10
238.2156631369937
 20
51.79919771321618
 42
1.0
 10
238.2155287782698
 20
51.04101143391929
 42
1.0
 10
238.440310923452
 20
50.45144535319012
 42
1.0
 10
238.8093271588036
 20
50.05172814941409
 42
1.0
 97
        0
 97
        0
 92
        0
 93
        4
 72
     4
 94
        3
 73
     1
 74
     0
 95
        8
 96
        4
 40
1.0
 40
1.0
 40
1.0
 40
1.0
 40
2.0
 40
2.0
 40
2.0
 40
2.0
 10
238.8781860048323
 20
51.79919771321618
 42
1.0
 10
238.8819480491031
 20
52.89966284179692
 42
1.0
 10
239.475746429637
 20
53.52456526692712
 42
1.0
 10
240.2502572938948
 20
53.52637910970054
 42
1.0
 97
        0
 72
     4
 94
        3
 73
     1
 74
     0
 95
        8
 96
        4
 40
2.0
 40
2.0
 40
2.0
 40
2.0
 40
3.0
 40
3.0
 40
3.0
 40
3.0
 10
240.2502572938948
 20
53.52637910970054
 42
1.0
 10
241.0251712343245
 20
53.52456526692713
 42
1.0
 10
241.6187008974104
 20
52.89966284179692
 42
1.0
 10
241.6222614035953
 20
51.79919771321618
 42
1.0
 97
        0
 72
     4
 94
        3
 73
     1
 74
     0
 95
        8
 96
        4
 40
3.0
 40
3.0
 40
3.0
 40
3.0
 40
4.0
 40
4.0
 40
4.0
 40
4.0
 10
241.6222614035953
 20
51.79919771321618
 42
1.0
 10
241.6187008974104
 20
50.68979772949221
 42
1.0
 10
241.0255743104963
 20
50.07403169759117
 42
1.0
 10
240.2502572938948
 20
50.07161324055993
 42
1.0
 97
        0
 72
     4
 94
        3
 73
     1
 74
     0
 95
        8
 96
        4
 40
0.0
 40
0.0
 40
0.0
 40
0.0
 40
1.0
 40
1.0
 40
1.0
 40
1.0
 10
240.2502572938948
 20
50.07161324055993
 42
1.0
 10
239.4752761741031
 20
50.07403169759117
 42
1.0
 10
238.882216766551
 20
50.68979772949221
 42
1.0
 10
238.8781860048323
 20
51.79919771321618
 42
1.0
 97
        0
 97
        0
 75
     0
 76
     1
 98
        1
 10
0.0
 20
0.0
  0
HATCH
  5
12B
330
78
100
AcDbEntity
  8
0
  6
Continuous
 62
     7
100
AcDbHatch
 10
0.0
 20
0.0
 30
0.0
210
0.0
220
0.0
230
1.0
  2
SOLID
 70
     1
 71
     0
 91
        1
 92
        0
 93
        5
 72
     4
 94
        3
 73
     1
 74
     0
 95
        8
 96
        4
 40
0.0
 40
0.0
 40
0.0
 40
0.0
 40
1.0
 40
1.0
 40
1.0
 40
1.0
 10
236.0195897496424
 20
53.57185953776045
 42
1.0
 10
235.9188207066737
 20
53.57159082031254
 42
1.0
 10
235.8212090937179
 20
53.56117801920577
 42
1.0
 10
235.7273595250331
 20
53.54102421061203
 42
1.0
 97
        0
 72
     4
 94
        3
 73
     1
 74
     0
 95
       11
 96
        7
 40
1.0
 40
1.0
 40
1.0
 40
1.0
 40
2.0
 40
2.0
 40
2.0
 40
3.0
 40
3.0
 40
3.0
 40
3.0
 10
235.7273595250331
 20
53.54102421061203
 42
1.0
 10
236.3061097284836
 20
53.32248974609381
 42
1.0
 10
236.7050879592778
 20
52.70645499674485
 42
1.0
 10
236.7050879592778
 20
51.7957043863933
 42
1.0
 10
236.7050879592778
 20
50.87816866048182
 42
1.0
 10
236.3067815221034
 20
50.26656774902347
 42
1.0
 10
235.7287031122727
 20
50.04930969238286
 42
1.0
 97
        0
 72
     4
 94
        3
 73
     1
 74
     0
 95
        8
 96
        4
 40
3.0
 40
3.0
 40
3.0
 40
3.0
 40
4.0
 40
4.0
 40
4.0
 40
4.0
 10
235.7287031122727
 20
50.04930969238285
 42
1.0
 10
235.8220824254237
 20
50.029424601237
 42
1.0
 10
235.9193581415695
 20
50.01948205566409
 42
1.0
 10
236.0195897496424
 20
50.01907897949221
 42
1.0
 97
        0
 72
     4
 94
        3
 73
     1
 74
     0
 95
        8
 96
        4
 40
4.0
 40
4.0
 40
4.0
 40
4.0
 40
5.0
 40
5.0
 40
5.0
 40
5.0
 10
236.0195897496424
 20
50.01907897949221
 42
1.0
 10
236.8172103144211
 20
50.02109436035159
 42
1.0
 10
237.4267286656581
 20
50.65526753743492
 42
1.0
 10
237.4308937861008
 20
51.79570438639327
 42
1.0
 97
        0
 72
     4
 94
        3
 73
     1
 74
     0
 95
        8
 96
        4
 40
5.0
 40
5.0
 40
5.0
 40
5.0
 40
6.0
 40
6.0
 40
6.0
 40
6.0
 10
237.4308937861008
 20
51.79570438639327
 42
1.0
 10
237.4271317418299
 20
52.92707202148441
 42
1.0
 10
236.8167400588872
 20
53.57031441243492
 42
1.0
 10
236.0195897496424
 20
53.57185953776045
 42
1.0
 97
        0
 97
        0
 75
     0
 76
     1
 98
        1
 10
0.0
 20
0.0
  0
HATCH
  5
12C
330
78
100
AcDbEntity
  8
0
  6
Continuous
 62
     7
100
AcDbHatch
 10
0.0
 20
0.0
 30
0.0
210
0.0
220
0.0
230
1.0
  2
SOLID
 70
     1
 71
     0
 91
        2
 92
        0
 93
       18
 72
     4
 94
        3
 73
     1
 74
     0
 95
        8
 96
        4
 40
5.0
 40
5.0
 40
5.0
 40
5.0
 40
6.0
 40
6.0
 40
6.0
 40
6.0
 10
249.7665498150536
 20
49.44563594563805
 42
1.0
 10
249.7813292746891
 20
49.44563594563805
 42
1.0
 10
249.7922123313296
 20
49.44644209798179
 42
1.0
 10
249.8010128277489
 20
49.44644209798179
 42
1.0
 97
        0
 72
     4
 94
        3
 73
     1
 74
     0
 95
        8
 96
        4
 40
6.0
 40
6.0
 40
6.0
 40
6.0
 40
7.0
 40
7.0
 40
7.0
 40
7.0
 10
249.8010128277489
 20
49.44644209798179
 42
1.0
 10
249.8100148622541
 20
49.44644209798179
 42
1.0
 10
249.8223086854963
 20
49.44563594563805
 42
1.0
 10
249.8366850689599
 20
49.44563594563805
 42
1.0
 97
        0
 72
     1
 10
249.8366850689599
 20
49.44563594563805
 11
249.8415219830224
 21
49.44563594563805
 72
     4
 94
        3
 73
     1
 74
     0
 95
        8
 96
        4
 40
8.0
 40
8.0
 40
8.0
 40
8.0
 40
9.0
 40
9.0
 40
9.0
 40
9.0
 10
249.8415219830224
 20
49.44563594563805
 42
1.0
 10
250.7082029319156
 20
49.44563594563805
 42
1.0
 10
251.4525502626448
 20
49.94867500813804
 42
1.0
 10
251.7394061382958
 20
50.87978096516928
 42
1.0
 97
        0
 72
     1
 10
251.7394061382958
 20
50.87978096516928
 11
251.7625830181786
 21
50.95435005696617
 72
     1
 10
251.7625830181786
 20
50.95435005696617
 11
251.0299248964338
 21
50.95435005696617
 72
     1
 10
251.0299248964338
 20
50.95435005696617
 11
251.016354665314
 21
50.9159234619141
 72
     4
 94
        3
 73
     1
 74
     0
 95
        8
 96
        4
 40
12.0
 40
12.0
 40
12.0
 40
12.0
 40
13.0
 40
13.0
 40
13.0
 40
13.0
 10
251.016354665314
 20
50.9159234619141
 42
1.0
 10
250.8335596213687
 20
50.40294185384116
 42
1.0
 10
250.4579598085432
 20
50.0826306559245
 42
1.0
 10
249.8141799826968
 20
50.07188195800784
 42
1.0
 97
        0
 72
     1
 10
249.8141799826968
 20
50.07188195800784
 11
249.8012143658349
 21
50.07215067545575
 72
     4
 94
        3
 73
     1
 74
     0
 95
        8
 96
        4
 40
14.0
 40
14.0
 40
14.0
 40
14.0
 40
15.0
 40
15.0
 40
15.0
 40
15.0
 10
249.8012143658349
 20
50.07215067545575
 42
1.0
 10
248.8709145611474
 20
50.08155578613283
 42
1.0
 10
248.4738845318505
 20
50.74166019694015
 42
1.0
 10
248.4677712099104
 20
51.69896610514325
 42
1.0
 97
        0
 72
     1
 10
248.4677712099104
 20
51.69896610514325
 11
248.4676368511865
 21
51.75915881347657
 72
     1
 10
248.4676368511865
 20
51.75915881347657
 11
251.8036296083479
 21
51.75915881347657
 72
     1
 10
251.8036296083479
 20
51.75915881347657
 11
251.8015470481265
 21
51.81962023925784
 72
     4
 94
        3
 73
     1
 74
     0
 95
        8
 96
        4
 40
0.0
 40
0.0
 40
0.0
 40
0.0
 40
1.0
 40
1.0
 40
1.0
 40
1.0
 10
251.8015470481265
 20
51.81962023925784
 42
1.0
 10
251.7605004579573
 20
53.12733369954429
 42
1.0
 10
251.0964324647933
 20
54.1553122965495
 42
1.0
 10
249.7665498150536
 20
54.15289383951826
 42
1.0
 97
        0
 72
     4
 94
        3
 73
     1
 74
     0
 95
        8
 96
        4
 40
1.0
 40
1.0
 40
1.0
 40
1.0
 40
2.0
 40
2.0
 40
2.0
 40
2.0
 10
249.7665498150536
 20
54.15289383951826
 42
1.0
 10
249.2061395774234
 20
54.15289383951826
 42
1.0
 10
248.694904632762
 20
53.94645166015629
 42
1.0
 10
248.3258883974104
 20
53.54626420084637
 42
1.0
 97
        0
 72
     4
 94
        3
 73
     1
 74
     0
 95
        8
 96
        4
 40
2.0
 40
2.0
 40
2.0
 40
2.0
 40
3.0
 40
3.0
 40
3.0
 40
3.0
 10
248.3258883974104
 20
53.54626420084637
 42
1.0
 10
247.9568721620588
 20
53.14695007324222
 42
1.0
 10
247.7316869407047
 20
52.55704809570316
 42
1.0
 10
247.7320900168766
 20
51.79866027832033
 42
1.0
 97
        0
 72
     4
 94
        3
 73
     1
 74
     0
 95
        8
 96
        4
 40
3.0
 40
3.0
 40
3.0
 40
3.0
 40
4.0
 40
4.0
 40
4.0
 40
4.0
 10
247.7320900168766
 20
51.79866027832033
 42
1.0
 10
247.7316869407047
 20
51.04101143391929
 42
1.0
 10
247.9568721620588
 20
50.45144535319012
 42
1.0
 10
248.3258883974104
 20
50.05172814941409
 42
1.0
 97
        0
 72
     4
 94
        3
 73
     1
 74
     0
 95
        8
 96
        4
 40
4.0
 40
4.0
 40
4.0
 40
4.0
 40
5.0
 40
5.0
 40
5.0
 40
5.0
 10
248.3258883974104
 20
50.05172814941409
 42
1.0
 10
248.6946359153141
 20
49.65241402180991
 42
1.0
 10
249.2061395774234
 20
49.44536722819013
 42
1.0
 10
249.7665498150536
 20
49.44563594563805
 42
1.0
 97
        0
 97
        0
 92
        0
 93
        3
 72
     1
 10
251.0529674175927
 20
52.33072082519535
 11
248.4766388856916
 21
52.33072082519535
 72
     4
 94
        3
 73
     1
 74
     0
 95
        8
 96
        4
 40
0.0
 40
0.0
 40
0.0
 40
0.0
 40
1.0
 40
1.0
 40
1.0
 40
1.0
 10
248.4766388856916
 20
52.33072082519535
 42
1.0
 10
248.5873504742333
 20
53.00748571777345
 42
1.0
 10
249.0482008974104
 20
53.52537141927086
 42
1.0
 10
249.7665498150536
 20
53.52637910970056
 42
1.0
 97
        0
 72
     4
 94
        3
 73
     1
 74
     0
 95
        8
 96
        4
 40
1.0
 40
1.0
 40
1.0
 40
1.0
 40
2.0
 40
2.0
 40
2.0
 40
2.0
 10
249.7665498150536
 20
53.52637910970056
 42
1.0
 10
250.6097851666161
 20
53.52456526692713
 42
1.0
 10
250.922908172801
 20
52.93708174641929
 42
1.0
 10
251.0529674175927
 20
52.33072082519535
 42
1.0
 97
        0
 97
        0
 75
     0
 76
     1
 98
        1
 10
0.0
 20
0.0
  0
HATCH
  5
12D
330
78
100
AcDbEntity
  8
0
  6
Continuous
 62
     7
100
AcDbHatch
 10
0.0
 20
0.0
 30
0.0
210
0.0
220
0.0
230
1.0
  2
SOLID
 70
     1
 71
     0
 91
        1
 92
        0
 93
       13
 72
     4
 94
        3
 73
     1
 74
     0
 95
        8
 96
        4
 40
6.0
 40
6.0
 40
6.0
 40
6.0
 40
7.0
 40
7.0
 40
7.0
 40
7.0
 10
253.2143962099104
 20
52.16317549641928
 42
1.0
 10
253.219098765249
 20
53.12182499186201
 42
1.0
 10
253.7753438824364
 20
53.52167655436201
 42
1.0
 10
254.4043442486473
 20
53.52637910970056
 42
1.0
 97
        0
 72
     4
 94
        3
 73
     1
 74
     0
 95
        8
 96
        4
 40
7.0
 40
7.0
 40
7.0
 40
7.0
 40
8.0
 40
8.0
 40
8.0
 40
8.0
 10
254.4043442486473
 20
53.52637910970056
 42
1.0
 10
255.0787578635562
 20
53.51542887369794
 42
1.0
 10
255.4008829042463
 20
53.27620316569013
 42
1.0
 10
255.4121690370588
 20
52.409186319987
 42
1.0
 97
        0
 72
     1
 10
255.4121690370588
 20
52.409186319987
 11
255.4121690370588
 21
49.55486958821616
 72
     1
 10
255.4121690370588
 20
49.55486958821616
 11
256.0747590842593
 21
49.55486958821616
 72
     1
 10
256.0747590842593
 20
49.55486958821616
 11
256.0747590842593
 21
52.5733055013021
 72
     4
 94
        3
 73
     1
 74
     0
 95
        8
 96
        4
 40
11.0
 40
11.0
 40
11.0
 40
11.0
 40
12.0
 40
12.0
 40
12.0
 40
12.0
 10
256.0747590842593
 20
52.5733055013021
 42
1.0
 10
256.0747590842593
 20
53.03361848958336
 42
1.0
 10
255.9559859722802
 20
53.43037980143232
 42
1.0
 10
255.6924413352359
 20
53.71165979003909
 42
1.0
 97
        0
 72
     4
 94
        3
 73
     1
 74
     0
 95
        8
 96
        4
 40
12.0
 40
12.0
 40
12.0
 40
12.0
 40
13.0
 40
13.0
 40
13.0
 40
13.0
 10
255.6924413352359
 20
53.71165979003909
 42
1.0
 10
255.4291654156395
 20
53.99381311035158
 42
1.0
 10
255.0250815533349
 20
54.15316255696617
 42
1.0
 10
254.4773682151187
 20
54.1524235839844
 42
1.0
 97
        0
 72
     4
 94
        3
 73
     1
 74
     0
 95
        8
 96
        4
 40
0.0
 40
0.0
 40
0.0
 40
0.0
 40
1.0
 40
1.0
 40
1.0
 40
1.0
 10
254.4773682151187
 20
54.1524235839844
 42
1.0
 10
254.0052316591292
 20
54.15369999186201
 42
1.0
 10
253.5150910341292
 20
53.98333312988284
 42
1.0
 10
253.2143962099104
 20
53.53269396972657
 42
1.0
 97
        0
 72
     1
 10
253.2143962099104
 20
53.53269396972657
 11
253.2143962099104
 21
54.04325712076826
 72
     1
 10
253.2143962099104
 20
54.04325712076826
 11
252.5518733420718
 21
54.04325712076826
 72
     1
 10
252.5518733420718
 20
54.04325712076826
 11
252.5518733420718
 21
49.55486958821616
 72
     1
 10
252.5518733420718
 20
49.55486958821616
 11
253.2143962099104
 21
49.55486958821616
 72
     1
 10
253.2143962099104
 20
49.55486958821616
 11
253.2143962099104
 21
52.16317549641928
 97
        0
 75
     0
 76
     1
 98
        1
 10
0.0
 20
0.0
  0
HATCH
  5
12E
330
78
100
AcDbEntity
  8
0
  6
Continuous
 62
     7
100
AcDbHatch
 10
0.0
 20
0.0
 30
0.0
210
0.0
220
0.0
230
1.0
  2
SOLID
 70
     1
 71
     0
 91
        1
 92
        0
 93
       24
 72
     4
 94
        3
 73
     1
 74
     0
 95
        8
 96
        4
 40
11.0
 40
11.0
 40
11.0
 40
11.0
 40
12.0
 40
12.0
 40
12.0
 40
12.0
 10
258.3170718283999
 20
54.13750976562503
 42
1.0
 10
257.3694397483218
 20
54.10976468912763
 42
1.0
 10
256.8420817567854
 20
53.52429654947919
 42
1.0
 10
256.8442314963687
 20
52.87897159830732
 42
1.0
 97
        0
 72
     4
 94
        3
 73
     1
 74
     0
 95
        8
 96
        4
 40
12.0
 40
12.0
 40
12.0
 40
12.0
 40
13.0
 40
13.0
 40
13.0
 40
13.0
 10
256.8442314963687
 20
52.87897159830732
 42
1.0
 10
256.8418130393375
 20
51.96848970540368
 42
1.0
 10
257.5411501975406
 20
51.76144291178387
 42
1.0
 10
258.1843254091291
 20
51.63823596191408
 42
1.0
 97
        0
 72
     4
 94
        3
 73
     1
 74
     0
 95
        8
 96
        4
 40
13.0
 40
13.0
 40
13.0
 40
13.0
 40
14.0
 40
14.0
 40
14.0
 40
14.0
 10
258.1843254091291
 20
51.63823596191408
 42
1.0
 10
258.5088017274885
 20
51.5730719807943
 42
1.0
 10
258.8295160015771
 20
51.52094079589845
 42
1.0
 10
259.0598068544416
 20
51.40996048990888
 42
1.0
 97
        0
 72
     4
 94
        3
 73
     1
 74
     0
 95
        8
 96
        4
 40
14.0
 40
14.0
 40
14.0
 40
14.0
 40
15.0
 40
15.0
 40
15.0
 40
15.0
 10
259.0598068544416
 20
51.40996048990888
 42
1.0
 10
259.2900977073062
 20
51.29615865071617
 42
1.0
 10
259.4282184755354
 20
51.14339278157556
 42
1.0
 10
259.4309056500146
 20
50.83866719563805
 42
1.0
 97
        0
 72
     4
 94
        3
 73
     1
 74
     0
 95
        8
 96
        4
 40
15.0
 40
15.0
 40
15.0
 40
15.0
 40
16.0
 40
16.0
 40
16.0
 40
16.0
 10
259.4309056500146
 20
50.83866719563805
 42
1.0
 10
259.4306369325666
 20
50.17480074055992
 42
1.0
 10
258.8938738303531
 20
50.022975382487
 42
1.0
 10
258.4449813336083
 20
50.00443387858074
 42
1.0
 97
        0
 72
     4
 94
        3
 73
     1
 74
     0
 95
        8
 96
        4
 40
16.0
 40
16.0
 40
16.0
 40
16.0
 40
17.0
 40
17.0
 40
17.0
 40
17.0
 10
258.4449813336083
 20
50.00443387858074
 42
1.0
 10
258.0674333192854
 20
50.01249540201825
 42
1.0
 10
257.526908172801
 20
50.1397331136068
 42
1.0
 10
257.3465987652489
 20
50.7604704182943
 42
1.0
 97
        0
 72
     1
 10
257.3465987652489
 20
50.7604704182943
 11
257.3349095562646
 21
50.80265905761723
 72
     1
 10
257.3349095562646
 20
50.80265905761723
 11
256.6612349143375
 21
50.80265905761723
 72
     1
 10
256.6612349143375
 20
50.80265905761723
 11
256.6847476910302
 21
50.7275525309245
 72
     4
 94
        3
 73
     1
 74
     0
 95
        8
 96
        4
 40
20.0
 40
20.0
 40
20.0
 40
20.0
 40
21.0
 40
21.0
 40
21.0
 40
21.0
 10
256.6847476910302
 20
50.7275525309245
 42
1.0
 10
256.9378795269677
 20
49.9117263590495
 42
1.0
 10
257.6850483909
 20
49.45960925292972
 42
1.0
 10
258.397687062775
 20
49.43569340006511
 42
1.0
 97
        0
 72
     1
 10
258.397687062775
 20
49.43569340006511
 11
258.4476685080875
 21
49.43623083496097
 72
     4
 94
        3
 73
     1
 74
     0
 95
        8
 96
        4
 40
22.0
 40
22.0
 40
22.0
 40
22.0
 40
23.0
 40
23.0
 40
23.0
 40
23.0
 10
258.4476685080875
 20
49.43623083496097
 42
1.0
 10
259.4949947613427
 20
49.47237333170574
 42
1.0
 10
260.0955782574364
 20
50.09028910319014
 42
1.0
 10
260.0939659527489
 20
50.82039440917971
 42
1.0
 97
        0
 72
     4
 94
        3
 73
     1
 74
     0
 95
        8
 96
        4
 40
23.0
 40
23.0
 40
23.0
 40
23.0
 40
24.0
 40
24.0
 40
24.0
 40
24.0
 10
260.0939659527489
 20
50.82039440917971
 42
1.0
 10
260.0961156923323
 20
51.7381988525391
 42
1.0
 10
259.4008092958479
 20
51.98891223144533
 42
1.0
 10
258.7550812685041
 20
52.13281042480472
 42
1.0
 97
        0
 72
     4
 94
        3
 73
     1
 74
     0
 95
        8
 96
        4
 40
0.0
 40
0.0
 40
0.0
 40
0.0
 40
1.0
 40
1.0
 40
1.0
 40
1.0
 10
258.7550812685041
 20
52.13281042480472
 42
1.0
 10
258.4303362326968
 20
52.20764823404951
 42
1.0
 10
258.1084127300927
 20
52.26286966959638
 42
1.0
 10
257.8763752138166
 20
52.36605716959637
 42
1.0
 97
        0
 72
     4
 94
        3
 73
     1
 74
     0
 95
        8
 96
        4
 40
1.0
 40
1.0
 40
1.0
 40
1.0
 40
2.0
 40
2.0
 40
2.0
 40
2.0
 10
257.8763752138166
 20
52.36605716959637
 42
1.0
 10
257.6433971864729
 20
52.47173030598961
 42
1.0
 10
257.5089041037905
 20
52.6036705729167
 42
1.0
 10
257.5067543642073
 20
52.86090034993494
 42
1.0
 97
        0
 72
     4
 94
        3
 73
     1
 74
     0
 95
        8
 96
        4
 40
2.0
 40
2.0
 40
2.0
 40
2.0
 40
3.0
 40
3.0
 40
3.0
 40
3.0
 10
257.5067543642073
 20
52.86090034993494
 42
1.0
 10
257.5157563987125
 20
53.25866935221357
 42
1.0
 10
257.6615356142073
 20
53.52980525716148
 42
1.0
 10
258.3858634950666
 20
53.56460416666669
 42
1.0
 97
        0
 72
     4
 94
        3
 73
     1
 74
     0
 95
        8
 96
        4
 40
3.0
 40
3.0
 40
3.0
 40
3.0
 40
4.0
 40
4.0
 40
4.0
 40
4.0
 10
258.3858634950666
 20
53.56460416666669
 42
1.0
 10
258.8105714214989
 20
53.56124519856773
 42
1.0
 10
259.0927247418114
 20
53.38248091634117
 42
1.0
 10
259.2722279970197
 20
53.08124865722658
 42
1.0
 97
        0
 72
     1
 10
259.2722279970197
 20
53.08124865722658
 11
259.2890228375146
 21
53.05276460774744
 72
     1
 10
259.2890228375146
 20
53.05276460774744
 11
259.9476493023583
 21
53.05276460774744
 72
     1
 10
259.9476493023583
 20
53.05276460774744
 11
259.9116411643375
 21
53.13411881510418
 72
     4
 94
        3
 73
     1
 74
     0
 95
        8
 96
        4
 40
7.0
 40
7.0
 40
7.0
 40
7.0
 40
8.0
 40
8.0
 40
8.0
 40
8.0
 10
259.9116411643375
 20
53.13411881510418
 42
1.0
 10
259.6226355491031
 20
53.78965502929691
 42
1.0
 10
259.0584632672021
 20
54.14140616861981
 42
1.0
 10
258.4156911317854
 20
54.14039847819013
 42
1.0
 97
        0
 72
     4
 94
        3
 73
     1
 74
     0
 95
        8
 96
        4
 40
8.0
 40
8.0
 40
8.0
 40
8.0
 40
9.0
 40
9.0
 40
9.0
 40
9.0
 10
258.4156911317854
 20
54.14039847819013
 42
1.0
 10
258.3994337261864
 20
54.14039847819013
 42
1.0
 10
258.3858634950666
 20
54.13932360839846
 42
1.0
 10
258.3740399273583
 20
54.13932360839846
 42
1.0
 97
        0
 72
     1
 10
258.3740399273583
 20
54.13932360839846
 11
258.3170718283999
 21
54.13878617350262
 72
     1
 10
258.3170718283999
 20
54.13878617350262
 11
258.3170718283999
 21
54.13750976562503
 97
        0
 75
     0
 76
     1
 98
        1
 10
0.0
 20
0.0
  0
HATCH
  5
12F
330
78
100
AcDbEntity
  8
0
  6
Continuous
 62
     7
100
AcDbHatch
 10
0.0
 20
0.0
 30
0.0
210
0.0
220
0.0
230
1.0
  2
SOLID
 70
     1
 71
     0
 91
        1
 92
        0
 93
       15
 72
     4
 94
        3
 73
     1
 74
     0
 95
        8
 96
        4
 40
11.0
 40
11.0
 40
11.0
 40
11.0
 40
12.0
 40
12.0
 40
12.0
 40
12.0
 10
262.5853797711083
 20
49.44563594563805
 42
1.0
 10
263.5398641461083
 20
49.44563594563805
 42
1.0
 10
264.1459563498844
 20
49.87115002441409
 42
1.0
 10
264.4688203635562
 20
50.70296488444013
 42
1.0
 97
        0
 72
     1
 10
264.4688203635562
 20
50.70296488444013
 11
264.4999915875146
 21
50.78196781412763
 72
     1
 10
264.4999915875146
 20
50.78196781412763
 11
263.7743201194156
 21
50.78223653157553
 72
     1
 10
263.7743201194156
 20
50.78223653157553
 11
263.7591375836083
 21
50.74918428548179
 72
     4
 94
        3
 73
     1
 74
     0
 95
        8
 96
        4
 40
0.0
 40
0.0
 40
0.0
 40
0.0
 40
1.0
 40
1.0
 40
1.0
 40
1.0
 10
263.7591375836083
 20
50.74918428548179
 42
1.0
 10
263.573050750926
 20
50.36532141113282
 42
1.0
 10
263.234735483999
 20
50.0743004150391
 42
1.0
 10
262.5728844097802
 20
50.07161324055993
 42
1.0
 97
        0
 72
     4
 94
        3
 73
     1
 74
     0
 95
        8
 96
        4
 40
1.0
 40
1.0
 40
1.0
 40
1.0
 40
2.0
 40
2.0
 40
2.0
 40
2.0
 10
262.5728844097802
 20
50.07161324055993
 42
1.0
 10
261.9138548687646
 20
50.07376298014326
 42
1.0
 10
261.203097219025
 20
50.62154349772136
 42
1.0
 10
261.2008131207177
 20
51.79919771321618
 42
1.0
 97
        0
 72
     4
 94
        3
 73
     1
 74
     0
 95
        8
 96
        4
 40
2.0
 40
2.0
 40
2.0
 40
2.0
 40
3.0
 40
3.0
 40
3.0
 40
3.0
 10
261.2008131207177
 20
51.79919771321618
 42
1.0
 10
261.2039033713687
 20
52.97658321126303
 42
1.0
 10
261.9115707704573
 20
53.52355757649742
 42
1.0
 10
262.6275684104312
 20
53.52637910970056
 42
1.0
 97
        0
 72
     4
 94
        3
 73
     1
 74
     0
 95
        8
 96
        4
 40
3.0
 40
3.0
 40
3.0
 40
3.0
 40
4.0
 40
4.0
 40
4.0
 40
4.0
 10
262.6275684104312
 20
53.52637910970056
 42
1.0
 10
263.1397438661604
 20
53.52456526692713
 42
1.0
 10
263.5299216005354
 20
53.37381477864585
 42
1.0
 10
263.7028412782698
 20
53.01218827311202
 42
1.0
 97
        0
 72
     1
 10
263.7028412782698
 20
53.01218827311202
 11
263.7180238140771
 21
52.97839705403647
 72
     1
 10
263.7180238140771
 20
52.97839705403647
 11
264.4359024761864
 21
52.97369449869794
 72
     1
 10
264.4359024761864
 20
52.97369449869794
 11
264.4000286968895
 21
53.05558614095054
 72
     4
 94
        3
 73
     1
 74
     0
 95
        8
 96
        4
 40
7.0
 40
7.0
 40
7.0
 40
7.0
 40
8.0
 40
8.0
 40
8.0
 40
8.0
 10
264.4000286968895
 20
53.05558614095054
 42
1.0
 10
263.9996396994937
 20
53.97654801432294
 42
1.0
 10
263.2563672385562
 20
54.15558101399741
 42
1.0
 10
262.6999877626448
 20
54.1524235839844
 42
1.0
 97
        0
 72
     4
 94
        3
 73
     1
 74
     0
 95
        8
 96
        4
 40
8.0
 40
8.0
 40
8.0
 40
8.0
 40
9.0
 40
9.0
 40
9.0
 40
9.0
 10
262.6999877626448
 20
54.1524235839844
 42
1.0
 10
261.4113532411604
 20
54.15558101399741
 42
1.0
 10
260.5522635601708
 20
53.19773767089846
 42
1.0
 10
260.5381558941552
 20
51.799735148112
 42
1.0
 97
        0
 72
     4
 94
        3
 73
     1
 74
     0
 95
        8
 96
        4
 40
9.0
 40
9.0
 40
9.0
 40
9.0
 40
10.0
 40
10.0
 40
10.0
 40
10.0
 10
260.5381558941552
 20
51.799735148112
 42
1.0
 10
260.5538758648583
 20
50.3993141682943
 42
1.0
 10
261.4438680523583
 20
49.44469543457033
 42
1.0
 10
262.5728844097802
 20
49.44563594563805
 42
1.0
 97
        0
 72
     1
 10
262.5728844097802
 20
49.44563594563805
 11
262.5853797711083
 21
49.44563594563805
 97
        0
 75
     0
 76
     1
 98
        1
 10
0.0
 20
0.0
  0
HATCH
  5
130
330
78
100
AcDbEntity
  8
0
  6
Continuous
 62
     7
100
AcDbHatch
 10
0.0
 20
0.0
 30
0.0
210
0.0
220
0.0
230
1.0
  2
SOLID
 70
     1
 71
     0
 91
        1
 92
        0
 93
       13
 72
     4
 94
        3
 73
     1
 74
     0
 95
        8
 96
        4
 40
11.0
 40
11.0
 40
11.0
 40
11.0
 40
12.0
 40
12.0
 40
12.0
 40
12.0
 10
268.4404642437646
 20
52.5733055013021
 42
1.0
 10
268.4404642437646
 20
53.03361848958336
 42
1.0
 10
268.3216911317854
 20
53.43037980143232
 42
1.0
 10
268.0578105979312
 20
53.71165979003909
 42
1.0
 97
        0
 72
     4
 94
        3
 73
     1
 74
     0
 95
        8
 96
        4
 40
12.0
 40
12.0
 40
12.0
 40
12.0
 40
13.0
 40
13.0
 40
13.0
 40
13.0
 10
268.0578105979312
 20
53.71165979003909
 42
1.0
 10
267.7943331402489
 20
53.99354439290368
 42
1.0
 10
267.3903164573062
 20
54.15289383951826
 42
1.0
 10
266.842804657176
 20
54.15289383951826
 42
1.0
 97
        0
 72
     4
 94
        3
 73
     1
 74
     0
 95
        8
 96
        4
 40
0.0
 40
0.0
 40
0.0
 40
0.0
 40
1.0
 40
1.0
 40
1.0
 40
1.0
 10
266.842804657176
 20
54.15289383951826
 42
1.0
 10
266.3709368186343
 20
54.15369999186201
 42
1.0
 10
265.8797213238427
 20
53.98306441243492
 42
1.0
 10
265.5798326519676
 20
53.52537141927086
 42
1.0
 97
        0
 72
     1
 10
265.5798326519676
 20
53.52537141927086
 11
265.5798326519676
 21
55.23085388183598
 72
     1
 10
265.5798326519676
 20
55.23085388183598
 11
264.9174441428531
 21
55.23085388183598
 72
     1
 10
264.9174441428531
 20
55.23085388183598
 11
264.9174441428531
 21
49.55486958821616
 72
     1
 10
264.9174441428531
 20
49.55486958821616
 11
265.5798326519676
 21
49.55486958821616
 72
     1
 10
265.5798326519676
 20
49.55486958821616
 11
265.5798326519676
 21
52.16371293131513
 72
     4
 94
        3
 73
     1
 74
     0
 95
        8
 96
        4
 40
6.0
 40
6.0
 40
6.0
 40
6.0
 40
7.0
 40
7.0
 40
7.0
 40
7.0
 10
265.5798326519676
 20
52.16371293131513
 42
1.0
 10
265.5845352073062
 20
53.12182499186201
 42
1.0
 10
266.1406459657697
 20
53.52167655436201
 42
1.0
 10
266.7699822287906
 20
53.52637910970056
 42
1.0
 97
        0
 72
     4
 94
        3
 73
     1
 74
     0
 95
        8
 96
        4
 40
7.0
 40
7.0
 40
7.0
 40
7.0
 40
8.0
 40
8.0
 40
8.0
 40
8.0
 10
266.7699822287906
 20
53.52637910970056
 42
1.0
 10
267.4439255881656
 20
53.51516015625004
 42
1.0
 10
267.7661178082177
 20
53.27620316569013
 42
1.0
 10
267.7771352235823
 20
52.40972375488285
 42
1.0
 97
        0
 72
     1
 10
267.7771352235823
 20
52.40972375488285
 11
267.7771352235823
 21
49.55486958821616
 72
     1
 10
267.7771352235823
 20
49.55486958821616
 11
268.4404642437646
 21
49.55486958821616
 72
     1
 10
268.4404642437646
 20
49.55486958821616
 11
268.4404642437646
 21
52.5733055013021
 97
        0
 75
     0
 76
     1
 98
        1
 10
0.0
 20
0.0
  0
HATCH
  5
131
330
78
100
AcDbEntity
  8
0
  6
Continuous
 62
     7
100
AcDbHatch
 10
0.0
 20
0.0
 30
0.0
210
0.0
220
0.0
230
1.0
  2
SOLID
 70
     1
 71
     0
 91
        1
 92
        0
 93
       10
 72
     1
 10
277.2619165933788
 20
50.12670030336879
 11
279.6434249755404
 21
53.66691832094693
 72
     1
 10
279.6434249755404
 20
53.66691832094693
 11
279.6434249755404
 21
54.04325710675423
 72
     1
 10
279.6434249755404
 20
54.04325710675423
 11
276.3750146495663
 21
54.04325710675421
 72
     1
 10
276.3750146495663
 20
54.04325710675421
 11
276.3749694859434
 21
53.47177920441256
 72
     1
 10
276.3749694859434
 20
53.47177920441256
 11
278.7109302679779
 21
53.47177920441256
 72
     1
 10
278.7109302679779
 20
53.47177920441256
 11
276.374695463315
 21
50.00443387717682
 72
     1
 10
276.374695463315
 20
50.00443387717682
 11
276.3746599344662
 21
49.55486958821617
 72
     1
 10
276.3746599344662
 20
49.55486958821617
 11
279.6774157734232
 21
49.55486958821617
 72
     1
 10
279.6774157734232
 20
49.55486958821617
 11
279.6776899522288
 21
50.12670030336879
 72
     1
 10
279.6776899522288
 20
50.12670030336879
 11
277.2619165933788
 21
50.12670030336879
 97
        0
 75
     0
 76
     1
 98
        1
 10
0.0
 20
0.0
  0
HATCH
  5
132
330
78
100
AcDbEntity
  8
0
  6
Continuous
 62
     7
100
AcDbHatch
 10
0.0
 20
0.0
 30
0.0
210
0.0
220
0.0
230
1.0
  2
SOLID
 70
     1
 71
     0
 91
        1
 92
        0
 93
       18
 72
     4
 94
        3
 73
     1
 74
     0
 95
        8
 96
        4
 40
25.0
 40
25.0
 40
25.0
 40
25.0
 40
26.0
 40
26.0
 40
26.0
 40
26.0
 10
275.3033712434755
 20
50.09781320298818
 42
1.0
 10
275.1656535513739
 20
50.1014408868571
 42
1.0
 10
275.1203746608532
 20
50.1463167001075
 42
1.0
 10
275.0822167821244
 20
50.23862114300191
 42
1.0
 97
        0
 72
     4
 94
        3
 73
     1
 74
     0
 95
        8
 96
        4
 40
26.0
 40
26.0
 40
26.0
 40
26.0
 40
27.0
 40
27.0
 40
27.0
 40
27.0
 10
275.0822167821244
 20
50.23862114300191
 42
1.0
 10
275.0460742842386
 20
50.33226917316051
 42
1.0
 10
275.0419091620066
 20
50.47912325839622
 42
1.0
 10
275.0421778774671
 20
50.64223474928492
 42
1.0
 97
        0
 72
     1
 10
275.0421778774671
 20
50.64223474928492
 11
275.0421778774671
 21
53.47142639967554
 72
     1
 10
275.0421778774671
 20
53.47142639967554
 11
275.7691929911002
 21
53.47142639967554
 72
     1
 10
275.7691929911002
 20
53.47142639967554
 11
275.7689641250673
 21
54.0429543062504
 72
     1
 10
275.7689641250673
 20
54.0429543062504
 11
275.0419489884256
 21
54.04301176190589
 72
     1
 10
275.0419489884256
 20
54.04301176190589
 11
275.041473321865
 21
55.23085388183598
 72
     1
 10
275.041473321865
 20
55.23085388183598
 11
274.3795206484703
 21
55.23085388183598
 72
     1
 10
274.3795206484703
 20
55.23085388183598
 11
274.3795206484703
 21
54.04298840332037
 72
     1
 10
274.3795206484703
 20
54.04298840332037
 11
273.7919506048935
 21
54.04298840332037
 72
     1
 10
273.7919506048935
 20
54.04298840332037
 11
273.7919506048935
 21
53.47142639160163
 72
     1
 10
273.7919506048935
 20
53.47142639160163
 11
274.3795206484703
 21
53.47142639160163
 72
     1
 10
274.3795206484703
 20
53.47142639160163
 11
274.3795206484703
 21
50.27785388183599
 72
     4
 94
        3
 73
     1
 74
     0
 95
        8
 96
        4
 40
20.0
 40
20.0
 40
20.0
 40
20.0
 40
21.0
 40
21.0
 40
21.0
 40
21.0
 10
274.3795206484703
 20
50.27785388183599
 42
1.0
 10
274.3784457823096
 20
49.9798462320833
 42
1.0
 10
274.474780989773
 20
49.78408557244977
 42
1.0
 10
274.6302340347482
 20
49.67283655090634
 42
1.0
 97
        0
 72
     4
 94
        3
 73
     1
 74
     0
 95
        8
 96
        4
 40
21.0
 40
21.0
 40
21.0
 40
21.0
 40
22.0
 40
22.0
 40
22.0
 40
22.0
 10
274.6302340347482
 20
49.67283655090634
 42
1.0
 10
274.7848809273797
 20
49.56158752935308
 42
1.0
 10
274.9834631217241
 20
49.53417835208514
 42
1.0
 10
275.1847324902169
 20
49.53390963708953
 42
1.0
 97
        0
 72
     4
 94
        2
 73
     1
 74
     0
 95
        6
 96
        3
 40
22.0
 40
22.0
 40
22.0
 40
23.0
 40
23.0
 40
23.0
 10
275.1847324902169
 20
49.53390963708953
 42
1.0
 10
275.2214124218576
 20
49.53390963753644
 42
1.0
 10
275.769192939439
 20
49.53364092676277
 42
1.0
 97
        0
 72
     1
 10
275.769192939439
 20
49.53364092676277
 11
275.769192939439
 21
50.09781320866384
 72
     1
 10
275.769192939439
 20
50.09781320866384
 11
275.3033712434755
 21
50.09781320298818
 97
        0
 75
     0
 76
     1
 98
        1
 10
0.0
 20
0.0
  0
HATCH
  5
133
330
78
100
AcDbEntity
  8
0
  6
Continuous
 62
     7
100
AcDbHatch
 10
0.0
 20
0.0
 30
0.0
210
0.0
220
0.0
230
1.0
  2
SOLID
 70
     1
 71
     0
 91
        2
 92
        0
 93
       12
 72
     4
 94
        3
 73
     1
 74
     0
 95
        8
 96
        4
 40
10.0
 40
10.0
 40
10.0
 40
10.0
 40
11.0
 40
11.0
 40
11.0
 40
11.0
 10
269.7527528823119
 20
53.54626417133141
 42
1.0
 10
269.3842069065273
 20
53.14695004000491
 42
1.0
 10
269.1588873324072
 20
52.55704806019009
 42
1.0
 10
269.1588873400616
 20
51.79919767770311
 42
1.0
 97
        0
 72
     4
 94
        3
 73
     1
 74
     0
 95
        8
 96
        4
 40
11.0
 40
11.0
 40
11.0
 40
11.0
 40
12.0
 40
12.0
 40
12.0
 40
12.0
 10
269.1588873400616
 20
51.79919767770311
 42
1.0
 10
269.1588873477193
 20
51.04101139840623
 42
1.0
 10
269.3842069337522
 20
50.4514453199528
 42
1.0
 10
269.7527529176072
 20
50.05172811989913
 42
1.0
 97
        0
 72
     4
 94
        3
 73
     1
 74
     0
 95
        8
 96
        4
 40
12.0
 40
12.0
 40
12.0
 40
12.0
 40
13.0
 40
13.0
 40
13.0
 40
13.0
 10
269.7527529176072
 20
50.05172811989913
 42
1.0
 10
270.1217019776297
 20
49.65241399602138
 42
1.0
 10
270.6333400005543
 20
49.4453672075692
 42
1.0
 10
271.1938845969058
 20
49.44563593067868
 42
1.0
 97
        0
 72
     1
 10
271.1938845969058
 20
49.44563593067868
 11
271.1949594666974
 21
49.44563593067868
 72
     4
 94
        3
 73
     1
 74
     0
 95
        8
 96
        4
 40
14.0
 40
14.0
 40
14.0
 40
14.0
 40
15.0
 40
15.0
 40
15.0
 40
15.0
 10
271.1949594666974
 20
49.44563593067868
 42
1.0
 10
271.7330661561506
 20
49.44563593611291
 42
1.0
 10
272.2242816489937
 20
49.63857506867777
 42
1.0
 10
272.5890655808147
 20
50.00752412835124
 42
1.0
 97
        0
 72
     1
 10
272.5890655808147
 20
50.00752412835124
 11
272.6762643972355
 21
49.55486958821616
 72
     1
 10
272.6762643972355
 20
49.55486958821616
 11
273.2284787527034
 21
49.55486958821616
 72
     1
 10
273.2284787527034
 20
49.55486958821616
 11
273.2284787527034
 21
54.04325711952716
 72
     1
 10
273.2284787527034
 20
54.04325711952716
 11
272.5521168951743
 21
54.04325711952716
 72
     1
 10
272.5521168951743
 20
54.04325711952716
 11
272.5521168951743
 21
53.62640917844642
 72
     4
 94
        3
 73
     1
 74
     0
 95
        8
 96
        4
 40
8.0
 40
8.0
 40
8.0
 40
8.0
 40
9.0
 40
9.0
 40
9.0
 40
9.0
 10
272.5521168951743
 20
53.62640917844642
 42
1.0
 10
272.1912293591284
 20
53.97231570963218
 42
1.0
 10
271.7145246047004
 20
54.1528938298174
 42
1.0
 10
271.1938845493668
 20
54.15242356902503
 42
1.0
 97
        0
 72
     4
 94
        3
 73
     1
 74
     0
 95
        8
 96
        4
 40
9.0
 40
9.0
 40
9.0
 40
9.0
 40
10.0
 40
10.0
 40
10.0
 40
10.0
 10
271.1938845493668
 20
54.15242356902503
 42
1.0
 10
270.6333399530077
 20
54.15289381889733
 42
1.0
 10
270.1217019342595
 20
53.94645163436776
 42
1.0
 10
269.7527528823119
 20
53.54626417133141
 42
1.0
 97
        0
 97
        0
 92
        0
 93
        5
 72
     4
 94
        3
 73
     1
 74
     0
 95
        8
 96
        4
 40
3.0
 40
3.0
 40
3.0
 40
3.0
 40
4.0
 40
4.0
 40
4.0
 40
4.0
 10
271.1605892956841
 20
53.52637906439517
 42
1.0
 10
271.9350329805802
 20
53.524565221705
 42
1.0
 10
272.5287641818192
 20
52.89966279663861
 42
1.0
 10
272.5327949436563
 20
51.7991976680583
 42
1.0
 97
        0
 72
     4
 94
        3
 73
     1
 74
     0
 95
        8
 96
        4
 40
4.0
 40
4.0
 40
4.0
 40
4.0
 40
5.0
 40
5.0
 40
5.0
 40
5.0
 10
272.5327949436563
 20
51.7991976680583
 42
1.0
 10
272.5287641820568
 20
50.6897976843339
 42
1.0
 10
271.9355704158469
 20
50.07403165236909
 42
1.0
 10
271.1605892960555
 20
50.07188191270246
 42
1.0
 97
        0
 72
     4
 94
        3
 73
     1
 74
     0
 95
        8
 96
        4
 40
0.0
 40
0.0
 40
0.0
 40
0.0
 40
1.0
 40
1.0
 40
1.0
 40
1.0
 10
271.1605892960555
 20
50.07188191270246
 42
1.0
 10
270.3854738175397
 20
50.07403165220246
 42
1.0
 10
269.7921456924734
 20
50.68979768403972
 42
1.0
 10
269.7885180068072
 20
51.79919766776329
 42
1.0
 97
        0
 72
     1
 10
269.7885180068072
 20
51.79919766776329
 11
269.7882492893593
 21
51.79919766776327
 72
     4
 94
        3
 73
     1
 74
     0
 95
        8
 96
        4
 40
2.0
 40
2.0
 40
2.0
 40
2.0
 40
3.0
 40
3.0
 40
3.0
 40
3.0
 10
269.7882492893593
 20
51.79919766776327
 42
1.0
 10
269.7921456922359
 20
52.89966279634443
 42
1.0
 10
270.3860112520646
 20
53.52456522153849
 42
1.0
 10
271.1605892956841
 20
53.52637906439517
 42
1.0
 97
        0
 97
        0
 75
     0
 76
     1
 98
        1
 10
0.0
 20
0.0
  0
ENDBLK
  5
7A
330
78
100
AcDbEntity
  8
0
100
AcDbBlockEnd
  0
ENDSEC
  0
SECTION
  2
ENTITIES
  0
SPLINE
  5
134
330
1F
100
AcDbEntity
  8
0
  6
SLD-Durchgehend
 62
     7
370
    25
100
AcDbSpline
210
0.0
220
0.0
230
1.0
 70
     8
 71
     3
 72
    15
 73
    11
 74
     0
 42
0.00000001
 43
0.00000001
 40
0.0
 40
0.0
 40
0.0
 40
0.0
 40
0.0415078371051749
 40
0.1851473872215837
 40
0.3291312624619083
 40
0.4745538504607112
 40
0.6218757715420724
 40
0.7709035425677683
 40
0.9210822134834398
 40
1.0
 40
1.0
 40
1.0
 40
1.0
 10
85.35390186772479
 20
223.2214508987519
 30
0.0
 10
85.29668840702226
 20
223.1888616613413
 30
0.0
 10
85.04148545014118
 20
223.0434960489915
 30
0.0
 10
84.65631667953171
 20
222.6761879712704
 30
0.0
 10
84.20996619642997
 20
222.1268865594224
 30
0.0
 10
83.84985203301615
 20
221.4767808499189
 30
0.0
 10
83.5729210199739
 20
220.7421817805542
 30
0.0
 10
83.38644497372293
 20
219.9270684416962
 30
0.0
 10
83.30302382561815
 20
219.1860145240799
 30
0.0
 10
83.29553967546
 20
218.7133397242949
 30
0.0
 10
83.2929615798794
 20
218.5505155175861
 30
0.0
  0
LINE
  5
135
330
1F
100
AcDbEntity
  8
0
  6
SLD-Durchgehend
 62
     7
370
    25
100
AcDbLine
 10
89.3999696345
 20
225.5781879177
 30
0.0
 11
85.510882338
 21
223.3330656102
 31
0.0
  0
SPLINE
  5
136
330
1F
100
AcDbEntity
  8
0
  6
SLD-Durchgehend
 62
     7
370
    25
100
AcDbSpline
210
0.0
220
0.0
230
1.0
 70
     8
 71
     3
 72
    12
 73
     8
 74
     0
 42
0.00000001
 43
0.00000001
 40
0.0
 40
0.0
 40
0.0
 40
0.0
 40
0.1998715592331904
 40
0.4201349025037825
 40
0.6362511342751099
 40
0.8631821424780975
 40
1.0
 40
1.0
 40
1.0
 40
1.0
 10
89.80238901968958
 20
183.7232393286941
 30
0.0
 10
89.698307279761
 20
183.6896495623752
 30
0.0
 10
89.47952491860323
 20
183.6190430526163
 30
0.0
 10
89.2200464013014
 20
183.3782248001939
 30
0.0
 10
89.04104646573741
 20
183.0637221358916
 30
0.0
 10
88.96033781584569
 20
182.7488839931224
 30
0.0
 10
88.95269176094966
 20
182.5373886943042
 30
0.0
 10
88.94981582937177
 20
182.4578383880713
 30
0.0
  0
LINE
  5
137
330
1F
100
AcDbEntity
  8
0
  6
SLD-Durchgehend
 62
     7
370
    25
100
AcDbLine
 10
97.3975547164
 20
185.7608845243
 30
0.0
 11
89.7688204264
 21
183.717376427
 31
0.0
  0
LINE
  5
138
330
1F
100
AcDbEntity
  8
0
  6
SLD-Durchgehend
 62
     7
370
    25
100
AcDbLine
 10
88.9498158294
 20
182.4578383881
 30
0.0
 11
88.9498158294
 21
128.7331494112
 31
0.0
  0
LINE
  5
139
330
1F
100
AcDbEntity
  8
0
  6
SLD-Durchgehend
 62
     7
370
    25
100
AcDbLine
 10
83.2929615799
 20
218.5505155176
 30
0.0
 11
83.2929615799
 21
125.4648629626
 31
0.0
  0
SPLINE
  5
13A
330
1F
100
AcDbEntity
  8
0
  6
SLD-Durchgehend
 62
     7
370
    25
100
AcDbSpline
210
0.0
220
0.0
230
1.0
 70
     8
 71
     3
 72
    11
 73
     7
 74
     0
 42
0.00000001
 43
0.00000001
 40
0.0
 40
0.0
 40
0.0
 40
0.0
 40
0.183031435279259
 40
0.4773491134436973
 40
0.7515510520802238
 40
1.0
 40
1.0
 40
1.0
 40
1.0
 10
105.8168455040966
 20
117.4825184482265
 30
0.0
 10
105.8910595464537
 20
117.4434903545878
 30
0.0
 10
106.0846110381425
 20
117.3417044189127
 30
0.0
 10
106.4049097263921
 20
117.2627902556402
 30
0.0
 10
106.7619139215135
 20
117.268504946678
 30
0.0
 10
106.9649085034303
 20
117.3638735190797
 30
0.0
 10
107.0614046380546
 20
117.409208219713
 30
0.0
  0
LINE
  5
13B
330
1F
100
AcDbEntity
  8
0
  6
SLD-Durchgehend
 62
     7
370
    25
100
AcDbLine
 10
107.0667439199
 20
117.4082563725
 30
0.0
 11
108.5415363933
 21
118.2596359452
 31
0.0
  0
LINE
  5
13C
330
1F
100
AcDbEntity
  8
0
  6
SLD-Durchgehend
 62
     7
370
    25
100
AcDbLine
 10
90.260496318
 20
126.4630076783
 30
0.0
 11
105.8168455041
 21
117.4825184482
 31
0.0
  0
LINE
  5
13D
330
1F
100
AcDbEntity
  8
0
  6
SLD-Durchgehend
 62
     7
370
    25
100
AcDbLine
 10
113.3701260396
 20
121.0471214147
 30
0.0
 11
114.8449185129
 21
121.8985009875
 31
0.0
  0
SPLINE
  5
13E
330
1F
100
AcDbEntity
  8
0
  6
SLD-Durchgehend
 62
     7
370
    25
100
AcDbSpline
210
0.0
220
0.0
230
1.0
 70
     8
 71
     3
 72
    16
 73
    12
 74
     0
 42
0.00000001
 43
0.00000001
 40
0.0
 40
0.0
 40
0.0
 40
0.0
 40
0.0678989642450775
 40
0.1966484849380287
 40
0.3254709048595817
 40
0.4540305047230996
 40
0.5819546416561191
 40
0.7088105244468403
 40
0.8342870093354854
 40
0.9584245121632992
 40
1.0
 40
1.0
 40
1.0
 40
1.0
 10
121.3731946902006
 20
93.80270220347667
 30
0.0
 10
121.5302447765846
 20
93.71506472337359
 30
0.0
 10
121.9850920911225
 20
93.46124969279595
 30
0.0
 10
122.739044048778
 20
93.12363019817023
 30
0.0
 10
123.6250548076179
 20
92.83149579010956
 30
0.0
 10
124.4931629942498
 20
92.6589515663177
 30
0.0
 10
125.3319791812837
 20
92.60803684694689
 30
0.0
 10
126.1321161922552
 20
92.67739733185614
 30
0.0
 10
126.8766865106204
 20
92.87488383670187
 30
0.0
 10
127.4247811982301
 20
93.09753060164937
 30
0.0
 10
127.6983224578674
 20
93.28919929430492
 30
0.0
 10
127.7669508210832
 20
93.33728676993506
 30
0.0
  0
LINE
  5
13F
330
1F
100
AcDbEntity
  8
0
  6
SLD-Durchgehend
 62
     7
370
    25
100
AcDbLine
 10
127.6226867692
 20
93.2333596228
 30
0.0
 11
131.5117740657
 21
95.4784819303
 31
0.0
  0
SPLINE
  5
140
330
1F
100
AcDbEntity
  8
0
  6
SLD-Durchgehend
 62
     7
370
    25
100
AcDbSpline
210
0.0
220
0.0
230
1.0
 70
     8
 71
     3
 72
    13
 73
     9
 74
     0
 42
0.00000001
 43
0.00000001
 40
0.0
 40
0.0
 40
0.0
 40
0.0
 40
0.0987777120422919
 40
0.2768284368539419
 40
0.4543077628777434
 40
0.6317159434673759
 40
0.8106241030754174
 40
1.0
 40
1.0
 40
1.0
 40
1.0
 10
88.94981582937177
 20
128.7331494111623
 30
0.0
 10
88.9530532877296
 20
128.6492624455645
 30
0.0
 10
88.96212639256318
 20
128.4141659133739
 30
0.0
 10
89.05673042584161
 20
128.0115095103694
 30
0.0
 10
89.25159171273313
 20
127.546228690565
 30
0.0
 10
89.52490633672714
 20
127.1158971757525
 30
0.0
 10
89.86240757068705
 20
126.7317072881113
 30
0.0
 10
90.12530925083956
 20
126.5542554526598
 30
0.0
 10
90.26049631799258
 20
126.4630076782763
 30
0.0
  0
LINE
  5
141
330
1F
100
AcDbEntity
  8
0
  6
SLD-Durchgehend
 62
     7
370
    25
100
AcDbLine
 10
91.6747098804
 20
110.9472725518
 30
0.0
 11
121.3731946902
 21
93.8027022035
 31
0.0
  0
SPLINE
  5
142
330
1F
100
AcDbEntity
  8
0
  6
SLD-Durchgehend
 62
     7
370
    25
100
AcDbSpline
210
0.0
220
0.0
230
1.0
 70
     8
 71
     3
 72
    23
 73
    19
 74
     0
 42
0.00000001
 43
0.00000001
 40
0.0
 40
0.0
 40
0.0
 40
0.0
 40
0.0353483238142142
 40
0.1022474190645383
 40
0.1691085758946395
 40
0.2359119904781161
 40
0.3026570448243234
 40
0.3693528941987282
 40
0.4360135225467638
 40
0.5026551615474424
 40
0.5692950699914102
 40
0.6359478169247845
 40
0.702628745466922
 40
0.7693559864459439
 40
0.8361471706106367
 40
0.9030180723334491
 40
0.9699797326746973
 40
1.0
 40
1.0
 40
1.0
 40
1.0
 10
83.29296157987943
 20
125.4648629626106
 30
0.0
 10
83.29557655244984
 20
125.2824619199868
 30
0.0
 10
83.30314053759538
 20
124.7548545589986
 30
0.0
 10
83.38673574189242
 20
123.8482151087337
 30
0.0
 10
83.5722872960253
 20
122.7434202969647
 30
0.0
 10
83.84766606081082
 20
121.6179312917129
 30
0.0
 10
84.20792168201972
 20
120.4843875323952
 30
0.0
 10
84.6493788879368
 20
119.3542823851263
 30
0.0
 10
85.16709394257157
 20
118.2393493716362
 30
0.0
 10
85.75558208646711
 20
117.151092886309
 30
0.0
 10
86.40867000865839
 20
116.1008034224115
 30
0.0
 10
87.11960225184087
 20
115.09943012235
 30
0.0
 10
87.88110849802135
 20
114.1574126564258
 30
0.0
 10
88.6855071679166
 20
113.2847597575721
 30
0.0
 10
89.52479131087718
 20
112.4902618407832
 30
0.0
 10
90.39071742694408
 20
111.7841208301636
 30
0.0
 10
91.11184027535745
 20
111.2815189503244
 30
0.0
 10
91.54166103020434
 20
111.0262803692032
 30
0.0
 10
91.6747098803657
 20
110.9472725517536
 30
0.0
  0
LINE
  5
143
330
1F
100
AcDbEntity
  8
0
  6
SLD-Durchgehend
 62
     7
370
    25
100
AcDbLine
 10
107.2689067153
 20
217.6537935952
 30
0.0
 11
107.2689067153
 21
221.8996465769
 31
0.0
  0
LINE
  5
144
330
1F
100
AcDbEntity
  8
0
  6
SLD-Durchgehend
 62
     7
370
    25
100
AcDbLine
 10
115.7541880895
 20
217.001197906
 30
0.0
 11
107.2689067153
 21
221.8996465769
 31
0.0
  0
LINE
  5
145
330
1F
100
AcDbEntity
  8
0
  6
SLD-Durchgehend
 62
     7
370
    25
100
AcDbLine
 10
115.7541880895
 20
212.7553449243
 30
0.0
 11
115.7541880895
 21
217.001197906
 31
0.0
  0
LINE
  5
146
330
1F
100
AcDbEntity
  8
0
  6
SLD-Durchgehend
 62
     7
370
    25
100
AcDbLine
 10
115.8248987676
 20
217.0420183116
 30
0.0
 11
115.7541880895
 21
217.001197906
 31
0.0
  0
LINE
  5
147
330
1F
100
AcDbEntity
  8
0
  6
SLD-Durchgehend
 62
     7
370
    25
100
AcDbLine
 10
115.8248987676
 20
212.7145245187
 30
0.0
 11
115.8248987676
 21
217.0420183116
 31
0.0
  0
LINE
  5
148
330
1F
100
AcDbEntity
  8
0
  6
SLD-Durchgehend
 62
     7
370
    25
100
AcDbLine
 10
107.3396173934
 20
221.9404669825
 30
0.0
 11
107.2689067153
 21
221.8996465769
 31
0.0
  0
LINE
  5
149
330
1F
100
AcDbEntity
  8
0
  6
SLD-Durchgehend
 62
     7
370
    25
100
AcDbLine
 10
115.8248987676
 20
217.0420183116
 30
0.0
 11
107.3396173934
 21
221.9404669825
 31
0.0
  0
ARC
  5
14A
330
1F
100
AcDbEntity
  8
0
  6
SLD-Durchgehend
 62
     7
370
    25
100
AcDbCircle
 10
118.688366759
 20
193.384480885
 30
0.0
 40
15.32399664624824
100
AcDbArc
 50
2.520089748
 51
57.4799103976
  0
LWPOLYLINE
  5
14B
330
1F
100
AcDbEntity
  8
0
  6
SLD-Durchgehend
 62
     7
370
    25
100
AcDbPolyline
 90
       21
 70
   128
 43
0.0
 10
107.4810387496
 20
114.6479862812
 10
107.4291263458
 20
115.0564421553
 10
107.2784706821
 20
115.4848523082
 10
107.0438189845
 20
115.8912809692
 10
106.7481405962
 20
116.2359440694
 10
106.4203785778
 20
116.4851035829
 10
106.0926165595
 20
116.6143700407
 10
105.7969381712
 20
116.6110899412
 10
105.5622864736
 20
116.4755843634
 10
105.4116308099
 20
116.2211175373
 10
105.3597184061
 20
115.8725984489
 10
105.4116308099
 20
115.4641425749
 10
105.5622864736
 20
115.035732422
 10
105.7969381712
 20
114.6293037609
 10
106.0926165595
 20
114.2846406608
 10
106.4203785778
 20
114.0354811473
 10
106.7481405962
 20
113.9062146895
 10
107.0438189845
 20
113.909494789
 10
107.2784706821
 20
114.0450003668
 10
107.4291263458
 20
114.2994671928
 10
107.4810387496
 20
114.6479862812
  0
LWPOLYLINE
  5
14C
330
1F
100
AcDbEntity
  8
0
  6
SLD-Durchgehend
 62
     7
370
    25
100
AcDbPolyline
 90
       36
 70
   128
 43
0.0
 10
103.3091087406
 20
193.8112265283
 10
103.3591081269
 20
194.4238780612
 10
103.5074992643
 20
194.959110407
 10
103.7495127395
 20
195.3997207579
 10
104.0773700404
 20
195.7315475347
 10
104.4805335635
 20
195.9439255517
 10
104.9460453015
 20
196.0300288046
 10
105.4589433241
 20
195.9870898642
 10
106.0027426668
 20
195.8164888232
 10
106.5599651713
 20
195.5237089395
 10
107.1127012478
 20
195.1181603995
 10
107.6431855041
 20
194.6128778669
 10
108.1343677397
 20
194.0241015381
 10
108.5704609533
 20
193.3707551688
 10
108.9374487502
 20
192.6738378487
 10
109.2235358408
 20
191.955749074
 10
109.4195271505
 20
191.2395688088
 10
109.5191233574
 20
190.5483156761
 10
109.5191233574
 20
189.9042071203
 10
109.4195271505
 20
189.3279453204
 10
109.2235358408
 20
188.8380518047
 10
108.9374487502
 20
188.450272154
 10
108.5704609533
 20
188.1770699253
 10
108.1343677397
 20
188.027226063
 10
107.6431855041
 20
188.0055566722
 10
107.1127012478
 20
188.1127582248
 10
106.5599651713
 20
188.3453851748
 10
106.0027426668
 20
188.6959607007
 10
105.4589433241
 20
189.1532170165
 10
104.9460453015
 20
189.702457528
 10
104.4805335635
 20
190.3260291933
 10
104.0773700404
 20
191.0038899059
 10
103.7495127395
 20
191.7142526649
 10
103.5074992643
 20
192.4342858267
 10
103.3591081269
 20
193.1408469329
 10
103.3091087406
 20
193.8112265283
  0
LINE
  5
14D
330
1F
100
AcDbEntity
  8
0
  6
SLD-Durchgehend
 62
     7
370
    25
100
AcDbLine
 10
133.9975430441
 20
100.9726196079
 30
0.0
 11
133.9975430441
 21
194.0582721629
 31
0.0
  0
LINE
  5
14E
330
1F
100
AcDbEntity
  8
0
  6
SLD-Durchgehend
 62
     7
370
    25
100
AcDbLine
 10
126.9264752323
 20
206.3057208409
 30
0.0
 11
94.3995632977
 21
225.0831074128
 31
0.0
  0
LINE
  5
14F
330
1F
100
AcDbEntity
  8
0
  6
SLD-Durchgehend
 62
     7
370
    25
100
AcDbLine
 10
95.8137768601
 20
128.7338129115
 30
0.0
 11
100.0564175472
 21
126.284588576
 31
0.0
  0
LWPOLYLINE
  5
150
330
1F
100
AcDbEntity
  8
0
  6
SLD-Durchgehend
 62
     7
370
    25
100
AcDbPolyline
 90
       26
 70
   128
 43
0.0
 10
100.0564175472
 20
126.284588576
 10
100.8540333614
 20
125.8820827812
 10
101.6390702978
 20
125.6018207706
 10
102.3991478549
 20
125.4482224437
 10
103.1222791555
 20
125.4237101377
 10
103.7970599872
 20
125.5286704263
 10
104.412848653
 20
125.7614480232
 10
104.9599337978
 20
126.1183718865
 10
105.4296875622
 20
126.5938131138
 10
105.8147016486
 20
127.1802737128
 10
106.1089041548
 20
127.8685048495
 10
106.3076553317
 20
128.6476527079
 10
106.4078207545
 20
129.5054296608
 10
106.4078207545
 20
130.4283080531
 10
106.3076553317
 20
131.4017335413
 10
106.1089041548
 20
132.4103546241
 10
105.8147016486
 20
133.4382647443
 10
105.4296875622
 20
134.4692531454
 10
104.9599337978
 20
135.4870605244
 10
104.412848653
 20
136.4756354509
 10
103.7970599872
 20
137.4193875078
 10
103.1222791555
 20
138.3034331614
 10
102.3991478549
 20
139.1138304835
 10
101.6390702978
 20
139.8377990244
 10
100.8540333614
 20
140.4639213677
 10
100.0564175472
 20
140.98232319
  0
LINE
  5
151
330
1F
100
AcDbEntity
  8
0
  6
SLD-Durchgehend
 62
     7
370
    25
100
AcDbLine
 10
100.0564175472
 20
140.98232319
 30
0.0
 11
95.8137768601
 21
143.4315475254
 31
0.0
  0
LWPOLYLINE
  5
152
330
1F
100
AcDbEntity
  8
0
  6
SLD-Durchgehend
 62
     7
370
    25
100
AcDbPolyline
 90
       26
 70
   128
 43
0.0
 10
95.8137768601
 20
143.4315475254
 10
95.0161610458
 20
143.8340533202
 10
94.2311241094
 20
144.1143153308
 10
93.4710465523
 20
144.2679136578
 10
92.7479152517
 20
144.2924259638
 10
92.0731344201
 20
144.1874656751
 10
91.4573457543
 20
143.9546880782
 10
90.9102606094
 20
143.5977642149
 10
90.440506845
 20
143.1223229877
 10
90.0554927587
 20
142.5358623887
 10
89.7612902524
 20
141.8476312519
 10
89.5625390755
 20
141.0684833935
 10
89.4623736528
 20
140.2107064407
 10
89.4623736528
 20
139.2878280484
 10
89.5625390755
 20
138.3144025601
 10
89.7612902524
 20
137.3057814774
 10
90.0554927587
 20
136.2778713571
 10
90.440506845
 20
135.246882956
 10
90.9102606094
 20
134.229075577
 10
91.4573457543
 20
133.2405006505
 10
92.0731344201
 20
132.2967485936
 10
92.7479152517
 20
131.4127029401
 10
93.4710465523
 20
130.6023056179
 10
94.2311241094
 20
129.878337077
 10
95.0161610458
 20
129.2522147337
 10
95.8137768601
 20
128.7338129115
  0
LINE
  5
153
330
1F
100
AcDbEntity
  8
0
  6
SLD-Durchgehend
 62
     7
370
    25
100
AcDbLine
 10
91.5711361729
 20
172.7028207071
 30
0.0
 11
91.5711361729
 21
166.170494212
 31
0.0
  0
LWPOLYLINE
  5
154
330
1F
100
AcDbEntity
  8
0
  6
SLD-Durchgehend
 62
     7
370
    25
100
AcDbPolyline
 90
       26
 70
   128
 43
0.0
 10
91.5711361729
 20
166.170494212
 10
91.6213179065
 20
165.2204676112
 10
91.7710717112
 20
164.2274849011
 10
92.0180358802
 20
163.2072060123
 10
92.3583156409
 20
162.1757213523
 10
92.7865445783
 20
161.1492980503
 10
93.2959692661
 20
160.144123415
 10
93.8785557728
 20
159.1760496509
 10
94.5251163612
 20
158.2603438595
 10
95.2254543844
 20
157.4114472681
 10
95.9685250936
 20
156.6427474831
 10
96.7426098197
 20
155.9663673594
 10
97.5355007842
 20
155.3929738154
 10
98.334693623
 20
154.93160961
 10
99.1275845875
 20
154.5895507323
 10
99.9016693136
 20
154.372191655
 10
100.6447400228
 20
154.2829602608
 10
101.3450780461
 20
154.3232637819
 10
101.9916386344
 20
154.4924666078
 10
102.5742251411
 20
154.7879003088
 10
103.083649829
 20
155.204905719
 10
103.5118787663
 20
155.736906414
 10
103.852158527
 20
156.375512425
 10
104.099122696
 20
157.1106525537
 10
104.2488765007
 20
157.9307332011
 10
104.2990582343
 20
158.8228212056
  0
LINE
  5
155
330
1F
100
AcDbEntity
  8
0
  6
SLD-Durchgehend
 62
     7
370
    25
100
AcDbLine
 10
104.2990582343
 20
158.8228212056
 30
0.0
 11
104.2990582343
 21
165.3551477007
 31
0.0
  0
LWPOLYLINE
  5
156
330
1F
100
AcDbEntity
  8
0
  6
SLD-Durchgehend
 62
     7
370
    25
100
AcDbPolyline
 90
       26
 70
   128
 43
0.0
 10
104.2990582343
 20
165.3551477007
 10
104.2488765007
 20
166.3051743014
 10
104.099122696
 20
167.2981570115
 10
103.852158527
 20
168.3184359003
 10
103.5118787663
 20
169.3499205603
 10
103.083649829
 20
170.3763438623
 10
102.5742251411
 20
171.3815184976
 10
101.9916386344
 20
172.3495922617
 10
101.3450780461
 20
173.2652980532
 10
100.6447400228
 20
174.1141946445
 10
99.9016693136
 20
174.8828944295
 10
99.1275845875
 20
175.5592745532
 10
98.334693623
 20
176.1326680972
 10
97.5355007842
 20
176.5940323026
 10
96.7426098197
 20
176.9360911803
 10
95.9685250936
 20
177.1534502576
 10
95.2254543844
 20
177.2426816518
 10
94.5251163612
 20
177.2023781307
 10
93.8785557728
 20
177.0331753048
 10
93.2959692661
 20
176.7377416038
 10
92.7865445783
 20
176.3207361936
 10
92.3583156409
 20
175.7887354986
 10
92.0180358802
 20
175.1501294876
 10
91.7710717112
 20
174.414989359
 10
91.6213179065
 20
173.5949087115
 10
91.5711361729
 20
172.7028207071
  0
LINE
  5
157
330
1F
100
AcDbEntity
  8
0
  6
SLD-Durchgehend
 62
     7
370
    25
100
AcDbLine
 10
112.7843396085
 20
121.3854764048
 30
0.0
 11
111.3701260462
 21
122.2021499167
 31
0.0
  0
LINE
  5
158
330
1F
100
AcDbEntity
  8
0
  6
SLD-Durchgehend
 62
     7
370
    25
100
AcDbLine
 10
111.3701260462
 20
122.2021499167
 30
0.0
 11
109.9559124838
 21
119.7526601811
 31
0.0
  0
LWPOLYLINE
  5
159
330
1F
100
AcDbEntity
  8
0
  6
SLD-Durchgehend
 62
     7
370
    25
100
AcDbPolyline
 90
       16
 70
   128
 43
0.0
 10
104.723322303
 20
193.8112265283
 10
104.775859034
 20
193.2036852243
 10
104.9311731198
 20
192.5620387721
 10
105.1824765895
 20
191.9143302006
 10
105.5187862756
 20
191.2888674825
 10
105.925403831
 20
190.7129863398
 10
106.3845581175
 20
190.2118555419
 10
106.8761818893
 20
189.8073769093
 10
107.3787888287
 20
189.5172280992
 10
107.8704126006
 20
189.3540900068
 10
108.3295668871
 20
189.3250925497
 10
108.7361844425
 20
189.4315030558
 10
109.0724941286
 20
189.6686708755
 10
109.3237975983
 20
190.0262306368
 10
109.4791116841
 20
190.4885552626
 10
109.5088028126
 20
190.6668089244
  0
LWPOLYLINE
  5
15A
330
1F
100
AcDbEntity
  8
0
  6
SLD-Durchgehend
 62
     7
370
    25
100
AcDbPolyline
 90
        8
 70
   128
 43
0.0
 10
106.7972257774
 20
195.3639070584
 10
106.3845581175
 20
195.4925754697
 10
105.925403831
 20
195.5215729268
 10
105.5187862756
 20
195.4151624207
 10
105.1824765895
 20
195.177994601
 10
104.9311731198
 20
194.8204348397
 10
104.775859034
 20
194.3581102139
 10
104.723322303
 20
193.8112265283
  0
ARC
  5
15B
330
1F
100
AcDbEntity
  8
0
  6
SLD-Durchgehend
 62
     7
370
    25
100
AcDbCircle
 10
101.1241815422
 20
174.9083348774
 30
0.0
 40
6.019759334975332
100
AcDbArc
 50
157.4440136953
 51
181.5658398404
  0
LINE
  5
15C
330
1F
100
AcDbEntity
  8
0
  6
SLD-Durchgehend
 62
     7
370
    25
100
AcDbLine
 10
106.8446426466
 20
195.0358386961
 30
0.0
 11
106.8596516759
 21
195.3369070236
 31
0.0
  0
ARC
  5
15D
330
1F
100
AcDbEntity
  8
0
  6
SLD-Durchgehend
 62
     7
370
    25
100
AcDbCircle
 10
111.8990152002
 20
195.1935028462
 30
0.0
 40
5.056831013164366
100
AcDbArc
 50
181.7866831156
 51
241.6892892044
  0
LINE
  5
15E
330
1F
100
AcDbEntity
  8
0
  6
SLD-Durchgehend
 62
     7
370
    25
100
AcDbLine
 10
85.3619290915
 20
223.2417940664
 30
0.0
 11
85.510882338
 21
223.3330656102
 31
0.0
  0
LWPOLYLINE
  5
15F
330
1F
100
AcDbEntity
  8
0
  6
SLD-Durchgehend
 62
     7
370
    25
100
AcDbPolyline
 90
       16
 70
   128
 43
0.0
 10
104.2990582343
 20
161.2215197572
 10
104.1760054692
 20
161.0415585583
 10
103.8221430848
 20
160.704729075
 10
103.3882027804
 20
160.4984260697
 10
102.8889618726
 20
160.429674944
 10
102.3414214117
 20
160.500816935
 10
101.7642272315
 20
160.7094293875
 10
101.1770349875
 20
161.0484082546
 10
100.5998408074
 20
161.5062100175
 10
100.0523003465
 20
162.0672447864
 10
99.5530594387
 20
162.712407195
 10
99.1191191343
 20
163.4197270112
 10
98.7652567498
 20
164.1651173072
 10
98.5035226445
 20
164.9231947104
 10
98.3428298592
 20
165.6681438039
 10
98.2886505942
 20
166.3745962399
  0
ARC
  5
160
330
1F
100
AcDbEntity
  8
0
  6
SLD-Durchgehend
 62
     7
370
    25
100
AcDbCircle
 10
100.2968448552
 20
173.2109895558
 30
0.0
 40
2.031083656891723
100
AcDbArc
 50
109.0588098195
 51
188.609929471
  0
LINE
  5
161
330
1F
100
AcDbEntity
  8
0
  6
SLD-Durchgehend
 62
     7
370
    25
100
AcDbLine
 10
98.2886505942
 20
166.3745962399
 30
0.0
 11
98.2886505942
 21
172.906922735
 31
0.0
  0
ARC
  5
162
330
1F
100
AcDbEntity
  8
0
  6
SLD-Durchgehend
 62
     7
370
    25
100
AcDbCircle
 10
107.581577104
 20
168.2501382972
 30
0.0
 40
12.47496681696638
100
AcDbArc
 50
180.1773940262
 51
252.5507668376
  0
LINE
  5
163
330
1F
100
AcDbEntity
  8
0
  6
SLD-Durchgehend
 62
     7
370
    25
100
AcDbLine
 10
95.1066700789
 20
174.7438409866
 30
0.0
 11
95.1066700789
 21
168.2115144915
 31
0.0
  0
ARC
  5
164
330
1F
100
AcDbEntity
  8
0
  6
SLD-Durchgehend
 62
     7
370
    25
100
AcDbCircle
 10
91.4909994547
 20
221.2026948591
 30
0.0
 40
4.849468549788935
100
AcDbArc
 50
53.1466013049
 51
115.542940266
  0
ARC
  5
165
330
1F
100
AcDbEntity
  8
0
  6
SLD-Durchgehend
 62
     7
370
    25
100
AcDbCircle
 10
106.7423155589
 20
133.4539160821
 30
0.0
 40
6.018665052077547
100
AcDbArc
 50
238.4372290714
 51
262.5520748972
  0
ARC
  5
166
330
1F
100
AcDbEntity
  8
0
  6
SLD-Durchgehend
 62
     7
370
    25
100
AcDbCircle
 10
104.8590856656
 20
133.5870480926
 30
0.0
 40
2.030816543852271
100
AcDbArc
 50
231.3946134026
 51
310.9395218909
  0
LWPOLYLINE
  5
167
330
1F
100
AcDbEntity
  8
0
  6
SLD-Durchgehend
 62
     7
370
    25
100
AcDbPolyline
 90
       16
 70
   128
 43
0.0
 10
99.349310766
 20
134.4492668445
 10
98.7646233806
 20
134.8493639031
 10
98.1998468228
 20
135.3609645672
 10
97.6742138811
 20
135.9666468899
 10
97.2056243546
 20
136.6457850862
 10
96.8100354979
 20
137.3752519192
 10
96.5009186148
 20
138.1302062709
 10
96.2888003103
 20
138.8849390764
 10
96.1809040186
 20
139.613748815
 10
96.1809040186
 20
140.2918167453
 10
96.2888003103
 20
140.8960520772
 10
96.5009186148
 20
141.4058783012
 10
96.8100354979
 20
141.8039338966
 10
97.2056243546
 20
142.0766635575
 10
97.6742138811
 20
142.2147798025
 10
97.8926881754
 20
142.2314175686
  0
LINE
  5
168
330
1F
100
AcDbEntity
  8
0
  6
SLD-Durchgehend
 62
     7
370
    25
100
AcDbLine
 10
103.5919514531
 20
132.0000425091
 30
0.0
 11
99.349310766
 21
134.4492668445
 31
0.0
  0
LINE
  5
169
330
1F
100
AcDbEntity
  8
0
  6
SLD-Durchgehend
 62
     7
370
    25
100
AcDbLine
 10
99.349310766
 20
130.774833191
 30
0.0
 11
103.5919514531
 21
128.3256088556
 31
0.0
  0
ARC
  5
16A
330
1F
100
AcDbEntity
  8
0
  6
SLD-Durchgehend
 62
     7
370
    25
100
AcDbCircle
 10
105.6203964449
 20
141.55920968
 30
0.0
 40
12.4751469669379
100
AcDbArc
 50
167.4444799013
 51
239.822115005
  0
ELLIPSE
  5
16B
330
1F
100
AcDbEntity
  8
0
  6
SLD-Durchgehend
 62
     7
370
    25
100
AcDbEllipse
 10
108.5416989214
 20
120.5690682929
 30
0.0
 11
1.414271023575054
 21
2.449456561252461
 31
0.0
210
0.0
220
0.0
230
1.0
 40
0.5773346305
 41
3.926950184956207
 42
4.712429612415753
  0
ELLIPSE
  5
16C
330
1F
100
AcDbEntity
  8
0
  6
SLD-Durchgehend
 62
     7
370
    25
100
AcDbEllipse
 10
111.3701260462
 20
122.2018845166
 30
0.0
 11
2.000000010455949
 21
-1.154763104062298
 31
0.0
210
0.0
220
0.0
230
1.0
 40
0.0000703729
 41
5.497827772934516
 42
7.068624105568571
  0
LINE
  5
16D
330
1F
100
AcDbEntity
  8
0
  6
SLD-Durchgehend
 62
     7
370
    25
100
AcDbLine
 10
111.3698961967
 20
122.2017518057
 30
0.0
 11
112.7843396085
 21
121.3852110046
 31
0.0
  0
LINE
  5
16E
330
1F
100
AcDbEntity
  8
0
  6
SLD-Durchgehend
 62
     7
370
    25
100
AcDbLine
 10
127.7627004082
 20
93.3180510238
 30
0.0
 11
127.6226867692
 21
93.2333596228
 31
0.0
  0
ARC
  5
16F
330
1F
100
AcDbEntity
  8
0
  6
SLD-Durchgehend
 62
     7
370
    25
100
AcDbCircle
 10
128.1354412596
 20
100.3154705584
 30
0.0
 40
5.898820407999311
100
AcDbArc
 50
304.9159547339
 51
6.3962256595
  0
ARC
  5
170
330
1F
100
AcDbEntity
  8
0
  6
SLD-Durchgehend
 62
     8
370
    18
100
AcDbCircle
 10
114.7992467554
 20
191.139339694
 30
0.0
 40
15.32403015206192
100
AcDbArc
 50
2.520154907
 51
57.4798452386
  0
ARC
  5
171
330
1F
100
AcDbEntity
  8
0
  6
SLD-Durchgehend
 62
     8
370
    18
100
AcDbCircle
 10
129.754902357
 20
192.4955053979
 30
0.0
 40
0.7685109539556585
100
AcDbArc
 50
242.6096722366
 51
297.3903277634
  0
ARC
  5
172
330
1F
100
AcDbEntity
  8
0
  6
SLD-Durchgehend
 62
     8
370
    18
100
AcDbCircle
 10
114.8167960034
 20
191.1494717589
 30
0.0
 40
14.59964567193458
100
AcDbArc
 50
2.6054784857
 51
57.39452166
  0
ARC
  5
173
330
1F
100
AcDbEntity
  8
0
  6
SLD-Durchgehend
 62
     8
370
    18
100
AcDbCircle
 10
123.4514425958
 20
203.4132956733
 30
0.0
 40
0.7684024037861685
100
AcDbArc
 50
122.60547834
 51
177.3945215143
  0
LINE
  5
174
330
1F
100
AcDbEntity
  8
0
  6
SLD-Durchgehend
 62
     8
370
    18
100
AcDbLine
 10
133.9975430441
 20
194.0582721629
 30
0.0
 11
130.1084557476
 21
191.8131498554
 31
0.0
  0
LINE
  5
175
330
1F
100
AcDbEntity
  8
0
  6
SLD-Durchgehend
 62
     8
370
    18
100
AcDbLine
 10
126.9264752323
 20
206.3057208409
 30
0.0
 11
123.0373879357
 21
204.0605985334
 31
0.0
  0
LWPOLYLINE
  5
176
330
1F
100
AcDbEntity
  8
0
  6
SLD-Durchgehend
 62
     8
370
    18
100
AcDbPolyline
 90
        9
 70
   128
 43
0.0
 10
115.9663201239
 20
122.8141906004
 10
115.9323529776
 20
122.4355513918
 10
115.831756877
 20
122.110680708
 10
115.6683976739
 20
121.8520631471
 10
115.4485531709
 20
121.6696372371
 10
115.1806718689
 20
121.5704135034
 10
114.8750482961
 20
121.5582050583
 10
114.543427395
 20
121.6334810656
 10
114.448410958
 20
121.6696020483
  0
LINE
  5
177
330
1F
100
AcDbEntity
  8
0
  6
SLD-Durchgehend
 62
     8
370
    18
100
AcDbLine
 10
115.9663201239
 20
174.1321736149
 30
0.0
 11
115.9663201239
 21
122.8141906004
 31
0.0
  0
ELLIPSE
  5
178
330
1F
100
AcDbEntity
  8
0
  6
SLD-Durchgehend
 62
     8
370
    18
100
AcDbEllipse
 10
114.1985531709
 20
175.1526837547
 30
0.0
 11
-1.205876731837634
 21
2.241460992307793
 31
0.0
210
0.0
220
0.0
230
1.0
 40
0.5766854787
 41
3.961694291696695
 42
5.532490618491595
  0
LINE
  5
179
330
1F
100
AcDbEntity
  8
0
  6
SLD-Durchgehend
 62
     8
370
    18
100
AcDbLine
 10
98.6422039848
 20
186.2465361169
 30
0.0
 11
114.1985531709
 21
177.2660468869
 31
0.0
  0
ELLIPSE
  5
17A
330
1F
100
AcDbEntity
  8
0
  6
SLD-Durchgehend
 62
     8
370
    18
100
AcDbEllipse
 10
98.6422039848
 20
184.1331729847
 30
0.0
 11
-1.205876731837634
 21
2.241460992307793
 31
0.0
210
0.0
220
0.0
230
1.0
 40
0.5766854787
 41
5.532490618491595
 42
6.858831593544208
  0
ARC
  5
17B
330
1F
100
AcDbEntity
  8
0
  6
SLD-Durchgehend
 62
     8
370
    18
100
AcDbCircle
 10
101.0065786569
 20
126.0134608959
 30
0.0
 40
17.58328852828433
100
AcDbArc
 50
182.4534496702
 51
237.5465504754
  0
LINE
  5
17C
330
1F
100
AcDbEntity
  8
0
  6
SLD-Durchgehend
 62
     8
370
    18
100
AcDbLine
 10
83.4394081893
 20
218.3464134896
 30
0.0
 11
83.4394081893
 21
125.2607609347
 31
0.0
  0
ARC
  5
17D
330
1F
100
AcDbEntity
  8
0
  6
SLD-Durchgehend
 62
     8
370
    18
100
AcDbCircle
 10
87.5346146798
 20
219.0107218602
 30
0.0
 40
4.148737375570548
100
AcDbArc
 50
50.7967147643
 51
189.2140369905
  0
LINE
  5
17E
330
1F
100
AcDbEntity
  8
0
  6
SLD-Durchgehend
 62
     8
370
    18
100
AcDbLine
 10
122.6838345451
 20
203.4482260995
 30
0.0
 11
90.1569226106
 21
222.2256126714
 31
0.0
  0
LINE
  5
17F
330
1F
100
AcDbEntity
  8
0
  6
SLD-Durchgehend
 62
     8
370
    18
100
AcDbLine
 10
129.4013489664
 20
98.7274973004
 30
0.0
 11
129.4013489664
 21
191.8131498554
 31
0.0
  0
LWPOLYLINE
  5
180
330
1F
100
AcDbEntity
  8
0
  6
SLD-Durchgehend
 62
     8
370
    18
100
AcDbPolyline
 90
       15
 70
   128
 43
0.0
 10
121.2696209828
 20
94.0316246067
 10
122.1800856463
 20
93.5650682724
 10
123.0791006884
 20
93.2224666112
 10
123.9553604733
 20
93.0081280378
 10
124.7978455258
 20
92.9247479841
 10
125.5959611076
 20
92.9733750026
 10
126.3396704521
 20
93.1533975804
 10
127.0196209828
 20
93.4625518291
 10
127.6272619272
 20
93.8969499547
 10
128.1549518481
 20
94.4511291486
 10
128.5960547383
 20
95.118120286
 10
128.9450234731
 20
95.8895355663
 10
129.1974695683
 20
96.7556739948
 10
129.3502183676
 20
97.7056433783
 10
129.4013489664
 20
98.7274973004
  0
LINE
  5
181
330
1F
100
AcDbEntity
  8
0
  6
SLD-Durchgehend
 62
     8
370
    18
100
AcDbLine
 10
91.5711361729
 20
111.176194955
 30
0.0
 11
121.2696209828
 21
94.0316246067
 31
0.0
  0
LINE
  5
182
330
1F
100
AcDbEntity
  8
0
  6
SLD-Durchgehend
 62
     8
370
    18
100
AcDbLine
 10
130.1084557476
 20
191.8131498554
 30
0.0
 11
130.1084557476
 21
98.7274973004
 31
0.0
  0
ARC
  5
183
330
1F
100
AcDbEntity
  8
0
  6
SLD-Durchgehend
 62
     8
370
    18
100
AcDbCircle
 10
129.754902357
 20
99.4098528429
 30
0.0
 40
0.7685109539558987
100
AcDbArc
 50
242.6096722366
 51
297.3903277634
  0
LINE
  5
184
330
1F
100
AcDbEntity
  8
0
  6
SLD-Durchgehend
 62
     8
370
    18
100
AcDbLine
 10
90.5104760012
 20
222.8379851053
 30
0.0
 11
123.0373879357
 21
204.0605985334
 31
0.0
  0
ARC
  5
185
330
1F
100
AcDbEntity
  8
0
  6
SLD-Durchgehend
 62
     8
370
    18
100
AcDbCircle
 10
90.9245306612
 20
222.1906822453
 30
0.0
 40
0.7684024037860747
100
AcDbArc
 50
122.60547834
 51
177.3945215143
  0
LINE
  5
186
330
1F
100
AcDbEntity
  8
0
  6
SLD-Durchgehend
 62
     8
370
    18
100
AcDbLine
 10
133.9975430441
 20
100.9726196079
 30
0.0
 11
130.1084557476
 21
98.7274973004
 31
0.0
  0
LINE
  5
187
330
1F
100
AcDbEntity
  8
0
  6
SLD-Durchgehend
 62
     8
370
    18
100
AcDbLine
 10
94.3995632977
 20
225.0831074128
 30
0.0
 11
90.5104760012
 21
222.8379851053
 31
0.0
  0
ELLIPSE
  5
188
330
1F
100
AcDbEntity
  8
0
  6
SLD-Durchgehend
 62
     8
370
    18
100
AcDbEllipse
 10
105.7132717967
 20
172.6609410462
 30
0.0
 11
-0.7235260391025804
 21
1.344876595384676
 31
0.0
210
0.0
220
0.0
230
1.0
 40
0.5766854787
 41
3.961694291696713
 42
5.53249061849159
  0
ARC
  5
189
330
1F
100
AcDbEntity
  8
0
  6
SLD-Durchgehend
 62
     8
370
    18
100
AcDbCircle
 10
106.4374611179
 20
173.911790741
 30
0.0
 40
0.7243927937058631
100
AcDbArc
 50
112.6641689785
 51
178.6419569123
  0
ELLIPSE
  5
18A
330
1F
100
AcDbEntity
  8
0
  6
SLD-Durchgehend
 62
     8
370
    18
100
AcDbEllipse
 10
106.0668251873
 20
172.8650430742
 30
0.0
 11
-0.8746932190272361
 21
1.822665691268611
 31
0.0
210
0.0
220
0.0
230
1.0
 40
0.6117561732
 41
3.982581521883479
 42
5.553377848678377
  0
ARC
  5
18B
330
1F
100
AcDbEntity
  8
0
  6
SLD-Durchgehend
 62
     8
370
    18
100
AcDbCircle
 10
107.127485359
 20
172.7309905048
 30
0.0
 40
0.7685109539556904
100
AcDbArc
 50
242.6096722366
 51
297.3903277634
  0
ELLIPSE
  5
18C
330
1F
100
AcDbEntity
  8
0
  6
SLD-Durchgehend
 62
     8
370
    18
100
AcDbEllipse
 10
113.8449997803
 20
174.9485817267
 30
0.0
 11
-1.045985247863001
 21
1.767002466017743
 31
0.0
210
0.0
220
0.0
230
1.0
 40
0.5411334982
 41
3.946783685622067
 42
5.51758001241696
  0
LINE
  5
18D
330
1F
100
AcDbEntity
  8
0
  6
SLD-Durchgehend
 62
     8
370
    18
100
AcDbLine
 10
115.2592133427
 20
174.1321736149
 30
0.0
 11
107.4810387496
 21
172.0486349623
 31
0.0
  0
LINE
  5
18E
330
1F
100
AcDbEntity
  8
0
  6
SLD-Durchgehend
 62
     8
370
    18
100
AcDbLine
 10
106.1583315382
 20
174.5802453747
 30
0.0
 11
113.7534934294
 21
176.6147604377
 31
0.0
  0
LINE
  5
18F
330
1F
100
AcDbEntity
  8
0
  6
SLD-Durchgehend
 62
     8
370
    18
100
AcDbLine
 10
106.7739319684
 20
118.3239459854
 30
0.0
 11
106.7739319684
 21
172.0486349623
 31
0.0
  0
ARC
  5
190
330
1F
100
AcDbEntity
  8
0
  6
SLD-Durchgehend
 62
     8
370
    18
100
AcDbCircle
 10
106.1273204173
 20
118.2190551901
 30
0.0
 40
0.6550637961427191
100
AcDbArc
 50
230.7967147643
 51
9.2140369905
  0
LINE
  5
191
330
1F
100
AcDbEntity
  8
0
  6
SLD-Durchgehend
 62
     8
370
    18
100
AcDbLine
 10
90.1569226106
 20
126.6919300815
 30
0.0
 11
105.7132717967
 21
117.7114408515
 31
0.0
  0
ARC
  5
192
330
1F
100
AcDbEntity
  8
0
  6
SLD-Durchgehend
 62
     8
370
    18
100
AcDbCircle
 10
91.3990865908
 20
128.6338386616
 30
0.0
 40
2.305207211358184
100
AcDbArc
 50
182.6054784857
 51
237.39452166
  0
LINE
  5
193
330
1F
100
AcDbEntity
  8
0
  6
SLD-Durchgehend
 62
     8
370
    18
100
AcDbLine
 10
89.0962624388
 20
182.2537363601
 30
0.0
 11
89.0962624388
 21
128.5290473832
 31
0.0
  0
ELLIPSE
  5
194
330
1F
100
AcDbEntity
  8
0
  6
SLD-Durchgehend
 62
     8
370
    18
100
AcDbEllipse
 10
90.1569226106
 20
181.6414302762
 30
0.0
 11
-0.7235260391025804
 21
1.344876595384648
 31
0.0
210
0.0
220
0.0
230
1.0
 40
0.5766854787
 41
5.532490618491594
 42
7.103286945286452
  0
LINE
  5
195
330
1F
100
AcDbEntity
  8
0
  6
SLD-Durchgehend
 62
     8
370
    18
100
AcDbLine
 10
105.7132717967
 20
173.9289589255
 30
0.0
 11
90.1569226106
 21
182.9094481556
 31
0.0
  0
ARC
  5
196
330
1F
100
AcDbEntity
  8
0
  6
SLD-Durchgehend
 62
     8
370
    18
100
AcDbCircle
 10
90.8811119318
 20
182.892279971
 30
0.0
 40
0.7243927937059239
100
AcDbArc
 50
112.6641689785
 51
178.6419569123
  0
LINE
  5
197
330
1F
100
AcDbEntity
  8
0
  6
SLD-Durchgehend
 62
     8
370
    18
100
AcDbLine
 10
90.6019823521
 20
183.5607346047
 30
0.0
 11
106.1583315382
 21
174.5802453747
 31
0.0
  0
LINE
  5
198
330
1F
100
AcDbEntity
  8
0
  6
SLD-Durchgehend
 62
     8
370
    18
100
AcDbLine
 10
107.4810387496
 20
172.0486349623
 30
0.0
 11
107.4810387496
 21
118.3239459854
 31
0.0
  0
ARC
  5
199
330
1F
100
AcDbEntity
  8
0
  6
SLD-Durchgehend
 62
     8
370
    18
100
AcDbCircle
 10
107.127485359
 20
119.0063015279
 30
0.0
 40
0.7685109539558604
100
AcDbArc
 50
242.6096722366
 51
297.3903277634
  0
LINE
  5
19A
330
1F
100
AcDbEntity
  8
0
  6
SLD-Durchgehend
 62
     8
370
    18
100
AcDbLine
 10
115.2592133427
 20
122.8141906004
 30
0.0
 11
115.2592133427
 21
174.1321736149
 31
0.0
  0
LINE
  5
19B
330
1F
100
AcDbEntity
  8
0
  6
SLD-Durchgehend
 62
     8
370
    18
100
AcDbLine
 10
112.7843396085
 20
121.3854764048
 30
0.0
 11
115.2592133427
 21
122.8141906004
 31
0.0
  0
LINE
  5
19C
330
1F
100
AcDbEntity
  8
0
  6
SLD-Durchgehend
 62
     8
370
    18
100
AcDbLine
 10
107.4810387496
 20
118.3239459854
 30
0.0
 11
109.9559124838
 21
119.7526601811
 31
0.0
  0
LINE
  5
19D
330
1F
100
AcDbEntity
  8
0
  6
SLD-Durchgehend
 62
     8
370
    18
100
AcDbLine
 10
113.7534934294
 20
176.6147604377
 30
0.0
 11
98.1971442433
 21
185.5952496678
 31
0.0
  0
LINE
  5
19E
330
1F
100
AcDbEntity
  8
0
  6
SLD-Durchgehend
 62
     8
370
    18
100
AcDbLine
 10
98.1971442433
 20
185.5952496678
 30
0.0
 11
90.6019823521
 21
183.5607346047
 31
0.0
  0
LINE
  5
19F
330
1F
100
AcDbEntity
  8
0
  6
SLD-Durchgehend
 62
     8
370
    18
100
AcDbLine
 10
95.1066700789
 20
174.7438409866
 30
0.0
 11
91.5711361729
 21
172.7028207071
 31
0.0
  0
ARC
  5
1A0
330
1F
100
AcDbEntity
  8
0
  6
SLD-Durchgehend
 62
     8
370
    18
100
AcDbCircle
 10
83.5320494517
 20
218.5674705583
 30
0.0
 40
0.2396844407375726
100
AcDbArc
 50
184.0433504592
 51
247.2622701179
  0
ARC
  5
1A1
330
1F
100
AcDbEntity
  8
0
  6
SLD-Durchgehend
 62
     8
370
    18
100
AcDbCircle
 10
87.571603769
 20
218.6515018639
 30
0.0
 40
5.115037822659811
100
AcDbArc
 50
54.9315025352
 51
113.7580390357
  0
ARC
  5
1A2
330
1F
100
AcDbEntity
  8
0
  6
SLD-Durchgehend
 62
     8
370
    18
100
AcDbCircle
 10
113.4743638497
 20
177.2832150714
 30
0.0
 40
0.7243927937058704
100
AcDbArc
 50
292.6641689785
 51
358.6419569123
  0
ARC
  5
1A3
330
1F
100
AcDbEntity
  8
0
  6
SLD-Durchgehend
 62
     8
370
    18
100
AcDbCircle
 10
115.6127667333
 20
173.4498180724
 30
0.0
 40
0.7685109539559614
100
AcDbArc
 50
62.6096722366
 51
117.3903277634
  0
ARC
  5
1A4
330
1F
100
AcDbEntity
  8
0
  6
SLD-Durchgehend
 62
     8
370
    18
100
AcDbCircle
 10
97.9180146635
 20
186.2637043015
 30
0.0
 40
0.7243927937058183
100
AcDbArc
 50
292.6641689785
 51
358.6419569123
  0
ARC
  5
1A5
330
1F
100
AcDbEntity
  8
0
  6
SLD-Durchgehend
 62
     8
370
    18
100
AcDbCircle
 10
115.6127667333
 20
122.131835058
 30
0.0
 40
0.7685109539558922
100
AcDbArc
 50
62.6096722366
 51
117.3903277634
  0
LINE
  5
1A6
330
1F
100
AcDbEntity
  8
0
  6
SLD-Durchgehend
 62
     8
370
    18
100
AcDbLine
 10
100.5541210137
 20
174.2147509703
 30
0.0
 11
98.2886505942
 21
172.906922735
 31
0.0
  0
LINE
  5
1A7
330
1F
100
AcDbEntity
  8
0
  6
SLD-Durchgehend
 62
     8
370
    18
100
AcDbLine
 10
95.1066700789
 20
168.2115144915
 30
0.0
 11
91.5711361729
 21
166.170494212
 31
0.0
  0
ARC
  5
1A8
330
1F
100
AcDbEntity
  8
0
  6
SLD-Durchgehend
 62
     8
370
    18
100
AcDbCircle
 10
89.2000578653
 20
182.4828075359
 30
0.0
 40
0.2514897495823232
100
AcDbArc
 50
185.709736242
 51
245.6240398042
  0
ELLIPSE
  5
1A9
330
1F
100
AcDbEntity
  8
0
  6
SLD-Durchgehend
 62
     8
370
    18
100
AcDbEllipse
 10
90.5104760012
 20
181.8455323042
 30
0.0
 11
-0.8746932190272361
 21
1.822665691268583
 31
0.0
210
0.0
220
0.0
230
1.0
 40
0.6117561732
 41
5.553377848678364
 42
6.147994340517903
  0
ELLIPSE
  5
1AA
330
1F
100
AcDbEntity
  8
0
  6
SLD-Durchgehend
 62
     8
370
    18
100
AcDbEllipse
 10
98.2886505942
 20
183.9290709568
 30
0.0
 11
-1.045985247863001
 21
1.767002466017715
 31
0.0
210
0.0
220
0.0
230
1.0
 40
0.5411334982
 41
5.517580012416952
 42
6.13295506177204
  0
ARC
  5
1AB
330
1F
100
AcDbEntity
  8
0
  6
SLD-Durchgehend
 62
     8
370
    18
100
AcDbCircle
 10
89.2000443606
 20
128.7581025996
 30
0.0
 40
0.2514696392469906
100
AcDbArc
 50
185.6947992512
 51
245.6253417064
  0
ARC
  5
1AC
330
1F
100
AcDbEntity
  8
0
  6
SLD-Durchgehend
 62
     8
370
    18
100
AcDbCircle
 10
83.5431901111
 20
125.4898161511
 30
0.0
 40
0.2514696392468708
100
AcDbArc
 50
185.6947992512
 51
245.6253417064
  0
LINE
  5
1AD
330
1F
100
AcDbEntity
  8
0
  6
SLD-Durchgehend
 62
     8
370
    18
100
AcDbLine
 10
103.4995585233
 20
169.3827893562
 30
0.0
 11
98.2886505942
 21
166.3745962399
 31
0.0
  0
LINE
  5
1AE
330
1F
100
AcDbEntity
  8
0
  6
SLD-Durchgehend
 62
     8
370
    18
100
AcDbLine
 10
103.5919514531
 20
128.3256088556
 30
0.0
 11
100.0564175472
 21
126.284588576
 31
0.0
  0
LINE
  5
1AF
330
1F
100
AcDbEntity
  8
0
  6
SLD-Durchgehend
 62
     8
370
    18
100
AcDbLine
 10
105.8570655287
 20
133.3076650314
 30
0.0
 11
103.5919514531
 21
132.0000425091
 31
0.0
  0
LINE
  5
1B0
330
1F
100
AcDbEntity
  8
0
  6
SLD-Durchgehend
 62
     8
370
    18
100
AcDbLine
 10
99.349310766
 20
130.774833191
 30
0.0
 11
95.8137768601
 21
128.7338129115
 31
0.0
  0
ARC
  5
1B1
330
1F
100
AcDbEntity
  8
0
  6
SLD-Durchgehend
 62
     8
370
    18
100
AcDbCircle
 10
106.5305928788
 20
118.2025988876
 30
0.0
 40
0.9581609841169575
100
AcDbArc
 50
303.8570451701
 51
7.2758106153
  0
ARC
  5
1B2
330
1F
100
AcDbEntity
  8
0
  6
SLD-Durchgehend
 62
     8
370
    18
100
AcDbCircle
 10
105.9636125485
 20
117.6868078857
 30
0.0
 40
0.2515497466535653
100
AcDbArc
 50
174.3803146509
 51
234.2940012892
  0
LINE
  5
1B3
330
1F
100
AcDbEntity
  8
0
  6
SLD-Durchgehend
 62
     8
370
    18
100
AcDbLine
 10
103.9954718679
 20
137.131438557
 30
0.0
 11
99.349310766
 21
134.4492668445
 31
0.0
  0
ARC
  5
1B4
330
1F
100
AcDbEntity
  8
0
  6
SLD-Durchgehend
 62
     8
370
    18
100
AcDbCircle
 10
90.4019235617
 20
126.6648867128
 30
0.0
 40
0.2464889649766468
100
AcDbArc
 50
173.7011524782
 51
234.9866671284
  0
ARC
  5
1B5
330
1F
100
AcDbEntity
  8
0
  6
SLD-Durchgehend
 62
     8
370
    18
100
AcDbCircle
 10
114.279209538
 20
122.7060171258
 30
0.0
 40
0.9859558600178107
100
AcDbArc
 50
305.0133328754
 51
6.298847518
  0
ARC
  5
1B6
330
1F
100
AcDbEntity
  8
0
  6
SLD-Durchgehend
 62
     8
370
    18
100
AcDbCircle
 10
124.1836751104
 20
98.0833920495
 30
0.0
 40
5.959689352085839
100
AcDbArc
 50
306.9085033933
 51
6.2044739626
  0
ARC
  5
1B7
330
1F
100
AcDbEntity
  8
0
  6
SLD-Durchgehend
 62
     8
370
    18
100
AcDbCircle
 10
121.5074450882
 20
94.0013381705
 30
0.0
 40
0.2397448087535801
100
AcDbArc
 50
172.7425585004
 51
235.9597025285
  0
ARC
  5
1B8
330
1F
100
AcDbEntity
  8
0
  6
SLD-Durchgehend
 62
     8
370
    18
100
AcDbCircle
 10
91.8089789508
 20
111.1459129407
 30
0.0
 40
0.2397627731307739
100
AcDbArc
 50
172.7441704269
 51
235.9436491797
  0
ENDSEC
  0
SECTION
  2
OBJECTS
  0
DICTIONARY
  5
C
330
0
100
AcDbDictionary
281
     1
  3
ACAD_DETAILVIEWSTYLE
350
1C0
  3
ACAD_GROUP
350
D
  3
ACAD_LAYOUT
350
1A
  3
ACAD_MATERIAL
350
43
  3
ACAD_MLEADERSTYLE
350
6B
  3
ACAD_MLINESTYLE
350
17
  3
ACAD_PLOTSETTINGS
350
19
  3
ACAD_PLOTSTYLENAME
350
E
  3
ACAD_SCALELIST
350
47
  3
ACAD_SECTIONVIEWSTYLE
350
1C1
  3
ACAD_TABLESTYLE
350
69
  3
ACAD_VISUALSTYLE
350
2A
  3
ACDB_RECOMPOSE_DATA
350
1BD
  3
AcDbVariableDictionary
350
1B9
  0
SUN
  5
6D
330
29
100
AcDbSun
 90
        1
290
     0
 63
     7
421
 16777215
 40
1.0
291
     1
 91
  2455826
 92
 54000000
292
     0
 70
     2
 71
   256
280
     1
  0
DICTIONARY
  5
1C0
102
{ACAD_REACTORS
330
C
102
}
330
C
100
AcDbDictionary
281
     1
  0
DICTIONARY
  5
D
102
{ACAD_REACTORS
330
C
102
}
330
C
100
AcDbDictionary
281
     1
  0
DICTIONARY
  5
1A
102
{ACAD_REACTORS
330
C
102
}
330
C
100
AcDbDictionary
281
     1
  3
Layout1
350
1E
  3
Layout2
350
26
  3
Model
350
22
  0
DICTIONARY
  5
43
102
{ACAD_REACTORS
330
C
102
}
330
C
100
AcDbDictionary
281
     1
  3
ByBlock
350
45
  3
ByLayer
350
44
  3
Global
350
46
  0
DICTIONARY
  5
6B
102
{ACAD_REACTORS
330
C
102
}
330
C
100
AcDbDictionary
281
     1
  3
Standard
350
6C
  0
DICTIONARY
  5
17
102
{ACAD_REACTORS
330
C
102
}
330
C
100
AcDbDictionary
281
     1
  3
Standard
350
18
  0
DICTIONARY
  5
19
102
{ACAD_REACTORS
330
C
102
}
330
C
100
AcDbDictionary
281
     1
  0
ACDBDICTIONARYWDFLT
  5
E
102
{ACAD_REACTORS
330
C
102
}
330
C
100
AcDbDictionary
281
     1
  3
Normal
350
F
100
AcDbDictionaryWithDefault
340
F
  0
DICTIONARY
  5
47
102
{ACAD_REACTORS
330
C
102
}
330
C
100
AcDbDictionary
281
     1
  3
A0
350
48
  3
A1
350
49
  3
A2
350
4A
  3
A3
350
4B
  3
A4
350
4C
  3
A5
350
4D
  3
A6
350
4E
  3
A7
350
4F
  3
A8
350
50
  3
A9
350
51
  3
B0
350
52
  3
B1
350
53
  3
B2
350
54
  3
B3
350
55
  3
B4
350
56
  3
B5
350
57
  3
B6
350
58
  3
B7
350
59
  3
B8
350
5A
  3
B9
350
5B
  3
C0
350
5C
  3
C1
350
5D
  3
C2
350
5E
  3
C3
350
5F
  3
C4
350
60
  3
C5
350
61
  3
C6
350
62
  3
C7
350
63
  3
C8
350
64
  3
C9
350
65
  3
D0
350
66
  3
D1
350
67
  3
D2
350
68
  0
DICTIONARY
  5
1C1
102
{ACAD_REACTORS
330
C
102
}
330
C
100
AcDbDictionary
281
     1
  0
DICTIONARY
  5
69
102
{ACAD_REACTORS
330
C
102
}
330
C
100
AcDbDictionary
281
     1
  3
Standard
350
6A
  0
DICTIONARY
  5
2A
102
{ACAD_REACTORS
330
C
102
}
330
C
100
AcDbDictionary
281
     1
  3
2dWireframe
350
2F
  3
Basic
350
32
  3
Brighten
350
36
  3
ColorChange
350
3A
  3
Conceptual
350
34
  3
Dim
350
35
  3
EdgeColorOff
350
3D
  3
Facepattern
350
39
  3
Flat
350
2B
  3
FlatWithEdges
350
2C
  3
Gouraud
350
2D
  3
GouraudWithEdges
350
2E
  3
Hidden
350
31
  3
JitterOff
350
3B
  3
Linepattern
350
38
  3
OverhangOff
350
3C
  3
Realistic
350
33
  3
Shaded
350
42
  3
Shaded with edges
350
41
  3
Shades of Gray
350
3E
  3
Sketchy
350
3F
  3
Thicken
350
37
  3
Wireframe
350
30
  3
X-Ray
350
40
  0
XRECORD
  5
1BD
102
{ACAD_REACTORS
330
C
102
}
330
C
100
AcDbXrecord
280
     1
 90
        1
330
6A
  0
DICTIONARY
  5
1B9
102
{ACAD_REACTORS
330
C
102
}
330
C
100
AcDbDictionary
281
     1
  3
CANNOSCALE
350
1BA
  3
CENTEREXE
350
1C2
  3
CENTERLTYPEFILE
350
1C3
  3
CMLEADERSTYLE
350
1BF
  3
CTABLESTYLE
350
1BE
  0
LAYOUT
  5
1E
102
{ACAD_REACTORS
330
1A
102
}
330
1A
100
AcDbPlotSettings
  1

  2
none_device
  4

  6

 40
0.0
 41
0.0
 42
0.0
 43
0.0
 44
0.0
 45
0.0
 46
0.0
 47
0.0
 48
0.0
 49
0.0
140
0.0
141
0.0
142
1.0
143
1.0
 70
   688
 72
     1
 73
     0
 74
     5
  7

 75
    16
 76
     0
 77
     2
 78
   300
147
1.0
148
0.0
149
0.0
100
AcDbLayout
  1
Layout1
 70
     1
 71
     1
 10
0.0
 20
0.0
 11
420.0
 21
297.0
 12
0.0
 22
0.0
 32
0.0
 14
1.0000000000E+20
 24
1.0000000000E+20
 34
1.0000000000E+20
 15
-1.0000000000E+20
 25
-1.0000000000E+20
 35
-1.0000000000E+20
146
0.0
 13
0.0
 23
0.0
 33
0.0
 16
1.0
 26
0.0
 36
0.0
 17
0.0
 27
1.0
 37
0.0
 76
     0
330
1B
  0
LAYOUT
  5
26
102
{ACAD_REACTORS
330
1A
102
}
330
1A
100
AcDbPlotSettings
  1

  2
none_device
  4

  6

 40
0.0
 41
0.0
 42
0.0
 43
0.0
 44
0.0
 45
0.0
 46
0.0
 47
0.0
 48
0.0
 49
0.0
140
0.0
141
0.0
142
1.0
143
1.0
 70
   688
 72
     1
 73
     0
 74
     5
  7

 75
    16
 76
     0
 77
     2
 78
   300
147
1.0
148
0.0
149
0.0
100
AcDbLayout
  1
Layout2
 70
     1
 71
     2
 10
0.0
 20
0.0
 11
0.0
 21
0.0
 12
0.0
 22
0.0
 32
0.0
 14
0.0
 24
0.0
 34
0.0
 15
0.0
 25
0.0
 35
0.0
146
0.0
 13
0.0
 23
0.0
 33
0.0
 16
1.0
 26
0.0
 36
0.0
 17
0.0
 27
1.0
 37
0.0
 76
     0
330
23
  0
LAYOUT
  5
22
102
{ACAD_REACTORS
330
1A
102
}
330
1A
100
AcDbPlotSettings
  1

  2
none_device
  4
Letter_(8.50_x_11.00_Inches)
  6

 40
6.35
 41
6.35
 42
6.35000508
 43
6.35000508
 44
215.9
 45
279.4
 46
0.0
 47
0.0
 48
0.0
 49
0.0
140
0.0
141
0.0
142
1.0
143
1.0
 70
  1712
 72
     1
 73
     0
 74
     0
  7

 75
     0
 76
     0
 77
     2
 78
   300
147
1.0
148
0.0
149
0.0
100
AcDbLayout
  1
Model
 70
     1
 71
     0
 10
0.0
 20
0.0
 11
210.0
 21
297.0
 12
0.0
 22
0.0
 32
0.0
 14
0.0
 24
0.0
 34
0.0
 15
210.0
 25
297.0
 35
0.0
146
0.0
 13
0.0
 23
0.0
 33
0.0
 16
1.0
 26
0.0
 36
0.0
 17
0.0
 27
1.0
 37
0.0
 76
     0
330
1F
331
29
  0
MATERIAL
  5
45
102
{ACAD_REACTORS
330
43
102
}
330
43
100
AcDbMaterial
  1
ByBlock
 72
     1
 94
      127
  0
MATERIAL
  5
44
102
{ACAD_REACTORS
330
43
102
}
330
43
100
AcDbMaterial
  1
ByLayer
 72
     1
 94
      127
  0
MATERIAL
  5
46
102
{ACAD_REACTORS
330
43
102
}
330
43
100
AcDbMaterial
  1
Global
 72
     1
 94
      127
  0
MLEADERSTYLE
  5
6C
102
{ACAD_REACTORS
330
6B
102
}
330
6B
100
AcDbMLeaderStyle
179
     2
170
     2
171
     1
172
     0
 90
        2
 40
0.0
 41
0.0
173
     1
 91
-1056964608
340
14
 92
       -2
290
     1
 42
2.0
291
     1
 43
8.0
  3
Standard
341
0
 44
4.0
300

342
11
174
     1
178
     6
175
     1
176
     0
 93
-1056964608
 45
4.0
292
     0
297
     0
 46
4.0
343
0
 94
-1056964608
 47
1.0
 49
1.0
140
1.0
293
     1
141
0.0
294
     1
177
     0
142
1.0
295
     0
296
     0
143
3.75
271
     0
272
     9
273
     9
  0
MLINESTYLE
  5
18
102
{ACAD_REACTORS
330
17
102
}
330
17
100
AcDbMlineStyle
  2
Standard
 70
     0
  3

 62
   256
 51
90.0
 52
90.0
 71
     2
 49
0.5
 62
   256
  6
BYLAYER
 49
-0.5
 62
   256
  6
BYLAYER
  0
ACDBPLACEHOLDER
  5
F
102
{ACAD_REACTORS
330
E
102
}
330
E
  0
SCALE
  5
48
102
{ACAD_REACTORS
330
47
102
}
330
47
100
AcDbScale
 70
     0
300
1:1
140
1.0
141
1.0
290
     1
  0
SCALE
  5
49
102
{ACAD_REACTORS
330
47
102
}
330
47
100
AcDbScale
 70
     0
300
1:2
140
1.0
141
2.0
290
     0
  0
SCALE
  5
4A
102
{ACAD_REACTORS
330
47
102
}
330
47
100
AcDbScale
 70
     0
300
1:4
140
1.0
141
4.0
290
     0
  0
SCALE
  5
4B
102
{ACAD_REACTORS
330
47
102
}
330
47
100
AcDbScale
 70
     0
300
1:5
140
1.0
141
5.0
290
     0
  0
SCALE
  5
4C
102
{ACAD_REACTORS
330
47
102
}
330
47
100
AcDbScale
 70
     0
300
1:8
140
1.0
141
8.0
290
     0
  0
SCALE
  5
4D
102
{ACAD_REACTORS
330
47
102
}
330
47
100
AcDbScale
 70
     0
300
1:10
140
1.0
141
10.0
290
     0
  0
SCALE
  5
4E
102
{ACAD_REACTORS
330
47
102
}
330
47
100
AcDbScale
 70
     0
300
1:16
140
1.0
141
16.0
290
     0
  0
SCALE
  5
4F
102
{ACAD_REACTORS
330
47
102
}
330
47
100
AcDbScale
 70
     0
300
1:20
140
1.0
141
20.0
290
     0
  0
SCALE
  5
50
102
{ACAD_REACTORS
330
47
102
}
330
47
100
AcDbScale
 70
     0
300
1:30
140
1.0
141
30.0
290
     0
  0
SCALE
  5
51
102
{ACAD_REACTORS
330
47
102
}
330
47
100
AcDbScale
 70
     0
300
1:40
140
1.0
141
40.0
290
     0
  0
SCALE
  5
52
102
{ACAD_REACTORS
330
47
102
}
330
47
100
AcDbScale
 70
     0
300
1:50
140
1.0
141
50.0
290
     0
  0
SCALE
  5
53
102
{ACAD_REACTORS
330
47
102
}
330
47
100
AcDbScale
 70
     0
300
1:100
140
1.0
141
100.0
290
     0
  0
SCALE
  5
54
102
{ACAD_REACTORS
330
47
102
}
330
47
100
AcDbScale
 70
     0
300
2:1
140
2.0
141
1.0
290
     0
  0
SCALE
  5
55
102
{ACAD_REACTORS
330
47
102
}
330
47
100
AcDbScale
 70
     0
300
4:1
140
4.0
141
1.0
290
     0
  0
SCALE
  5
56
102
{ACAD_REACTORS
330
47
102
}
330
47
100
AcDbScale
 70
     0
300
8:1
140
8.0
141
1.0
290
     0
  0
SCALE
  5
57
102
{ACAD_REACTORS
330
47
102
}
330
47
100
AcDbScale
 70
     0
300
10:1
140
10.0
141
1.0
290
     0
  0
SCALE
  5
58
102
{ACAD_REACTORS
330
47
102
}
330
47
100
AcDbScale
 70
     0
300
100:1
140
100.0
141
1.0
290
     0
  0
SCALE
  5
59
102
{ACAD_REACTORS
330
47
102
}
330
47
100
AcDbScale
 70
     0
300
1/128" = 1'-0"
140
0.0078125
141
12.0
290
     0
  0
SCALE
  5
5A
102
{ACAD_REACTORS
330
47
102
}
330
47
100
AcDbScale
 70
     0
300
1/64" = 1'-0"
140
0.015625
141
12.0
290
     0
  0
SCALE
  5
5B
102
{ACAD_REACTORS
330
47
102
}
330
47
100
AcDbScale
 70
     0
300
1/32" = 1'-0"
140
0.03125
141
12.0
290
     0
  0
SCALE
  5
5C
102
{ACAD_REACTORS
330
47
102
}
330
47
100
AcDbScale
 70
     0
300
1/16" = 1'-0"
140
0.0625
141
12.0
290
     0
  0
SCALE
  5
5D
102
{ACAD_REACTORS
330
47
102
}
330
47
100
AcDbScale
 70
     0
300
3/32" = 1'-0"
140
0.09375
141
12.0
290
     0
  0
SCALE
  5
5E
102
{ACAD_REACTORS
330
47
102
}
330
47
100
AcDbScale
 70
     0
300
1/8" = 1'-0"
140
0.125
141
12.0
290
     0
  0
SCALE
  5
5F
102
{ACAD_REACTORS
330
47
102
}
330
47
100
AcDbScale
 70
     0
300
3/16" = 1'-0"
140
0.1875
141
12.0
290
     0
  0
SCALE
  5
60
102
{ACAD_REACTORS
330
47
102
}
330
47
100
AcDbScale
 70
     0
300
1/4" = 1'-0"
140
0.25
141
12.0
290
     0
  0
SCALE
  5
61
102
{ACAD_REACTORS
330
47
102
}
330
47
100
AcDbScale
 70
     0
300
3/8" = 1'-0"
140
0.375
141
12.0
290
     0
  0
SCALE
  5
62
102
{ACAD_REACTORS
330
47
102
}
330
47
100
AcDbScale
 70
     0
300
1/2" = 1'-0"
140
0.5
141
12.0
290
     0
  0
SCALE
  5
63
102
{ACAD_REACTORS
330
47
102
}
330
47
100
AcDbScale
 70
     0
300
3/4" = 1'-0"
140
0.75
141
12.0
290
     0
  0
SCALE
  5
64
102
{ACAD_REACTORS
330
47
102
}
330
47
100
AcDbScale
 70
     0
300
1" = 1'-0"
140
1.0
141
12.0
290
     0
  0
SCALE
  5
65
102
{ACAD_REACTORS
330
47
102
}
330
47
100
AcDbScale
 70
     0
300
1-1/2" = 1'-0"
140
1.5
141
12.0
290
     0
  0
SCALE
  5
66
102
{ACAD_REACTORS
330
47
102
}
330
47
100
AcDbScale
 70
     0
300
3" = 1'-0"
140
3.0
141
12.0
290
     0
  0
SCALE
  5
67
102
{ACAD_REACTORS
330
47
102
}
330
47
100
AcDbScale
 70
     0
300
6" = 1'-0"
140
6.0
141
12.0
290
     0
  0
SCALE
  5
68
102
{ACAD_REACTORS
330
47
102
}
330
47
100
AcDbScale
 70
     0
300
1'-0" = 1'-0"
140
12.0
141
12.0
290
     0
  0
TABLESTYLE
  5
6A
102
{ACAD_REACTORS
330
69
102
}
102
{ACAD_XDICTIONARY
360
1BB
102
}
330
69
100
AcDbTableStyle
  3
Standard
 70
     0
 71
     0
 40
0.06
 41
0.06
280
     0
281
     0
  7
STANDARD
140
4.5
170
     2
 62
     0
 63
   257
283
     0
 90
        4
 91
        0
  1

274
    -2
284
     1
 64
     0
275
    -2
285
     1
 65
     0
276
    -2
286
     1
 66
     0
277
    -2
287
     1
 67
     0
278
    -2
288
     1
 68
     0
279
    -2
289
     1
 69
     0
  7
STANDARD
140
6.0
170
     5
 62
     0
 63
   257
283
     0
 90
        4
 91
        0
  1

274
    -2
284
     1
 64
     0
275
    -2
285
     1
 65
     0
276
    -2
286
     1
 66
     0
277
    -2
287
     1
 67
     0
278
    -2
288
     1
 68
     0
279
    -2
289
     1
 69
     0
  7
STANDARD
140
4.5
170
     5
 62
     0
 63
   257
283
     0
 90
        4
 91
        0
  1

274
    -2
284
     1
 64
     0
275
    -2
285
     1
 65
     0
276
    -2
286
     1
 66
     0
277
    -2
287
     1
 67
     0
278
    -2
288
     1
 68
     0
279
    -2
289
     1
 69
     0
  0
VISUALSTYLE
  5
2F
102
{ACAD_REACTORS
330
2A
102
}
330
2A
100
AcDbVisualStyle
  2
2dWireframe
 70
     4
177
     2
291
     0
 71
     0
176
     1
 72
     2
176
     1
 73
     0
176
     1
 90
        0
176
     1
 40
0.6
176
     1
 41
30.0
176
     1
 62
     5
 63
     7
421
 16777215
176
     1
 74
     1
176
     1
 91
        4
176
     1
 64
     7
176
     1
 65
   257
176
     1
 75
     1
176
     1
175
     1
176
     1
 42
1.0
176
     1
 92
        0
176
     1
 66
   257
176
     1
 43
1.0
176
     1
 76
     1
176
     1
 77
     6
176
     1
 78
     2
176
     1
 67
     7
176
     1
 79
     5
176
     1
170
     0
176
     1
171
     0
176
     1
290
     0
176
     1
 93
        1
176
     1
 44
0.0
176
     1
173
     0
176
     1
  0
VISUALSTYLE
  5
32
102
{ACAD_REACTORS
330
2A
102
}
330
2A
100
AcDbVisualStyle
  2
Basic
 70
     7
177
     2
291
     1
 71
     1
176
     1
 72
     0
176
     1
 73
     1
176
     1
 90
        0
176
     1
 40
0.6
176
     1
 41
30.0
176
     1
 62
     5
 63
     7
421
 16777215
176
     1
 74
     0
176
     1
 91
        4
176
     1
 64
     7
176
     1
 65
   257
176
     1
 75
     1
176
     1
175
     1
176
     1
 42
1.0
176
     1
 92
        8
176
     1
 66
     7
176
     1
 43
1.0
176
     1
 76
     1
176
     1
 77
     6
176
     1
 78
     2
176
     1
 67
     7
176
     1
 79
     5
176
     1
170
     0
176
     1
171
     0
176
     1
290
     0
176
     1
 93
        1
176
     1
 44
0.0
176
     1
173
     0
176
     1
  0
VISUALSTYLE
  5
36
102
{ACAD_REACTORS
330
2A
102
}
330
2A
100
AcDbVisualStyle
  2
Brighten
 70
    12
177
     2
291
     1
 71
     2
176
     1
 72
     2
176
     1
 73
     0
176
     1
 90
        0
176
     1
 40
0.6
176
     1
 41
30.0
176
     1
 62
     5
 63
     7
421
 16777215
176
     1
 74
     1
176
     1
 91
        4
176
     1
 64
     7
176
     1
 65
   257
176
     1
 75
     1
176
     1
175
     1
176
     1
 42
1.0
176
     1
 92
        8
176
     1
 66
     7
176
     1
 43
1.0
176
     1
 76
     1
176
     1
 77
     6
176
     1
 78
     2
176
     1
 67
     7
176
     1
 79
     5
176
     1
170
     0
176
     1
171
     0
176
     1
290
     0
176
     1
 93
        1
176
     1
 44
50.0
176
     1
173
     0
176
     1
  0
VISUALSTYLE
  5
3A
102
{ACAD_REACTORS
330
2A
102
}
330
2A
100
AcDbVisualStyle
  2
ColorChange
 70
    16
177
     2
291
     1
 71
     2
176
     1
 72
     2
176
     1
 73
     3
176
     1
 90
        0
176
     1
 40
0.6
176
     1
 41
30.0
176
     1
 62
     5
 63
     8
421
  8421504
176
     1
 74
     1
176
     1
 91
        4
176
     1
 64
     7
176
     1
 65
   257
176
     1
 75
     1
176
     1
175
     1
176
     1
 42
1.0
176
     1
 92
        8
176
     1
 66
     8
424
  8421504
176
     1
 43
1.0
176
     1
 76
     1
176
     1
 77
     6
176
     1
 78
     2
176
     1
 67
     7
176
     1
 79
     5
176
     1
170
     0
176
     1
171
     0
176
     1
290
     0
176
     1
 93
        1
176
     1
 44
0.0
176
     1
173
     0
176
     1
  0
VISUALSTYLE
  5
34
102
{ACAD_REACTORS
330
2A
102
}
330
2A
100
AcDbVisualStyle
  2
Conceptual
 70
     9
177
     2
291
     0
 71
     3
176
     1
 72
     2
176
     1
 73
     0
176
     1
 90
        0
176
     1
 40
0.6
176
     1
 41
30.0
176
     1
 62
     5
 63
     7
421
 16777215
176
     1
 74
     2
176
     1
 91
        2
176
     1
 64
     7
176
     1
 65
   257
176
     1
 75
     1
176
     1
175
     1
176
     1
 42
179.0
176
     1
 92
        8
176
     1
 66
     7
176
     1
 43
1.0
176
     1
 76
     1
176
     1
 77
     6
176
     1
 78
     2
176
     1
 67
     7
176
     1
 79
     3
176
     1
170
     0
176
     1
171
     0
176
     1
290
     0
176
     1
 93
        1
176
     1
 44
0.0
176
     1
173
     0
176
     1
  0
VISUALSTYLE
  5
35
102
{ACAD_REACTORS
330
2A
102
}
330
2A
100
AcDbVisualStyle
  2
Dim
 70
    11
177
     2
291
     1
 71
     2
176
     1
 72
     2
176
     1
 73
     0
176
     1
 90
        0
176
     1
 40
0.6
176
     1
 41
30.0
176
     1
 62
     5
 63
     7
421
 16777215
176
     1
 74
     1
176
     1
 91
        4
176
     1
 64
     7
176
     1
 65
   257
176
     1
 75
     1
176
     1
175
     1
176
     1
 42
1.0
176
     1
 92
        8
176
     1
 66
     7
176
     1
 43
1.0
176
     1
 76
     1
176
     1
 77
     6
176
     1
 78
     2
176
     1
 67
     7
176
     1
 79
     5
176
     1
170
     0
176
     1
171
     0
176
     1
290
     0
176
     1
 93
        1
176
     1
 44
-50.0
176
     1
173
     0
176
     1
  0
VISUALSTYLE
  5
3D
102
{ACAD_REACTORS
330
2A
102
}
330
2A
100
AcDbVisualStyle
  2
EdgeColorOff
 70
    22
177
     2
291
     1
 71
     2
176
     0
 72
     2
176
     0
 73
     0
176
     0
 90
        0
176
     0
 40
0.6
176
     0
 41
30.0
176
     0
 62
     5
 63
     7
421
 16777215
176
     0
 74
     1
176
     0
 91
        4
176
     0
 64
     7
176
     0
 65
   257
176
     0
 75
     1
176
     0
175
     1
176
     0
 42
1.0
176
     0
 92
        8
176
     2
 66
     7
176
     0
 43
1.0
176
     0
 76
     1
176
     0
 77
     6
176
     0
 78
     2
176
     0
 67
     7
176
     0
 79
     5
176
     0
170
     0
176
     0
171
     0
176
     0
290
     0
176
     0
 93
        1
176
     0
 44
0.0
176
     0
173
     0
176
     0
  0
VISUALSTYLE
  5
39
102
{ACAD_REACTORS
330
2A
102
}
330
2A
100
AcDbVisualStyle
  2
Facepattern
 70
    15
177
     2
291
     1
 71
     2
176
     1
 72
     2
176
     1
 73
     0
176
     1
 90
        0
176
     1
 40
0.6
176
     1
 41
30.0
176
     1
 62
     5
 63
     7
421
 16777215
176
     1
 74
     1
176
     1
 91
        4
176
     1
 64
     7
176
     1
 65
   257
176
     1
 75
     1
176
     1
175
     1
176
     1
 42
1.0
176
     1
 92
        8
176
     1
 66
     7
176
     1
 43
1.0
176
     1
 76
     1
176
     1
 77
     6
176
     1
 78
     2
176
     1
 67
     7
176
     1
 79
     5
176
     1
170
     0
176
     1
171
     0
176
     1
290
     0
176
     1
 93
        1
176
     1
 44
0.0
176
     1
173
     0
176
     1
  0
VISUALSTYLE
  5
2B
102
{ACAD_REACTORS
330
2A
102
}
330
2A
100
AcDbVisualStyle
  2
Flat
 70
     0
177
     2
291
     1
 71
     2
176
     1
 72
     1
176
     1
 73
     1
176
     1
 90
        2
176
     1
 40
0.6
176
     1
 41
30.0
176
     1
 62
     5
 63
     7
421
 16777215
176
     1
 74
     0
176
     1
 91
        0
176
     1
 64
     7
176
     1
 65
   257
176
     1
 75
     1
176
     1
175
     1
176
     1
 42
1.0
176
     1
 92
        8
176
     1
 66
     7
176
     1
 43
1.0
176
     1
 76
     1
176
     1
 77
     6
176
     1
 78
     2
176
     1
 67
     7
176
     1
 79
     5
176
     1
170
     0
176
     1
171
     0
176
     1
290
     0
176
     1
 93
       13
176
     1
 44
0.0
176
     1
173
     0
176
     1
  0
VISUALSTYLE
  5
2C
102
{ACAD_REACTORS
330
2A
102
}
330
2A
100
AcDbVisualStyle
  2
FlatWithEdges
 70
     1
177
     2
291
     1
 71
     2
176
     1
 72
     1
176
     1
 73
     1
176
     1
 90
        2
176
     1
 40
0.6
176
     1
 41
30.0
176
     1
 62
     5
 63
     7
421
 16777215
176
     1
 74
     1
176
     1
 91
        0
176
     1
 64
     7
176
     1
 65
   257
176
     1
 75
     1
176
     1
175
     1
176
     1
 42
1.0
176
     1
 92
        0
176
     1
 66
   257
176
     1
 43
1.0
176
     1
 76
     1
176
     1
 77
     6
176
     1
 78
     2
176
     1
 67
     7
176
     1
 79
     5
176
     1
170
     0
176
     1
171
     0
176
     1
290
     0
176
     1
 93
       13
176
     1
 44
0.0
176
     1
173
     0
176
     1
  0
VISUALSTYLE
  5
2D
102
{ACAD_REACTORS
330
2A
102
}
330
2A
100
AcDbVisualStyle
  2
Gouraud
 70
     2
177
     2
291
     1
 71
     2
176
     1
 72
     2
176
     1
 73
     1
176
     1
 90
        2
176
     1
 40
0.6
176
     1
 41
30.0
176
     1
 62
     5
 63
     7
421
 16777215
176
     1
 74
     0
176
     1
 91
        0
176
     1
 64
     7
176
     1
 65
   257
176
     1
 75
     1
176
     1
175
     1
176
     1
 42
1.0
176
     1
 92
        0
176
     1
 66
     7
176
     1
 43
1.0
176
     1
 76
     1
176
     1
 77
     6
176
     1
 78
     2
176
     1
 67
     7
176
     1
 79
     5
176
     1
170
     0
176
     1
171
     0
176
     1
290
     0
176
     1
 93
       13
176
     1
 44
0.0
176
     1
173
     0
176
     1
  0
VISUALSTYLE
  5
2E
102
{ACAD_REACTORS
330
2A
102
}
330
2A
100
AcDbVisualStyle
  2
GouraudWithEdges
 70
     3
177
     2
291
     1
 71
     2
176
     1
 72
     2
176
     1
 73
     1
176
     1
 90
        2
176
     1
 40
0.6
176
     1
 41
30.0
176
     1
 62
     5
 63
     7
421
 16777215
176
     1
 74
     1
176
     1
 91
        0
176
     1
 64
     7
176
     1
 65
   257
176
     1
 75
     1
176
     1
175
     1
176
     1
 42
1.0
176
     1
 92
        0
176
     1
 66
   257
176
     1
 43
1.0
176
     1
 76
     1
176
     1
 77
     6
176
     1
 78
     2
176
     1
 67
     7
176
     1
 79
     5
176
     1
170
     0
176
     1
171
     0
176
     1
290
     0
176
     1
 93
       13
176
     1
 44
0.0
176
     1
173
     0
176
     1
  0
VISUALSTYLE
  5
31
102
{ACAD_REACTORS
330
2A
102
}
330
2A
100
AcDbVisualStyle
  2
Hidden
 70
     6
177
     2
291
     0
 71
     1
176
     1
 72
     2
176
     1
 73
     2
176
     1
 90
        0
176
     1
 40
0.6
176
     1
 41
30.0
176
     1
 62
     5
 63
     7
421
 16777215
176
     1
 74
     2
176
     1
 91
        2
176
     1
 64
     7
176
     1
 65
   257
176
     1
 75
     2
176
     1
175
     1
176
     1
 42
40.0
176
     1
 92
        0
176
     1
 66
   257
176
     1
 43
1.0
176
     1
 76
     1
176
     1
 77
     6
176
     1
 78
     2
176
     1
 67
     7
176
     1
 79
     3
176
     1
170
     0
176
     1
171
     0
176
     1
290
     0
176
     1
 93
        1
176
     1
 44
0.0
176
     1
173
     0
176
     1
  0
VISUALSTYLE
  5
3B
102
{ACAD_REACTORS
330
2A
102
}
330
2A
100
AcDbVisualStyle
  2
JitterOff
 70
    20
177
     2
291
     1
 71
     2
176
     0
 72
     2
176
     0
 73
     0
176
     0
 90
        0
176
     0
 40
0.6
176
     0
 41
30.0
176
     0
 62
     5
 63
     7
421
 16777215
176
     0
 74
     1
176
     0
 91
        4
176
     0
 64
     7
176
     0
 65
   257
176
     0
 75
     1
176
     0
175
     1
176
     0
 42
1.0
176
     0
 92
       10
176
     2
 66
     7
176
     0
 43
1.0
176
     0
 76
     1
176
     0
 77
     6
176
     0
 78
     2
176
     0
 67
     7
176
     0
 79
     5
176
     0
170
     0
176
     0
171
     0
176
     0
290
     0
176
     0
 93
        1
176
     0
 44
0.0
176
     0
173
     0
176
     0
  0
VISUALSTYLE
  5
38
102
{ACAD_REACTORS
330
2A
102
}
330
2A
100
AcDbVisualStyle
  2
Linepattern
 70
    14
177
     2
291
     1
 71
     2
176
     1
 72
     2
176
     1
 73
     0
176
     1
 90
        0
176
     1
 40
0.6
176
     1
 41
30.0
176
     1
 62
     5
 63
     7
421
 16777215
176
     1
 74
     1
176
     1
 91
        4
176
     1
 64
     7
176
     1
 65
   257
176
     1
 75
     7
176
     1
175
     7
176
     1
 42
1.0
176
     1
 92
        8
176
     1
 66
     7
176
     1
 43
1.0
176
     1
 76
     1
176
     1
 77
     6
176
     1
 78
     2
176
     1
 67
     7
176
     1
 79
     5
176
     1
170
     0
176
     1
171
     0
176
     1
290
     0
176
     1
 93
        1
176
     1
 44
0.0
176
     1
173
     0
176
     1
  0
VISUALSTYLE
  5
3C
102
{ACAD_REACTORS
330
2A
102
}
330
2A
100
AcDbVisualStyle
  2
OverhangOff
 70
    21
177
     2
291
     1
 71
     2
176
     0
 72
     2
176
     0
 73
     0
176
     0
 90
        0
176
     0
 40
0.6
176
     0
 41
30.0
176
     0
 62
     5
 63
     7
421
 16777215
176
     0
 74
     1
176
     0
 91
        4
176
     0
 64
     7
176
     0
 65
   257
176
     0
 75
     1
176
     0
175
     1
176
     0
 42
1.0
176
     0
 92
        9
176
     2
 66
     7
176
     0
 43
1.0
176
     0
 76
     1
176
     0
 77
     6
176
     0
 78
     2
176
     0
 67
     7
176
     0
 79
     5
176
     0
170
     0
176
     0
171
     0
176
     0
290
     0
176
     0
 93
        1
176
     0
 44
0.0
176
     0
173
     0
176
     0
  0
VISUALSTYLE
  5
33
102
{ACAD_REACTORS
330
2A
102
}
330
2A
100
AcDbVisualStyle
  2
Realistic
 70
     8
177
     2
291
     0
 71
     2
176
     1
 72
     3
176
     1
 73
     0
176
     1
 90
        2
176
     1
 40
0.6
176
     1
 41
30.0
176
     1
 62
     5
 63
     7
421
 16777215
176
     1
 74
     0
176
     1
 91
        0
176
     1
 64
     7
176
     1
 65
   257
176
     1
 75
     1
176
     1
175
     1
176
     1
 42
1.0
176
     1
 92
        8
176
     1
 66
   257
176
     1
 43
1.0
176
     1
 76
     1
176
     1
 77
     6
176
     1
 78
     2
176
     1
 67
     7
176
     1
 79
     3
176
     1
170
     0
176
     1
171
     0
176
     1
290
     0
176
     1
 93
       13
176
     1
 44
0.0
176
     1
173
     0
176
     1
  0
VISUALSTYLE
  5
42
102
{ACAD_REACTORS
330
2A
102
}
330
2A
100
AcDbVisualStyle
  2
Shaded
 70
    27
177
     2
291
     0
 71
     2
176
     1
 72
     2
176
     1
 73
     1
176
     1
 90
        2
176
     1
 40
0.6
176
     1
 41
30.0
176
     1
 62
     5
 63
     7
421
 16777215
176
     1
 74
     0
176
     1
 91
        4
176
     1
 64
     7
176
     1
 65
   257
176
     1
 75
     1
176
     1
175
     1
176
     1
 42
1.0
176
     1
 92
        8
176
     1
 66
   257
176
     1
 43
1.0
176
     1
 76
     1
176
     1
 77
     6
176
     1
 78
     2
176
     1
 67
     8
425
  7895160
176
     1
 79
     3
176
     1
170
     0
176
     1
171
     0
176
     1
290
     0
176
     1
 93
        5
176
     1
 44
0.0
176
     1
173
     0
176
     1
  0
VISUALSTYLE
  5
41
102
{ACAD_REACTORS
330
2A
102
}
330
2A
100
AcDbVisualStyle
  2
Shaded with edges
 70
    26
177
     2
291
     0
 71
     2
176
     1
 72
     2
176
     1
 73
     1
176
     1
 90
        2
176
     1
 40
0.6
176
     1
 41
30.0
176
     1
 62
     5
 63
     7
421
 16777215
176
     1
 74
     1
176
     1
 91
       10
176
     1
 64
     7
176
     1
 65
   257
176
     1
 75
     2
176
     1
175
     1
176
     1
 42
1.0
176
     1
 92
        8
176
     1
 66
   257
176
     1
 43
1.0
176
     1
 76
     1
176
     1
 77
     6
176
     1
 78
     2
176
     1
 67
     7
176
     1
 79
     3
176
     1
170
     0
176
     1
171
     0
176
     1
290
     0
176
     1
 93
        5
176
     1
 44
0.0
176
     1
173
     0
176
     1
  0
VISUALSTYLE
  5
3E
102
{ACAD_REACTORS
330
2A
102
}
330
2A
100
AcDbVisualStyle
  2
Shades of Gray
 70
    23
177
     2
291
     0
 71
     2
176
     1
 72
     2
176
     1
 73
     3
176
     1
 90
        0
176
     1
 40
0.6
176
     1
 41
30.0
176
     1
 62
     5
 63
     7
421
 16777215
176
     1
 74
     2
176
     1
 91
        2
176
     1
 64
     7
176
     1
 65
     7
176
     1
 75
     1
176
     1
175
     1
176
     1
 42
40.0
176
     1
 92
        8
176
     1
 66
     7
176
     1
 43
1.0
176
     1
 76
     1
176
     1
 77
     6
176
     1
 78
     2
176
     1
 67
     7
176
     1
 79
     3
176
     1
170
     0
176
     1
171
     0
176
     1
290
     0
176
     1
 93
        1
176
     1
 44
0.0
176
     1
173
     0
176
     1
  0
VISUALSTYLE
  5
3F
102
{ACAD_REACTORS
330
2A
102
}
330
2A
100
AcDbVisualStyle
  2
Sketchy
 70
    24
177
     2
291
     0
 71
     1
176
     1
 72
     2
176
     1
 73
     2
176
     1
 90
        0
176
     1
 40
0.6
176
     1
 41
30.0
176
     1
 62
     5
 63
     7
421
 16777215
176
     1
 74
     2
176
     1
 91
        2
176
     1
 64
     7
176
     1
 65
     7
176
     1
 75
     1
176
     1
175
     1
176
     1
 42
40.0
176
     1
 92
       11
176
     1
 66
     7
176
     1
 43
1.0
176
     1
 76
     1
176
     1
 77
     6
176
     1
 78
     2
176
     1
 67
     7
176
     1
 79
     6
176
     1
170
     0
176
     1
171
     0
176
     1
290
     0
176
     1
 93
        1
176
     1
 44
0.0
176
     1
173
     0
176
     1
  0
VISUALSTYLE
  5
37
102
{ACAD_REACTORS
330
2A
102
}
330
2A
100
AcDbVisualStyle
  2
Thicken
 70
    13
177
     2
291
     1
 71
     2
176
     1
 72
     2
176
     1
 73
     0
176
     1
 90
        0
176
     1
 40
0.6
176
     1
 41
30.0
176
     1
 62
     5
 63
     7
421
 16777215
176
     1
 74
     1
176
     1
 91
        4
176
     1
 64
     7
176
     1
 65
   257
176
     1
 75
     1
176
     1
175
     1
176
     1
 42
1.0
176
     1
 92
       12
176
     1
 66
     7
176
     1
 43
1.0
176
     1
 76
     1
176
     1
 77
     6
176
     1
 78
     2
176
     1
 67
     7
176
     1
 79
     5
176
     1
170
     0
176
     1
171
     0
176
     1
290
     0
176
     1
 93
        1
176
     1
 44
0.0
176
     1
173
     0
176
     1
  0
VISUALSTYLE
  5
30
102
{ACAD_REACTORS
330
2A
102
}
330
2A
100
AcDbVisualStyle
  2
Wireframe
 70
     5
177
     2
291
     0
 71
     0
176
     1
 72
     2
176
     1
 73
     0
176
     1
 90
        0
176
     1
 40
0.6
176
     1
 41
30.0
176
     1
 62
     5
 63
     7
421
 16777215
176
     1
 74
     1
176
     1
 91
        4
176
     1
 64
     7
176
     1
 65
   257
176
     1
 75
     1
176
     1
175
     1
176
     1
 42
1.0
176
     1
 92
        0
176
     1
 66
   257
176
     1
 43
1.0
176
     1
 76
     1
176
     1
 77
     6
176
     1
 78
     2
176
     1
 67
     7
176
     1
 79
     3
176
     1
170
     0
176
     1
171
     0
176
     1
290
     0
176
     1
 93
        1
176
     1
 44
0.0
176
     1
173
     0
176
     1
  0
VISUALSTYLE
  5
40
102
{ACAD_REACTORS
330
2A
102
}
330
2A
100
AcDbVisualStyle
  2
X-Ray
 70
    25
177
     2
291
     0
 71
     2
176
     1
 72
     2
176
     1
 73
     1
176
     1
 90
        1
176
     1
 40
0.5
176
     1
 41
30.0
176
     1
 62
     5
 63
     7
421
 16777215
176
     1
 74
     1
176
     1
 91
        0
176
     1
 64
     7
176
     1
 65
   257
176
     1
 75
     1
176
     1
175
     1
176
     1
 42
1.0
176
     1
 92
        8
176
     1
 66
     7
176
     1
 43
1.0
176
     1
 76
     1
176
     1
 77
     6
176
     1
 78
     2
176
     1
 67
     7
176
     1
 79
     3
176
     1
170
     0
176
     1
171
     0
176
     1
290
     0
176
     1
 93
       13
176
     1
 44
0.0
176
     1
173
     0
176
     1
  0
DICTIONARYVAR
  5
1BA
102
{ACAD_REACTORS
330
1B9
102
}
330
1B9
100
DictionaryVariables
280
     0
  1
1:1
  0
DICTIONARYVAR
  5
1C2
102
{ACAD_REACTORS
330
1B9
102
}
330
1B9
100
DictionaryVariables
280
     0
  1
3.500000
  0
DICTIONARYVAR
  5
1C3
102
{ACAD_REACTORS
330
1B9
102
}
330
1B9
100
DictionaryVariables
280
     0
  1
acadiso.lin
  0
DICTIONARYVAR
  5
1BF
102
{ACAD_REACTORS
330
1B9
102
}
330
1B9
100
DictionaryVariables
280
     0
  1
Standard
  0
DICTIONARYVAR
  5
1BE
102
{ACAD_REACTORS
330
1B9
102
}
330
1B9
100
DictionaryVariables
280
     0
  1
Standard
  0
DICTIONARY
  5
1BB
330
6A
100
AcDbDictionary
280
     1
281
     1
  3
ACAD_ROUNDTRIP_2008_TABLESTYLE_CELLSTYLEMAP
360
1BC
  0
CELLSTYLEMAP
  5
1BC
102
{ACAD_REACTORS
330
1BB
102
}
330
1BB
100
AcDbCellStyleMap
 90
        3
300
CELLSTYLE
  1
TABLEFORMAT_BEGIN
 90
        5
170
     1
 91
        0
 92
    32768
 62
   257
 93
        1
300
CONTENTFORMAT
  1
CONTENTFORMAT_BEGIN
 90
        0
 91
        0
 92
        4
 93
        0
300

 40
0.0
140
1.0
 94
        5
 62
     0
340
11
144
6.0
309
CONTENTFORMAT_END
171
     1
301
MARGIN
  1
CELLMARGIN_BEGIN
 40
1.5
 40
1.5
 40
1.5
 40
1.5
 40
1.5
 40
1.5
309
CELLMARGIN_END
 94
        6
 95
        1
302
GRIDFORMAT
  1
GRIDFORMAT_BEGIN
 90
        0
 91
        1
 62
     0
 92
       -2
340
14
 93
        0
 40
0.045
309
GRIDFORMAT_END
 95
        2
302
GRIDFORMAT
  1
GRIDFORMAT_BEGIN
 90
        0
 91
        1
 62
     0
 92
       -2
340
14
 93
        0
 40
0.045
309
GRIDFORMAT_END
 95
        4
302
GRIDFORMAT
  1
GRIDFORMAT_BEGIN
 90
        0
 91
        1
 62
     0
 92
       -2
340
14
 93
        0
 40
0.045
309
GRIDFORMAT_END
 95
        8
302
GRIDFORMAT
  1
GRIDFORMAT_BEGIN
 90
        0
 91
        1
 62
     0
 92
       -2
340
14
 93
        0
 40
0.045
309
GRIDFORMAT_END
 95
       16
302
GRIDFORMAT
  1
GRIDFORMAT_BEGIN
 90
        0
 91
        1
 62
     0
 92
       -2
340
14
 93
        0
 40
0.045
309
GRIDFORMAT_END
 95
       32
302
GRIDFORMAT
  1
GRIDFORMAT_BEGIN
 90
        0
 91
        1
 62
     0
 92
       -2
340
14
 93
        0
 40
0.045
309
GRIDFORMAT_END
309
TABLEFORMAT_END
  1
CELLSTYLE_BEGIN
 90
        1
 91
        1
300
_TITLE
309
CELLSTYLE_END
300
CELLSTYLE
  1
TABLEFORMAT_BEGIN
 90
        5
170
     1
 91
        0
 92
        0
 62
   257
 93
        1
300
CONTENTFORMAT
  1
CONTENTFORMAT_BEGIN
 90
        0
 91
        0
 92
        4
 93
        0
300

 40
0.0
140
1.0
 94
        5
 62
     0
340
11
144
4.5
309
CONTENTFORMAT_END
171
     1
301
MARGIN
  1
CELLMARGIN_BEGIN
 40
1.5
 40
1.5
 40
1.5
 40
1.5
 40
1.5
 40
1.5
309
CELLMARGIN_END
 94
        6
 95
        1
302
GRIDFORMAT
  1
GRIDFORMAT_BEGIN
 90
        0
 91
        1
 62
     0
 92
       -2
340
14
 93
        0
 40
0.045
309
GRIDFORMAT_END
 95
        2
302
GRIDFORMAT
  1
GRIDFORMAT_BEGIN
 90
        0
 91
        1
 62
     0
 92
       -2
340
14
 93
        0
 40
0.045
309
GRIDFORMAT_END
 95
        4
302
GRIDFORMAT
  1
GRIDFORMAT_BEGIN
 90
        0
 91
        1
 62
     0
 92
       -2
340
14
 93
        0
 40
0.045
309
GRIDFORMAT_END
 95
        8
302
GRIDFORMAT
  1
GRIDFORMAT_BEGIN
 90
        0
 91
        1
 62
     0
 92
       -2
340
14
 93
        0
 40
0.045
309
GRIDFORMAT_END
 95
       16
302
GRIDFORMAT
  1
GRIDFORMAT_BEGIN
 90
        0
 91
        1
 62
     0
 92
       -2
340
14
 93
        0
 40
0.045
309
GRIDFORMAT_END
 95
       32
302
GRIDFORMAT
  1
GRIDFORMAT_BEGIN
 90
        0
 91
        1
 62
     0
 92
       -2
340
14
 93
        0
 40
0.045
309
GRIDFORMAT_END
309
TABLEFORMAT_END
  1
CELLSTYLE_BEGIN
 90
        2
 91
        1
300
_HEADER
309
CELLSTYLE_END
300
CELLSTYLE
  1
TABLEFORMAT_BEGIN
 90
        5
170
     1
 91
        0
 92
        0
 62
   257
 93
        1
300
CONTENTFORMAT
  1
CONTENTFORMAT_BEGIN
 90
        0
 91
        0
 92
        4
 93
        0
300

 40
0.0
140
1.0
 94
        2
 62
     0
340
11
144
4.5
309
CONTENTFORMAT_END
171
     1
301
MARGIN
  1
CELLMARGIN_BEGIN
 40
1.5
 40
1.5
 40
1.5
 40
1.5
 40
1.5
 40
1.5
309
CELLMARGIN_END
 94
        6
 95
        1
302
GRIDFORMAT
  1
GRIDFORMAT_BEGIN
 90
        0
 91
        1
 62
     0
 92
       -2
340
14
 93
        0
 40
0.045
309
GRIDFORMAT_END
 95
        2
302
GRIDFORMAT
  1
GRIDFORMAT_BEGIN
 90
        0
 91
        1
 62
     0
 92
       -2
340
14
 93
        0
 40
0.045
309
GRIDFORMAT_END
 95
        4
302
GRIDFORMAT
  1
GRIDFORMAT_BEGIN
 90
        0
 91
        1
 62
     0
 92
       -2
340
14
 93
        0
 40
0.045
309
GRIDFORMAT_END
 95
        8
302
GRIDFORMAT
  1
GRIDFORMAT_BEGIN
 90
        0
 91
        1
 62
     0
 92
       -2
340
14
 93
        0
 40
0.045
309
GRIDFORMAT_END
 95
       16
302
GRIDFORMAT
  1
GRIDFORMAT_BEGIN
 90
        0
 91
        1
 62
     0
 92
       -2
340
14
 93
        0
 40
0.045
309
GRIDFORMAT_END
 95
       32
302
GRIDFORMAT
  1
GRIDFORMAT_BEGIN
 90
        0
 91
        1
 62
     0
 92
       -2
340
14
 93
        0
 40
0.045
309
GRIDFORMAT_END
309
TABLEFORMAT_END
  1
CELLSTYLE_BEGIN
 90
        3
 91
        2
300
_DATA
309
CELLSTYLE_END
  0
ENDSEC
  0
EOF
