  0
SECTION
  2
HEADER
  9
$ACADVER
  1
AC1021
  9
$ACADMAINTVER
 70
    25
  9
$DWGCODEPAGE
  3
ANSI_1252
  9
$INSBASE
 10
0.0
 20
0.0
 30
0.0
  9
$EXTMIN
 10
-14.78165
 20
-11.27721
 30
0.0
  9
$EXTMAX
 10
4.1207
 20
11.83546
 30
0.0
  9
$LIMMIN
 10
0.0
 20
0.0
  9
$LIMMAX
 10
12.0
 20
9.0
  9
$ORTHOMODE
 70
     0
  9
$REGENMODE
 70
     1
  9
$FILLMODE
 70
     1
  9
$QTEXTMODE
 70
     0
  9
$MIRRTEXT
 70
     1
  9
$LTSCALE
 40
1.0
  9
$ATTMODE
 70
     1
  9
$TEXTSIZE
 40
0.2
  9
$TRACEWID
 40
0.05
  9
$TEXTSTYLE
  7
Standard
  9
$CLAYER
  8
0
  9
$CELTYPE
  6
ByLayer
  9
$CECOLOR
 62
   256
  9
$CELTSCALE
 40
1.0
  9
$DISPSILH
 70
     0
  9
$DIMSCALE
 40
1.0
  9
$DIMASZ
 40
0.18
  9
$DIMEXO
 40
0.0625
  9
$DIMDLI
 40
0.38
  9
$DIMRND
 40
0.0
  9
$DIMDLE
 40
0.0
  9
$DIMEXE
 40
0.18
  9
$DIMTP
 40
0.0
  9
$DIMTM
 40
0.0
  9
$DIMTXT
 40
0.18
  9
$DIMCEN
 40
0.09
  9
$DIMTSZ
 40
0.0
  9
$DIMTOL
 70
     0
  9
$DIMLIM
 70
     0
  9
$DIMTIH
 70
     1
  9
$DIMTOH
 70
     1
  9
$DIMSE1
 70
     0
  9
$DIMSE2
 70
     0
  9
$DIMTAD
 70
     0
  9
$DIMZIN
 70
     0
  9
$DIMBLK
  1

  9
$DIMASO
 70
     1
  9
$DIMSHO
 70
     1
  9
$DIMPOST
  1

  9
$DIMAPOST
  1

  9
$DIMALT
 70
     0
  9
$DIMALTD
 70
     2
  9
$DIMALTF
 40
25.4
  9
$DIMLFAC
 40
1.0
  9
$DIMTOFL
 70
     0
  9
$DIMTVP
 40
0.0
  9
$DIMTIX
 70
     0
  9
$DIMSOXD
 70
     0
  9
$DIMSAH
 70
     0
  9
$DIMBLK1
  1

  9
$DIMBLK2
  1

  9
$DIMSTYLE
  2
Standard
  9
$DIMCLRD
 70
     0
  9
$DIMCLRE
 70
     0
  9
$DIMCLRT
 70
     0
  9
$DIMTFAC
 40
1.0
  9
$DIMGAP
 40
0.09
  9
$DIMJUST
 70
     0
  9
$DIMSD1
 70
     0
  9
$DIMSD2
 70
     0
  9
$DIMTOLJ
 70
     1
  9
$DIMTZIN
 70
     0
  9
$DIMALTZ
 70
     0
  9
$DIMALTTZ
 70
     0
  9
$DIMUPT
 70
     0
  9
$DIMDEC
 70
     4
  9
$DIMTDEC
 70
     4
  9
$DIMALTU
 70
     2
  9
$DIMALTTD
 70
     2
  9
$DIMTXSTY
  7
Standard
  9
$DIMAUNIT
 70
     0
  9
$DIMADEC
 70
     0
  9
$DIMALTRND
 40
0.0
  9
$DIMAZIN
 70
     0
  9
$DIMDSEP
 70
    46
  9
$DIMATFIT
 70
     3
  9
$DIMFRAC
 70
     0
  9
$DIMLDRBLK
  1

  9
$DIMLUNIT
 70
     2
  9
$DIMLWD
 70
    -2
  9
$DIMLWE
 70
    -2
  9
$DIMTMOVE
 70
     0
  9
$DIMFXL
 40
1.0
  9
$DIMFXLON
 70
     0
  9
$DIMJOGANG
 40
0.7853981633974483
  9
$DIMTFILL
 70
     0
  9
$DIMTFILLCLR
 70
     0
  9
$DIMARCSYM
 70
     0
  9
$DIMLTYPE
  6

  9
$DIMLTEX1
  6

  9
$DIMLTEX2
  6

  9
$LUNITS
 70
     2
  9
$LUPREC
 70
     4
  9
$SKETCHINC
 40
0.1
  9
$FILLETRAD
 40
0.5
  9
$AUNITS
 70
     0
  9
$AUPREC
 70
     0
  9
$MENU
  1
.
  9
$ELEVATION
 40
0.0
  9
$PELEVATION
 40
0.0
  9
$THICKNESS
 40
0.0
  9
$LIMCHECK
 70
     0
  9
$CHAMFERA
 40
0.5
  9
$CHAMFERB
 40
0.5
  9
$CHAMFERC
 40
1.0
  9
$CHAMFERD
 40
0.0
  9
$SKPOLY
 70
     0
  9
$TDCREATE
 40
2456615.395131551
  9
$TDUCREATE
 40
2456615.353464884
  9
$TDUPDATE
 40
2456615.395131562
  9
$TDUUPDATE
 40
2456615.353464896
  9
$TDINDWG
 40
0.0000000116
  9
$TDUSRTIMER
 40
0.0000000116
  9
$USRTIMER
 70
     1
  9
$ANGBASE
 50
0.0
  9
$ANGDIR
 70
     0
  9
$PDMODE
 70
     0
  9
$PDSIZE
 40
0.0
  9
$PLINEWID
 40
0.0
  9
$SPLFRAME
 70
     0
  9
$SPLINETYPE
 70
     6
  9
$SPLINESEGS
 70
     8
  9
$HANDSEED
  5
124
  9
$SURFTAB1
 70
     6
  9
$SURFTAB2
 70
     6
  9
$SURFTYPE
 70
     6
  9
$SURFU
 70
     6
  9
$SURFV
 70
     6
  9
$UCSBASE
  2

  9
$UCSNAME
  2

  9
$UCSORG
 10
0.0
 20
0.0
 30
0.0
  9
$UCSXDIR
 10
1.0
 20
0.0
 30
0.0
  9
$UCSYDIR
 10
0.0
 20
1.0
 30
0.0
  9
$UCSORTHOREF
  2

  9
$UCSORTHOVIEW
 70
     0
  9
$UCSORGTOP
 10
0.0
 20
0.0
 30
0.0
  9
$UCSORGBOTTOM
 10
0.0
 20
0.0
 30
0.0
  9
$UCSORGLEFT
 10
0.0
 20
0.0
 30
0.0
  9
$UCSORGRIGHT
 10
0.0
 20
0.0
 30
0.0
  9
$UCSORGFRONT
 10
0.0
 20
0.0
 30
0.0
  9
$UCSORGBACK
 10
0.0
 20
0.0
 30
0.0
  9
$PUCSBASE
  2

  9
$PUCSNAME
  2

  9
$PUCSORG
 10
0.0
 20
0.0
 30
0.0
  9
$PUCSXDIR
 10
1.0
 20
0.0
 30
0.0
  9
$PUCSYDIR
 10
0.0
 20
1.0
 30
0.0
  9
$PUCSORTHOREF
  2

  9
$PUCSORTHOVIEW
 70
     0
  9
$PUCSORGTOP
 10
0.0
 20
0.0
 30
0.0
  9
$PUCSORGBOTTOM
 10
0.0
 20
0.0
 30
0.0
  9
$PUCSORGLEFT
 10
0.0
 20
0.0
 30
0.0
  9
$PUCSORGRIGHT
 10
0.0
 20
0.0
 30
0.0
  9
$PUCSORGFRONT
 10
0.0
 20
0.0
 30
0.0
  9
$PUCSORGBACK
 10
0.0
 20
0.0
 30
0.0
  9
$USERI1
 70
     0
  9
$USERI2
 70
     0
  9
$USERI3
 70
     0
  9
$USERI4
 70
     0
  9
$USERI5
 70
     0
  9
$USERR1
 40
0.0
  9
$USERR2
 40
0.0
  9
$USERR3
 40
0.0
  9
$USERR4
 40
0.0
  9
$USERR5
 40
0.0
  9
$WORLDVIEW
 70
     1
  9
$SHADEDGE
 70
     3
  9
$SHADEDIF
 70
    70
  9
$TILEMODE
 70
     1
  9
$MAXACTVP
 70
    64
  9
$PINSBASE
 10
0.0
 20
0.0
 30
0.0
  9
$PLIMCHECK
 70
     0
  9
$PEXTMIN
 10
1.000000000000000E+20
 20
1.000000000000000E+20
 30
1.000000000000000E+20
  9
$PEXTMAX
 10
-1.000000000000000E+20
 20
-1.000000000000000E+20
 30
-1.000000000000000E+20
  9
$PLIMMIN
 10
0.0
 20
0.0
  9
$PLIMMAX
 10
12.0
 20
9.0
  9
$UNITMODE
 70
     0
  9
$VISRETAIN
 70
     1
  9
$PLINEGEN
 70
     0
  9
$PSLTSCALE
 70
     1
  9
$TREEDEPTH
 70
  3020
  9
$CMLSTYLE
  2
Standard
  9
$CMLJUST
 70
     0
  9
$CMLSCALE
 40
1.0
  9
$PROXYGRAPHICS
 70
     1
  9
$MEASUREMENT
 70
     0
  9
$CELWEIGHT
370
    -1
  9
$ENDCAPS
280
     0
  9
$JOINSTYLE
280
     0
  9
$LWDISPLAY
290
     0
  9
$INSUNITS
 70
     5
  9
$HYPERLINKBASE
  1

  9
$STYLESHEET
  1

  9
$XEDIT
290
     1
  9
$CEPSNTYPE
380
     0
  9
$PSTYLEMODE
290
     1
  9
$FINGERPRINTGUID
  2
{6F7861FC-510B-436A-8FA7-3FB76164C4E4}
  9
$VERSIONGUID
  2
{FAEB1C32-E019-11D5-929B-00C0DF256EC4}
  9
$EXTNAMES
290
     1
  9
$PSVPSCALE
 40
0.0
  9
$OLESTARTUP
290
     0
  9
$SORTENTS
280
   127
  9
$INDEXCTL
280
     0
  9
$HIDETEXT
280
     1
  9
$XCLIPFRAME
290
     0
  9
$HALOGAP
280
     0
  9
$OBSCOLOR
 70
   257
  9
$OBSLTYPE
280
     0
  9
$INTERSECTIONDISPLAY
280
     0
  9
$INTERSECTIONCOLOR
 70
   257
  9
$DIMASSOC
280
     2
  9
$PROJECTNAME
  1

  9
$CAMERADISPLAY
290
     0
  9
$LENSLENGTH
 40
50.0
  9
$CAMERAHEIGHT
 40
0.0
  9
$STEPSPERSEC
 40
2.0
  9
$STEPSIZE
 40
6.0
  9
$3DDWFPREC
 40
2.0
  9
$PSOLWIDTH
 40
0.25
  9
$PSOLHEIGHT
 40
4.0
  9
$LOFTANG1
 40
1.570796326794897
  9
$LOFTANG2
 40
1.570796326794897
  9
$LOFTMAG1
 40
0.0
  9
$LOFTMAG2
 40
0.0
  9
$LOFTPARAM
 70
     7
  9
$LOFTNORMALS
280
     1
  9
$LATITUDE
 40
37.795
  9
$LONGITUDE
 40
-122.394
  9
$NORTHDIRECTION
 40
0.0
  9
$TIMEZONE
 70
 -8000
  9
$LIGHTGLYPHDISPLAY
280
     1
  9
$TILEMODELIGHTSYNCH
280
     1
  9
$SOLIDHIST
280
     1
  9
$SHOWHIST
280
     1
  9
$DWFFRAME
280
     2
  9
$DGNFRAME
280
     2
  9
$REALWORLDSCALE
290
     1
  9
$INTERFERECOLOR
 62
   256
  9
$CSHADOW
280
     0
  9
$SHADOWPLANELOCATION
 40
0.0
  0
ENDSEC
  0
SECTION
  2
CLASSES
  0
CLASS
  1
ACDBDICTIONARYWDFLT
  2
AcDbDictionaryWithDefault
  3
ObjectDBX Classes
 90
        0
 91
        4
280
     0
281
     0
  0
CLASS
  1
VISUALSTYLE
  2
AcDbVisualStyle
  3
ObjectDBX Classes
 90
     4095
 91
        4
280
     0
281
     0
  0
CLASS
  1
MATERIAL
  2
AcDbMaterial
  3
ObjectDBX Classes
 90
     1153
 91
        4
280
     0
281
     0
  0
ENDSEC
  0
SECTION
  2
TABLES
  0
TABLE
  2
VPORT
  5
8
330
0
100
AcDbSymbolTable
 70
     1
  0
VPORT
  5
29
330
8
100
AcDbSymbolTableRecord
100
AcDbViewportTableRecord
  2
*Active
 70
     0
 10
0.0
 20
0.0
 11
1.0
 21
1.0
 12
10.42990654205607
 22
4.5
 13
0.0
 23
0.0
 14
0.5
 24
0.5
 15
0.5
 25
0.5
 16
0.0
 26
0.0
 36
1.0
 17
0.0
 27
0.0
 37
0.0
 40
9.0
 41
1.972972972850329
 42
50.0
 43
0.0
 44
0.0
 50
0.0
 51
0.0
 71
     0
 72
   100
 73
     1
 74
     3
 75
     0
 76
     0
 77
     0
 78
     0
281
     0
 65
     1
110
0.0
120
0.0
130
0.0
111
1.0
121
0.0
131
0.0
112
0.0
122
1.0
132
0.0
 79
     0
146
0.0
 60
     3
 61
     5
292
     1
282
     1
141
0.0
142
0.0
 63
   250
  0
ENDTAB
  0
TABLE
  2
LTYPE
  5
5
330
0
100
AcDbSymbolTable
 70
     1
  0
LTYPE
  5
14
330
5
100
AcDbSymbolTableRecord
100
AcDbLinetypeTableRecord
  2
ByBlock
 70
     0
  3

 72
    65
 73
     0
 40
0.0
  0
LTYPE
  5
15
330
5
100
AcDbSymbolTableRecord
100
AcDbLinetypeTableRecord
  2
ByLayer
 70
     0
  3

 72
    65
 73
     0
 40
0.0
  0
LTYPE
  5
16
330
5
100
AcDbSymbolTableRecord
100
AcDbLinetypeTableRecord
  2
Continuous
 70
     0
  3
Solid line
 72
    65
 73
     0
 40
0.0
  0
ENDTAB
  0
TABLE
  2
LAYER
  5
2
330
0
100
AcDbSymbolTable
 70
     1
  0
LAYER
  5
10
330
2
100
AcDbSymbolTableRecord
100
AcDbLayerTableRecord
  2
0
 70
     0
 62
     7
  6
Continuous
370
    -3
390
F
347
3E
  0
ENDTAB
  0
TABLE
  2
STYLE
  5
3
330
0
100
AcDbSymbolTable
 70
     1
  0
STYLE
  5
11
330
3
100
AcDbSymbolTableRecord
100
AcDbTextStyleTableRecord
  2
Standard
 70
     0
 40
0.0
 41
1.0
 50
0.0
 71
     0
 42
0.2
  3
txt
  4

  0
ENDTAB
  0
TABLE
  2
VIEW
  5
6
330
0
100
AcDbSymbolTable
 70
     0
  0
ENDTAB
  0
TABLE
  2
UCS
  5
7
330
0
100
AcDbSymbolTable
 70
     0
  0
ENDTAB
  0
TABLE
  2
APPID
  5
9
330
0
100
AcDbSymbolTable
 70
     2
  0
APPID
  5
12
330
9
100
AcDbSymbolTableRecord
100
AcDbRegAppTableRecord
  2
ACAD
 70
     0
  0
APPID
  5
3F
330
9
100
AcDbSymbolTableRecord
100
AcDbRegAppTableRecord
  2
ODA
 70
     0
  0
ENDTAB
  0
TABLE
  2
DIMSTYLE
  5
A
330
0
100
AcDbSymbolTable
 70
     1
100
AcDbDimStyleTable
  0
DIMSTYLE
105
27
330
A
100
AcDbSymbolTableRecord
100
AcDbDimStyleTableRecord
  2
Standard
 70
     0
178
     0
340
11
  0
ENDTAB
  0
TABLE
  2
BLOCK_RECORD
  5
1
330
0
100
AcDbSymbolTable
 70
     1
  0
BLOCK_RECORD
  5
1F
330
1
100
AcDbSymbolTableRecord
100
AcDbBlockTableRecord
  2
*Model_Space
340
22
 70
     0
280
     1
281
     0
  0
BLOCK_RECORD
  5
1B
330
1
100
AcDbSymbolTableRecord
100
AcDbBlockTableRecord
  2
*Paper_Space
340
1E
 70
     0
280
     1
281
     0
  0
BLOCK_RECORD
  5
23
330
1
100
AcDbSymbolTableRecord
100
AcDbBlockTableRecord
  2
*Paper_Space0
340
26
 70
     0
280
     1
281
     0
  0
ENDTAB
  0
ENDSEC
  0
SECTION
  2
BLOCKS
  0
BLOCK
  5
20
330
1F
100
AcDbEntity
  8
0
100
AcDbBlockBegin
  2
*Model_Space
 70
     0
 10
0.0
 20
0.0
 30
0.0
  3
*Model_Space
  1

  0
ENDBLK
  5
21
330
1F
100
AcDbEntity
  8
0
100
AcDbBlockEnd
  0
BLOCK
  5
1C
330
1B
100
AcDbEntity
 67
     1
  8
0
100
AcDbBlockBegin
  2
*Paper_Space
 70
     0
 10
0.0
 20
0.0
 30
0.0
  3
*Paper_Space
  1

  0
ENDBLK
  5
1D
330
1B
100
AcDbEntity
 67
     1
  8
0
100
AcDbBlockEnd
  0
BLOCK
  5
24
330
23
100
AcDbEntity
  8
0
100
AcDbBlockBegin
  2
*Paper_Space0
 70
     0
 10
0.0
 20
0.0
 30
0.0
  3
*Paper_Space0
  1

  0
ENDBLK
  5
25
330
23
100
AcDbEntity
  8
0
100
AcDbBlockEnd
  0
ENDSEC
  0
SECTION
  2
ENTITIES
  0
SPLINE
  5
40
330
1F
100
AcDbEntity
  8
0
370
    15
100
AcDbSpline
210
0.0
220
0.0
230
1.0
 70
    24
 71
     3
 72
     8
 73
     4
 74
     0
 42
0.0000000001
 43
0.0000000001
 40
0.0
 40
0.0
 40
0.0
 40
0.0
 40
1.0
 40
1.0
 40
1.0
 40
1.0
 10
-12.09426
 20
9.37796
 30
0.0
 10
-12.09426
 20
9.37796
 30
0.0
 10
-12.09426
 20
8.4613
 30
0.0
 10
-12.09426
 20
8.4613
 30
0.0
  0
SPLINE
  5
41
330
1F
100
AcDbEntity
  8
0
370
    15
100
AcDbSpline
210
0.0
220
0.0
230
1.0
 70
    24
 71
     3
 72
     8
 73
     4
 74
     0
 42
0.0000000001
 43
0.0000000001
 40
0.0
 40
0.0
 40
0.0
 40
0.0
 40
1.0
 40
1.0
 40
1.0
 40
1.0
 10
-9.89426
 20
8.4613
 30
0.0
 10
-9.89426
 20
8.4613
 30
0.0
 10
-9.89426
 20
9.37796
 30
0.0
 10
-9.89426
 20
9.37796
 30
0.0
  0
SPLINE
  5
42
330
1F
100
AcDbEntity
  8
0
370
    15
100
AcDbSpline
210
0.0
220
0.0
230
1.0
 70
     8
 71
     3
 72
    12
 73
     8
 74
     0
 42
0.0000000001
 43
0.0000000001
 40
0.0
 40
0.0
 40
0.0
 40
0.0
 40
0.3333333333333333
 40
0.3333333333333333
 40
0.3333333333333333
 40
0.3333333333333333
 40
1.0
 40
1.0
 40
1.0
 40
1.0
 10
-12.0776
 20
9.39463
 30
0.0
 10
-12.08202
 20
9.39463
 30
0.0
 10
-12.08626
 20
9.39287
 30
0.0
 10
-12.08938
 20
9.38975
 30
0.0
 10
-12.08938
 20
9.38975
 30
0.0
 10
-12.09251
 20
9.38662
 30
0.0
 10
-12.09426
 20
9.38238
 30
0.0
 10
-12.09426
 20
9.37796
 30
0.0
  0
SPLINE
  5
43
330
1F
100
AcDbEntity
  8
0
370
    15
100
AcDbSpline
210
0.0
220
0.0
230
1.0
 70
     8
 71
     3
 72
    12
 73
     8
 74
     0
 42
0.0000000001
 43
0.0000000001
 40
0.0
 40
0.0
 40
0.0
 40
0.0
 40
0.3333333333333333
 40
0.3333333333333333
 40
0.3333333333333333
 40
0.3333333333333333
 40
1.0
 40
1.0
 40
1.0
 40
1.0
 10
-9.89426
 20
9.37796
 30
0.0
 10
-9.89426
 20
9.38238
 30
0.0
 10
-9.89602
 20
9.38662
 30
0.0
 10
-9.89915
 20
9.38975
 30
0.0
 10
-9.89915
 20
9.38975
 30
0.0
 10
-9.90227
 20
9.39287
 30
0.0
 10
-9.90651
 20
9.39463
 30
0.0
 10
-9.91093
 20
9.39463
 30
0.0
  0
SPLINE
  5
44
330
1F
100
AcDbEntity
  8
0
370
    15
100
AcDbSpline
210
0.0
220
0.0
230
1.0
 70
     8
 71
     3
 72
     8
 73
     4
 74
     0
 42
0.0000000001
 43
0.0000000001
 40
0.0
 40
0.0
 40
0.0
 40
0.0
 40
1.0
 40
1.0
 40
1.0
 40
1.0
 10
-11.7276
 20
9.39463
 30
0.0
 10
-11.71839
 20
9.39463
 30
0.0
 10
-11.71093
 20
9.40209
 30
0.0
 10
-11.71093
 20
9.4113
 30
0.0
  0
SPLINE
  5
45
330
1F
100
AcDbEntity
  8
0
370
    15
100
AcDbSpline
210
0.0
220
0.0
230
1.0
 70
     8
 71
     3
 72
    12
 73
     8
 74
     0
 42
0.0000000001
 43
0.0000000001
 40
0.0
 40
0.0
 40
0.0
 40
0.0
 40
0.3333333333333333
 40
0.3333333333333333
 40
0.3333333333333333
 40
0.3333333333333333
 40
1.0
 40
1.0
 40
1.0
 40
1.0
 10
-10.2776
 20
9.4113
 30
0.0
 10
-10.2776
 20
9.40688
 30
0.0
 10
-10.27584
 20
9.40264
 30
0.0
 10
-10.27272
 20
9.39951
 30
0.0
 10
-10.27272
 20
9.39951
 30
0.0
 10
-10.26959
 20
9.39639
 30
0.0
 10
-10.26535
 20
9.39463
 30
0.0
 10
-10.26093
 20
9.39463
 30
0.0
  0
SPLINE
  5
46
330
1F
100
AcDbEntity
  8
0
370
    15
100
AcDbSpline
210
0.0
220
0.0
230
1.0
 70
    24
 71
     3
 72
     8
 73
     4
 74
     0
 42
0.0000000001
 43
0.0000000001
 40
0.0
 40
0.0
 40
0.0
 40
0.0
 40
1.0
 40
1.0
 40
1.0
 40
1.0
 10
-11.71093
 20
10.1613
 30
0.0
 10
-11.71093
 20
10.1613
 30
0.0
 10
-11.71093
 20
9.4113
 30
0.0
 10
-11.71093
 20
9.4113
 30
0.0
  0
SPLINE
  5
47
330
1F
100
AcDbEntity
  8
0
370
    15
100
AcDbSpline
210
0.0
220
0.0
230
1.0
 70
    24
 71
     3
 72
     8
 73
     4
 74
     0
 42
0.0000000001
 43
0.0000000001
 40
0.0
 40
0.0
 40
0.0
 40
0.0
 40
1.0
 40
1.0
 40
1.0
 40
1.0
 10
-10.2776
 20
9.4113
 30
0.0
 10
-10.2776
 20
9.4113
 30
0.0
 10
-10.2776
 20
10.1613
 30
0.0
 10
-10.2776
 20
10.1613
 30
0.0
  0
SPLINE
  5
48
330
1F
100
AcDbEntity
  8
0
370
    15
100
AcDbSpline
210
0.0
220
0.0
230
1.0
 70
    24
 71
     3
 72
     8
 73
     4
 74
     0
 42
0.0000000001
 43
0.0000000001
 40
0.0
 40
0.0
 40
0.0
 40
0.0
 40
1.0
 40
1.0
 40
1.0
 40
1.0
 10
-11.8276
 20
11.82796
 30
0.0
 10
-11.8276
 20
11.82796
 30
0.0
 10
-11.8276
 20
10.1613
 30
0.0
 10
-11.8276
 20
10.1613
 30
0.0
  0
SPLINE
  5
49
330
1F
100
AcDbEntity
  8
0
370
    15
100
AcDbSpline
210
0.0
220
0.0
230
1.0
 70
    24
 71
     3
 72
     8
 73
     4
 74
     0
 42
0.0000000001
 43
0.0000000001
 40
0.0
 40
0.0
 40
0.0
 40
0.0
 40
1.0
 40
1.0
 40
1.0
 40
1.0
 10
-10.16093
 20
10.1613
 30
0.0
 10
-10.16093
 20
10.1613
 30
0.0
 10
-10.16093
 20
11.82796
 30
0.0
 10
-10.16093
 20
11.82796
 30
0.0
  0
SPLINE
  5
4A
330
1F
100
AcDbEntity
  8
0
370
    15
100
AcDbSpline
210
0.0
220
0.0
230
1.0
 70
    24
 71
     3
 72
     8
 73
     4
 74
     0
 42
0.0000000001
 43
0.0000000001
 40
0.0
 40
0.0
 40
0.0
 40
0.0
 40
1.0
 40
1.0
 40
1.0
 40
1.0
 10
-13.29426
 20
8.06816
 30
0.0
 10
-13.29426
 20
8.06816
 30
0.0
 10
-13.29426
 20
6.60771
 30
0.0
 10
-13.29426
 20
6.60771
 30
0.0
  0
SPLINE
  5
4B
330
1F
100
AcDbEntity
  8
0
370
    15
100
AcDbSpline
210
0.0
220
0.0
230
1.0
 70
    24
 71
     3
 72
     8
 73
     4
 74
     0
 42
0.0000000001
 43
0.0000000001
 40
0.0
 40
0.0
 40
0.0
 40
0.0
 40
1.0
 40
1.0
 40
1.0
 40
1.0
 10
-8.69426
 20
6.60771
 30
0.0
 10
-8.69426
 20
6.60771
 30
0.0
 10
-8.69426
 20
8.06816
 30
0.0
 10
-8.69426
 20
8.06816
 30
0.0
  0
SPLINE
  5
4C
330
1F
100
AcDbEntity
  8
0
370
    15
100
AcDbSpline
210
0.0
220
0.0
230
1.0
 70
     8
 71
     3
 72
     8
 73
     4
 74
     0
 42
0.0000000001
 43
0.0000000001
 40
0.0
 40
0.0
 40
0.0
 40
0.0
 40
1.0
 40
1.0
 40
1.0
 40
1.0
 10
-8.69426
 20
8.06816
 30
0.0
 10
-8.69426
 20
8.1759
 30
0.0
 10
-8.77961
 20
8.26428
 30
0.0
 10
-8.88728
 20
8.26804
 30
0.0
  0
SPLINE
  5
4D
330
1F
100
AcDbEntity
  8
0
370
    15
100
AcDbSpline
210
0.0
220
0.0
230
1.0
 70
     8
 71
     3
 72
     8
 73
     4
 74
     0
 42
0.0000000001
 43
0.0000000001
 40
0.0
 40
0.0
 40
0.0
 40
0.0
 40
1.0
 40
1.0
 40
1.0
 40
1.0
 10
-13.10124
 20
8.26804
 30
0.0
 10
-13.20892
 20
8.26428
 30
0.0
 10
-13.29426
 20
8.1759
 30
0.0
 10
-13.29426
 20
8.06816
 30
0.0
  0
SPLINE
  5
4E
330
1F
100
AcDbEntity
  8
0
370
    15
100
AcDbSpline
210
0.0
220
0.0
230
1.0
 70
     8
 71
     3
 72
     8
 73
     4
 74
     0
 42
0.0000000001
 43
0.0000000001
 40
0.0
 40
0.0
 40
0.0
 40
0.0
 40
1.0
 40
1.0
 40
1.0
 40
1.0
 10
-8.79426
 20
6.4345
 30
0.0
 10
-8.73238
 20
6.47023
 30
0.0
 10
-8.69426
 20
6.53625
 30
0.0
 10
-8.69426
 20
6.60771
 30
0.0
  0
SPLINE
  5
4F
330
1F
100
AcDbEntity
  8
0
370
    15
100
AcDbSpline
210
0.0
220
0.0
230
1.0
 70
     8
 71
     3
 72
     8
 73
     4
 74
     0
 42
0.0000000001
 43
0.0000000001
 40
0.0
 40
0.0
 40
0.0
 40
0.0
 40
1.0
 40
1.0
 40
1.0
 40
1.0
 10
-13.29426
 20
6.60771
 30
0.0
 10
-13.29426
 20
6.53625
 30
0.0
 10
-13.25614
 20
6.47023
 30
0.0
 10
-13.19426
 20
6.4345
 30
0.0
  0
SPLINE
  5
50
330
1F
100
AcDbEntity
  8
0
370
    15
100
AcDbSpline
210
0.0
220
0.0
230
1.0
 70
    24
 71
     3
 72
     8
 73
     4
 74
     0
 42
0.0000000001
 43
0.0000000001
 40
0.0
 40
0.0
 40
0.0
 40
0.0
 40
1.0
 40
1.0
 40
1.0
 40
1.0
 10
-8.88728
 20
8.26804
 30
0.0
 10
-8.88728
 20
8.26804
 30
0.0
 10
-9.96093
 20
8.30553
 30
0.0
 10
-9.96093
 20
8.30553
 30
0.0
  0
SPLINE
  5
51
330
1F
100
AcDbEntity
  8
0
370
    15
100
AcDbSpline
210
0.0
220
0.0
230
1.0
 70
    24
 71
     3
 72
     8
 73
     4
 74
     0
 42
0.0000000001
 43
0.0000000001
 40
0.0
 40
0.0
 40
0.0
 40
0.0
 40
1.0
 40
1.0
 40
1.0
 40
1.0
 10
-12.0276
 20
8.30553
 30
0.0
 10
-12.0276
 20
8.30553
 30
0.0
 10
-13.10124
 20
8.26804
 30
0.0
 10
-13.10124
 20
8.26804
 30
0.0
  0
SPLINE
  5
52
330
1F
100
AcDbEntity
  8
0
370
    15
100
AcDbSpline
210
0.0
220
0.0
230
1.0
 70
     8
 71
     3
 72
    12
 73
     8
 74
     0
 42
0.0000000001
 43
0.0000000001
 40
0.0
 40
0.0
 40
0.0
 40
0.0
 40
0.3333333333333333
 40
0.3333333333333333
 40
0.3333333333333333
 40
0.3333333333333333
 40
1.0
 40
1.0
 40
1.0
 40
1.0
 10
-11.9276
 20
8.4613
 30
0.0
 10
-11.95412
 20
8.4613
 30
0.0
 10
-11.97955
 20
8.45076
 30
0.0
 10
-11.99831
 20
8.43201
 30
0.0
 10
-11.99831
 20
8.43201
 30
0.0
 10
-12.01706
 20
8.41325
 30
0.0
 10
-12.0276
 20
8.38782
 30
0.0
 10
-12.0276
 20
8.3613
 30
0.0
  0
SPLINE
  5
53
330
1F
100
AcDbEntity
  8
0
370
    15
100
AcDbSpline
210
0.0
220
0.0
230
1.0
 70
     8
 71
     3
 72
    12
 73
     8
 74
     0
 42
0.0000000001
 43
0.0000000001
 40
0.0
 40
0.0
 40
0.0
 40
0.0
 40
0.3333333333333333
 40
0.3333333333333333
 40
0.3333333333333333
 40
0.3333333333333333
 40
1.0
 40
1.0
 40
1.0
 40
1.0
 10
-9.96093
 20
8.3613
 30
0.0
 10
-9.96093
 20
8.38782
 30
0.0
 10
-9.97147
 20
8.41325
 30
0.0
 10
-9.99022
 20
8.43201
 30
0.0
 10
-9.99022
 20
8.43201
 30
0.0
 10
-10.00897
 20
8.45076
 30
0.0
 10
-10.03441
 20
8.4613
 30
0.0
 10
-10.06093
 20
8.4613
 30
0.0
  0
SPLINE
  5
54
330
1F
100
AcDbEntity
  8
0
370
    15
100
AcDbSpline
210
0.0
220
0.0
230
1.0
 70
    24
 71
     3
 72
     8
 73
     4
 74
     0
 42
0.0000000001
 43
0.0000000001
 40
0.0
 40
0.0
 40
0.0
 40
0.0
 40
1.0
 40
1.0
 40
1.0
 40
1.0
 10
-12.0276
 20
8.3613
 30
0.0
 10
-12.0276
 20
8.3613
 30
0.0
 10
-12.0276
 20
8.30553
 30
0.0
 10
-12.0276
 20
8.30553
 30
0.0
  0
SPLINE
  5
55
330
1F
100
AcDbEntity
  8
0
370
    15
100
AcDbSpline
210
0.0
220
0.0
230
1.0
 70
    24
 71
     3
 72
     8
 73
     4
 74
     0
 42
0.0000000001
 43
0.0000000001
 40
0.0
 40
0.0
 40
0.0
 40
0.0
 40
1.0
 40
1.0
 40
1.0
 40
1.0
 10
-9.96093
 20
8.30553
 30
0.0
 10
-9.96093
 20
8.30553
 30
0.0
 10
-9.96093
 20
8.3613
 30
0.0
 10
-9.96093
 20
8.3613
 30
0.0
  0
SPLINE
  5
56
330
1F
100
AcDbEntity
  8
0
370
    15
100
AcDbSpline
210
0.0
220
0.0
230
1.0
 70
     8
 71
     3
 72
     8
 73
     4
 74
     0
 42
0.0000000001
 43
0.0000000001
 40
0.0
 40
0.0
 40
0.0
 40
0.0
 40
1.0
 40
1.0
 40
1.0
 40
1.0
 10
-10.66093
 20
0.20117
 30
0.0
 10
-10.62411
 20
0.20117
 30
0.0
 10
-10.59426
 20
0.23102
 30
0.0
 10
-10.59426
 20
0.26783
 30
0.0
  0
SPLINE
  5
57
330
1F
100
AcDbEntity
  8
0
370
    15
100
AcDbSpline
210
0.0
220
0.0
230
1.0
 70
     8
 71
     3
 72
    12
 73
     8
 74
     0
 42
0.0000000001
 43
0.0000000001
 40
0.0
 40
0.0
 40
0.0
 40
0.0
 40
0.3333333333333333
 40
0.3333333333333333
 40
0.3333333333333333
 40
0.3333333333333333
 40
1.0
 40
1.0
 40
1.0
 40
1.0
 10
-11.39426
 20
0.26784
 30
0.0
 10
-11.39426
 20
0.25015
 30
0.0
 10
-11.38724
 20
0.2332
 30
0.0
 10
-11.37474
 20
0.22069
 30
0.0
 10
-11.37474
 20
0.22069
 30
0.0
 10
-11.36223
 20
0.20819
 30
0.0
 10
-11.34528
 20
0.20117
 30
0.0
 10
-11.3276
 20
0.20117
 30
0.0
  0
SPLINE
  5
58
330
1F
100
AcDbEntity
  8
0
370
    15
100
AcDbSpline
210
0.0
220
0.0
230
1.0
 70
    24
 71
     3
 72
     8
 73
     4
 74
     0
 42
0.0000000001
 43
0.0000000001
 40
0.0
 40
0.0
 40
0.0
 40
0.0
 40
1.0
 40
1.0
 40
1.0
 40
1.0
 10
-10.59426
 20
0.26784
 30
0.0
 10
-10.59426
 20
0.26784
 30
0.0
 10
-10.59426
 20
0.3345
 30
0.0
 10
-10.59426
 20
0.3345
 30
0.0
  0
SPLINE
  5
59
330
1F
100
AcDbEntity
  8
0
370
    15
100
AcDbSpline
210
0.0
220
0.0
230
1.0
 70
    24
 71
     3
 72
     8
 73
     4
 74
     0
 42
0.0000000001
 43
0.0000000001
 40
0.0
 40
0.0
 40
0.0
 40
0.0
 40
1.0
 40
1.0
 40
1.0
 40
1.0
 10
-11.39426
 20
0.3345
 30
0.0
 10
-11.39426
 20
0.3345
 30
0.0
 10
-11.39426
 20
0.26784
 30
0.0
 10
-11.39426
 20
0.26784
 30
0.0
  0
SPLINE
  5
5A
330
1F
100
AcDbEntity
  8
0
370
    15
100
AcDbSpline
210
0.0
220
0.0
230
1.0
 70
     8
 71
     3
 72
     8
 73
     4
 74
     0
 42
0.0000000001
 43
0.0000000001
 40
0.0
 40
0.0
 40
0.0
 40
0.0
 40
1.0
 40
1.0
 40
1.0
 40
1.0
 10
-12.16204
 20
0.20117
 30
0.0
 10
-12.12522
 20
0.20117
 30
0.0
 10
-12.09537
 20
0.23102
 30
0.0
 10
-12.09537
 20
0.26783
 30
0.0
  0
SPLINE
  5
5B
330
1F
100
AcDbEntity
  8
0
370
    15
100
AcDbSpline
210
0.0
220
0.0
230
1.0
 70
     8
 71
     3
 72
    12
 73
     8
 74
     0
 42
0.0000000001
 43
0.0000000001
 40
0.0
 40
0.0
 40
0.0
 40
0.0
 40
0.3333333333333333
 40
0.3333333333333333
 40
0.3333333333333333
 40
0.3333333333333333
 40
1.0
 40
1.0
 40
1.0
 40
1.0
 10
-12.89537
 20
0.26784
 30
0.0
 10
-12.89537
 20
0.25015
 30
0.0
 10
-12.88835
 20
0.2332
 30
0.0
 10
-12.87585
 20
0.22069
 30
0.0
 10
-12.87585
 20
0.22069
 30
0.0
 10
-12.86335
 20
0.20819
 30
0.0
 10
-12.84639
 20
0.20117
 30
0.0
 10
-12.82871
 20
0.20117
 30
0.0
  0
SPLINE
  5
5C
330
1F
100
AcDbEntity
  8
0
370
    15
100
AcDbSpline
210
0.0
220
0.0
230
1.0
 70
    24
 71
     3
 72
     8
 73
     4
 74
     0
 42
0.0000000001
 43
0.0000000001
 40
0.0
 40
0.0
 40
0.0
 40
0.0
 40
1.0
 40
1.0
 40
1.0
 40
1.0
 10
-12.09537
 20
0.26784
 30
0.0
 10
-12.09537
 20
0.26784
 30
0.0
 10
-12.09537
 20
0.3345
 30
0.0
 10
-12.09537
 20
0.3345
 30
0.0
  0
SPLINE
  5
5D
330
1F
100
AcDbEntity
  8
0
370
    15
100
AcDbSpline
210
0.0
220
0.0
230
1.0
 70
    24
 71
     3
 72
     8
 73
     4
 74
     0
 42
0.0000000001
 43
0.0000000001
 40
0.0
 40
0.0
 40
0.0
 40
0.0
 40
1.0
 40
1.0
 40
1.0
 40
1.0
 10
-12.89537
 20
0.3345
 30
0.0
 10
-12.89537
 20
0.3345
 30
0.0
 10
-12.89537
 20
0.26784
 30
0.0
 10
-12.89537
 20
0.26784
 30
0.0
  0
SPLINE
  5
5E
330
1F
100
AcDbEntity
  8
0
370
    15
100
AcDbSpline
210
0.0
220
0.0
230
1.0
 70
    24
 71
     3
 72
     8
 73
     4
 74
     0
 42
0.0000000001
 43
0.0000000001
 40
0.0
 40
0.0
 40
0.0
 40
0.0
 40
1.0
 40
1.0
 40
1.0
 40
1.0
 10
-9.09315
 20
0.26784
 30
0.0
 10
-9.09315
 20
0.26784
 30
0.0
 10
-9.09315
 20
0.3345
 30
0.0
 10
-9.09315
 20
0.3345
 30
0.0
  0
SPLINE
  5
5F
330
1F
100
AcDbEntity
  8
0
370
    15
100
AcDbSpline
210
0.0
220
0.0
230
1.0
 70
    24
 71
     3
 72
     8
 73
     4
 74
     0
 42
0.0000000001
 43
0.0000000001
 40
0.0
 40
0.0
 40
0.0
 40
0.0
 40
1.0
 40
1.0
 40
1.0
 40
1.0
 10
-9.89315
 20
0.3345
 30
0.0
 10
-9.89315
 20
0.3345
 30
0.0
 10
-9.89315
 20
0.26784
 30
0.0
 10
-9.89315
 20
0.26784
 30
0.0
  0
SPLINE
  5
60
330
1F
100
AcDbEntity
  8
0
370
    15
100
AcDbSpline
210
0.0
220
0.0
230
1.0
 70
     8
 71
     3
 72
     8
 73
     4
 74
     0
 42
0.0000000001
 43
0.0000000001
 40
0.0
 40
0.0
 40
0.0
 40
0.0
 40
1.0
 40
1.0
 40
1.0
 40
1.0
 10
-9.15982
 20
0.20117
 30
0.0
 10
-9.123
 20
0.20117
 30
0.0
 10
-9.09315
 20
0.23102
 30
0.0
 10
-9.09315
 20
0.26783
 30
0.0
  0
SPLINE
  5
61
330
1F
100
AcDbEntity
  8
0
370
    15
100
AcDbSpline
210
0.0
220
0.0
230
1.0
 70
     8
 71
     3
 72
    12
 73
     8
 74
     0
 42
0.0000000001
 43
0.0000000001
 40
0.0
 40
0.0
 40
0.0
 40
0.0
 40
0.3333333333333333
 40
0.3333333333333333
 40
0.3333333333333333
 40
0.3333333333333333
 40
1.0
 40
1.0
 40
1.0
 40
1.0
 10
-9.89315
 20
0.26784
 30
0.0
 10
-9.89315
 20
0.25015
 30
0.0
 10
-9.88613
 20
0.2332
 30
0.0
 10
-9.87363
 20
0.22069
 30
0.0
 10
-9.87363
 20
0.22069
 30
0.0
 10
-9.86112
 20
0.20819
 30
0.0
 10
-9.84417
 20
0.20117
 30
0.0
 10
-9.82649
 20
0.20117
 30
0.0
  0
SPLINE
  5
62
330
1F
100
AcDbEntity
  8
0
370
    15
100
AcDbSpline
210
0.0
220
0.0
230
1.0
 70
    24
 71
     3
 72
     8
 73
     4
 74
     0
 42
0.0000000001
 43
0.0000000001
 40
0.0
 40
0.0
 40
0.0
 40
0.0
 40
1.0
 40
1.0
 40
1.0
 40
1.0
 10
-8.66093
 20
6.3345
 30
0.0
 10
-8.66093
 20
6.3345
 30
0.0
 10
-8.66093
 20
6.4345
 30
0.0
 10
-8.66093
 20
6.4345
 30
0.0
  0
SPLINE
  5
63
330
1F
100
AcDbEntity
  8
0
370
    15
100
AcDbSpline
210
0.0
220
0.0
230
1.0
 70
    24
 71
     3
 72
     8
 73
     4
 74
     0
 42
0.0000000001
 43
0.0000000001
 40
0.0
 40
0.0
 40
0.0
 40
0.0
 40
1.0
 40
1.0
 40
1.0
 40
1.0
 10
-13.3276
 20
6.4345
 30
0.0
 10
-13.3276
 20
6.4345
 30
0.0
 10
-13.3276
 20
6.3345
 30
0.0
 10
-13.3276
 20
6.3345
 30
0.0
  0
SPLINE
  5
64
330
1F
100
AcDbEntity
  8
0
370
    15
100
AcDbSpline
210
0.0
220
0.0
230
1.0
 70
    24
 71
     3
 72
     8
 73
     4
 74
     0
 42
0.0000000001
 43
0.0000000001
 40
0.0
 40
0.0
 40
0.0
 40
0.0
 40
1.0
 40
1.0
 40
1.0
 40
1.0
 10
-8.66093
 20
0.3345
 30
0.0
 10
-8.66093
 20
0.3345
 30
0.0
 10
-8.66093
 20
6.3345
 30
0.0
 10
-8.66093
 20
6.3345
 30
0.0
  0
SPLINE
  5
65
330
1F
100
AcDbEntity
  8
0
370
    15
100
AcDbSpline
210
0.0
220
0.0
230
1.0
 70
    24
 71
     3
 72
     8
 73
     4
 74
     0
 42
0.0000000001
 43
0.0000000001
 40
0.0
 40
0.0
 40
0.0
 40
0.0
 40
1.0
 40
1.0
 40
1.0
 40
1.0
 10
-13.3276
 20
6.3345
 30
0.0
 10
-13.3276
 20
6.3345
 30
0.0
 10
-13.3276
 20
0.3345
 30
0.0
 10
-13.3276
 20
0.3345
 30
0.0
  0
SPLINE
  5
66
330
1F
100
AcDbEntity
  8
0
370
    15
100
AcDbSpline
210
0.0
220
0.0
230
1.0
 70
    24
 71
     3
 72
     8
 73
     4
 74
     0
 42
0.0000000001
 43
0.0000000001
 40
0.0
 40
0.0
 40
0.0
 40
0.0
 40
1.0
 40
1.0
 40
1.0
 40
1.0
 10
-10.92978
 20
8.4613
 30
0.0
 10
-10.92978
 20
8.4613
 30
0.0
 10
-9.89426
 20
8.4613
 30
0.0
 10
-9.89426
 20
8.4613
 30
0.0
  0
SPLINE
  5
67
330
1F
100
AcDbEntity
  8
0
370
    15
100
AcDbSpline
210
0.0
220
0.0
230
1.0
 70
    24
 71
     3
 72
     8
 73
     4
 74
     0
 42
0.0000000001
 43
0.0000000001
 40
0.0
 40
0.0
 40
0.0
 40
0.0
 40
1.0
 40
1.0
 40
1.0
 40
1.0
 10
-12.09426
 20
8.4613
 30
0.0
 10
-12.09426
 20
8.4613
 30
0.0
 10
-10.92978
 20
8.4613
 30
0.0
 10
-10.92978
 20
8.4613
 30
0.0
  0
SPLINE
  5
68
330
1F
100
AcDbEntity
  8
0
370
    15
100
AcDbSpline
210
0.0
220
0.0
230
1.0
 70
    24
 71
     3
 72
     8
 73
     4
 74
     0
 42
0.0000000001
 43
0.0000000001
 40
0.0
 40
0.0
 40
0.0
 40
0.0
 40
1.0
 40
1.0
 40
1.0
 40
1.0
 10
-10.93076
 20
9.39463
 30
0.0
 10
-10.93076
 20
9.39463
 30
0.0
 10
-9.91093
 20
9.39463
 30
0.0
 10
-9.91093
 20
9.39463
 30
0.0
  0
SPLINE
  5
69
330
1F
100
AcDbEntity
  8
0
370
    15
100
AcDbSpline
210
0.0
220
0.0
230
1.0
 70
    24
 71
     3
 72
     8
 73
     4
 74
     0
 42
0.0000000001
 43
0.0000000001
 40
0.0
 40
0.0
 40
0.0
 40
0.0
 40
1.0
 40
1.0
 40
1.0
 40
1.0
 10
-12.0776
 20
9.39463
 30
0.0
 10
-12.0776
 20
9.39463
 30
0.0
 10
-10.93076
 20
9.39463
 30
0.0
 10
-10.93076
 20
9.39463
 30
0.0
  0
SPLINE
  5
6A
330
1F
100
AcDbEntity
  8
0
370
    15
100
AcDbSpline
210
0.0
220
0.0
230
1.0
 70
    11
 71
     3
 72
    20
 73
    16
 74
     0
 42
0.0000000001
 43
0.0000000001
 40
0.0
 40
0.0
 40
0.0
 40
0.0
 40
0.2
 40
0.2
 40
0.2
 40
0.2
 40
0.4
 40
0.4
 40
0.4
 40
0.4
 40
0.6
 40
0.6
 40
0.6
 40
0.6
 40
1.0
 40
1.0
 40
1.0
 40
1.0
 10
-10.79426
 20
11.42796
 30
0.0
 10
-10.79426
 20
11.53842
 30
0.0
 10
-10.88381
 20
11.62796
 30
0.0
 10
-10.99426
 20
11.62796
 30
0.0
 10
-10.99426
 20
11.62796
 30
0.0
 10
-11.10472
 20
11.62796
 30
0.0
 10
-11.19426
 20
11.53842
 30
0.0
 10
-11.19426
 20
11.42796
 30
0.0
 10
-11.19426
 20
11.42796
 30
0.0
 10
-11.19426
 20
11.31751
 30
0.0
 10
-11.10472
 20
11.22796
 30
0.0
 10
-10.99426
 20
11.22796
 30
0.0
 10
-10.99426
 20
11.22796
 30
0.0
 10
-10.88381
 20
11.22796
 30
0.0
 10
-10.79426
 20
11.31751
 30
0.0
 10
-10.79426
 20
11.42796
 30
0.0
  0
SPLINE
  5
6B
330
1F
100
AcDbEntity
  8
0
370
    15
100
AcDbSpline
210
0.0
220
0.0
230
1.0
 70
    24
 71
     3
 72
     8
 73
     4
 74
     0
 42
0.0000000001
 43
0.0000000001
 40
0.0
 40
0.0
 40
0.0
 40
0.0
 40
1.0
 40
1.0
 40
1.0
 40
1.0
 10
-11.8276
 20
11.82796
 30
0.0
 10
-11.8276
 20
11.82796
 30
0.0
 10
-10.16093
 20
11.82796
 30
0.0
 10
-10.16093
 20
11.82796
 30
0.0
  0
SPLINE
  5
6C
330
1F
100
AcDbEntity
  8
0
370
    15
100
AcDbSpline
210
0.0
220
0.0
230
1.0
 70
    24
 71
     3
 72
     8
 73
     4
 74
     0
 42
0.0000000001
 43
0.0000000001
 40
0.0
 40
0.0
 40
0.0
 40
0.0
 40
1.0
 40
1.0
 40
1.0
 40
1.0
 10
-11.8276
 20
10.1613
 30
0.0
 10
-11.8276
 20
10.1613
 30
0.0
 10
-10.16093
 20
10.1613
 30
0.0
 10
-10.16093
 20
10.1613
 30
0.0
  0
SPLINE
  5
6D
330
1F
100
AcDbEntity
  8
0
370
    15
100
AcDbSpline
210
0.0
220
0.0
230
1.0
 70
    24
 71
     3
 72
     8
 73
     4
 74
     0
 42
0.0000000001
 43
0.0000000001
 40
0.0
 40
0.0
 40
0.0
 40
0.0
 40
1.0
 40
1.0
 40
1.0
 40
1.0
 10
-11.01067
 20
8.30553
 30
0.0
 10
-11.01067
 20
8.30553
 30
0.0
 10
-9.96093
 20
8.30553
 30
0.0
 10
-9.96093
 20
8.30553
 30
0.0
  0
SPLINE
  5
6E
330
1F
100
AcDbEntity
  8
0
370
    15
100
AcDbSpline
210
0.0
220
0.0
230
1.0
 70
    24
 71
     3
 72
     8
 73
     4
 74
     0
 42
0.0000000001
 43
0.0000000001
 40
0.0
 40
0.0
 40
0.0
 40
0.0
 40
1.0
 40
1.0
 40
1.0
 40
1.0
 10
-12.0276
 20
8.30553
 30
0.0
 10
-12.0276
 20
8.30553
 30
0.0
 10
-11.01067
 20
8.30553
 30
0.0
 10
-11.01067
 20
8.30553
 30
0.0
  0
SPLINE
  5
6F
330
1F
100
AcDbEntity
  8
0
370
    15
100
AcDbSpline
210
0.0
220
0.0
230
1.0
 70
    24
 71
     3
 72
     8
 73
     4
 74
     0
 42
0.0000000001
 43
0.0000000001
 40
0.0
 40
0.0
 40
0.0
 40
0.0
 40
1.0
 40
1.0
 40
1.0
 40
1.0
 10
-11.28294
 20
0.20117
 30
0.0
 10
-11.28294
 20
0.20117
 30
0.0
 10
-11.3276
 20
0.20117
 30
0.0
 10
-11.3276
 20
0.20117
 30
0.0
  0
SPLINE
  5
70
330
1F
100
AcDbEntity
  8
0
370
    15
100
AcDbSpline
210
0.0
220
0.0
230
1.0
 70
    24
 71
     3
 72
     8
 73
     4
 74
     0
 42
0.0000000001
 43
0.0000000001
 40
0.0
 40
0.0
 40
0.0
 40
0.0
 40
1.0
 40
1.0
 40
1.0
 40
1.0
 10
-10.66093
 20
0.20117
 30
0.0
 10
-10.66093
 20
0.20117
 30
0.0
 10
-11.28294
 20
0.20117
 30
0.0
 10
-11.28294
 20
0.20117
 30
0.0
  0
SPLINE
  5
71
330
1F
100
AcDbEntity
  8
0
370
    15
100
AcDbSpline
210
0.0
220
0.0
230
1.0
 70
    24
 71
     3
 72
     8
 73
     4
 74
     0
 42
0.0000000001
 43
0.0000000001
 40
0.0
 40
0.0
 40
0.0
 40
0.0
 40
1.0
 40
1.0
 40
1.0
 40
1.0
 10
-12.16204
 20
0.20117
 30
0.0
 10
-12.16204
 20
0.20117
 30
0.0
 10
-12.82871
 20
0.20117
 30
0.0
 10
-12.82871
 20
0.20117
 30
0.0
  0
SPLINE
  5
72
330
1F
100
AcDbEntity
  8
0
370
    15
100
AcDbSpline
210
0.0
220
0.0
230
1.0
 70
    24
 71
     3
 72
     8
 73
     4
 74
     0
 42
0.0000000001
 43
0.0000000001
 40
0.0
 40
0.0
 40
0.0
 40
0.0
 40
1.0
 40
1.0
 40
1.0
 40
1.0
 10
-9.20448
 20
0.20117
 30
0.0
 10
-9.20448
 20
0.20117
 30
0.0
 10
-9.82649
 20
0.20117
 30
0.0
 10
-9.82649
 20
0.20117
 30
0.0
  0
SPLINE
  5
73
330
1F
100
AcDbEntity
  8
0
370
    15
100
AcDbSpline
210
0.0
220
0.0
230
1.0
 70
    24
 71
     3
 72
     8
 73
     4
 74
     0
 42
0.0000000001
 43
0.0000000001
 40
0.0
 40
0.0
 40
0.0
 40
0.0
 40
1.0
 40
1.0
 40
1.0
 40
1.0
 10
-9.15982
 20
0.20117
 30
0.0
 10
-9.15982
 20
0.20117
 30
0.0
 10
-9.20448
 20
0.20117
 30
0.0
 10
-9.20448
 20
0.20117
 30
0.0
  0
SPLINE
  5
74
330
1F
100
AcDbEntity
  8
0
370
    15
100
AcDbSpline
210
0.0
220
0.0
230
1.0
 70
    24
 71
     3
 72
     8
 73
     4
 74
     0
 42
0.0000000001
 43
0.0000000001
 40
0.0
 40
0.0
 40
0.0
 40
0.0
 40
1.0
 40
1.0
 40
1.0
 40
1.0
 10
-8.66093
 20
6.4345
 30
0.0
 10
-8.66093
 20
6.4345
 30
0.0
 10
-13.3276
 20
6.4345
 30
0.0
 10
-13.3276
 20
6.4345
 30
0.0
  0
SPLINE
  5
75
330
1F
100
AcDbEntity
  8
0
370
    15
100
AcDbSpline
210
0.0
220
0.0
230
1.0
 70
    24
 71
     3
 72
     8
 73
     4
 74
     0
 42
0.0000000001
 43
0.0000000001
 40
0.0
 40
0.0
 40
0.0
 40
0.0
 40
1.0
 40
1.0
 40
1.0
 40
1.0
 10
-8.66093
 20
6.3345
 30
0.0
 10
-8.66093
 20
6.3345
 30
0.0
 10
-13.3276
 20
6.3345
 30
0.0
 10
-13.3276
 20
6.3345
 30
0.0
  0
SPLINE
  5
76
330
1F
100
AcDbEntity
  8
0
370
    15
100
AcDbSpline
210
0.0
220
0.0
230
1.0
 70
    24
 71
     3
 72
     8
 73
     4
 74
     0
 42
0.0000000001
 43
0.0000000001
 40
0.0
 40
0.0
 40
0.0
 40
0.0
 40
1.0
 40
1.0
 40
1.0
 40
1.0
 10
-10.99426
 20
0.3345
 30
0.0
 10
-10.99426
 20
0.3345
 30
0.0
 10
-8.66093
 20
0.3345
 30
0.0
 10
-8.66093
 20
0.3345
 30
0.0
  0
SPLINE
  5
77
330
1F
100
AcDbEntity
  8
0
370
    15
100
AcDbSpline
210
0.0
220
0.0
230
1.0
 70
    24
 71
     3
 72
     8
 73
     4
 74
     0
 42
0.0000000001
 43
0.0000000001
 40
0.0
 40
0.0
 40
0.0
 40
0.0
 40
1.0
 40
1.0
 40
1.0
 40
1.0
 10
-13.3276
 20
0.3345
 30
0.0
 10
-13.3276
 20
0.3345
 30
0.0
 10
-10.99426
 20
0.3345
 30
0.0
 10
-10.99426
 20
0.3345
 30
0.0
  0
SPLINE
  5
78
330
1F
100
AcDbEntity
  8
0
370
    15
100
AcDbSpline
210
0.0
220
0.0
230
1.0
 70
    24
 71
     3
 72
     8
 73
     4
 74
     0
 42
0.0000000001
 43
0.0000000001
 40
0.0
 40
0.0
 40
0.0
 40
0.0
 40
1.0
 40
1.0
 40
1.0
 40
1.0
 10
-10.99426
 20
6.3345
 30
0.0
 10
-10.99426
 20
6.3345
 30
0.0
 10
-8.66093
 20
6.3345
 30
0.0
 10
-8.66093
 20
6.3345
 30
0.0
  0
SPLINE
  5
79
330
1F
100
AcDbEntity
  8
0
370
    15
100
AcDbSpline
210
0.0
220
0.0
230
1.0
 70
    24
 71
     3
 72
     8
 73
     4
 74
     0
 42
0.0000000001
 43
0.0000000001
 40
0.0
 40
0.0
 40
0.0
 40
0.0
 40
1.0
 40
1.0
 40
1.0
 40
1.0
 10
-13.3276
 20
6.3345
 30
0.0
 10
-13.3276
 20
6.3345
 30
0.0
 10
-10.99426
 20
6.3345
 30
0.0
 10
-10.99426
 20
6.3345
 30
0.0
  0
SPLINE
  5
7A
330
1F
100
AcDbEntity
  8
0
 62
     8
370
    15
100
AcDbSpline
210
0.0
220
0.0
230
1.0
 70
    24
 71
     3
 72
     8
 73
     4
 74
     0
 42
0.0000000001
 43
0.0000000001
 40
0.0
 40
0.0
 40
0.0
 40
0.0
 40
1.0
 40
1.0
 40
1.0
 40
1.0
 10
-10.92978
 20
9.37796
 30
0.0
 10
-10.92978
 20
9.37796
 30
0.0
 10
-9.89426
 20
9.37796
 30
0.0
 10
-9.89426
 20
9.37796
 30
0.0
  0
SPLINE
  5
7B
330
1F
100
AcDbEntity
  8
0
 62
     8
370
    15
100
AcDbSpline
210
0.0
220
0.0
230
1.0
 70
    24
 71
     3
 72
     8
 73
     4
 74
     0
 42
0.0000000001
 43
0.0000000001
 40
0.0
 40
0.0
 40
0.0
 40
0.0
 40
1.0
 40
1.0
 40
1.0
 40
1.0
 10
-12.09426
 20
9.37796
 30
0.0
 10
-12.09426
 20
9.37796
 30
0.0
 10
-10.92978
 20
9.37796
 30
0.0
 10
-10.92978
 20
9.37796
 30
0.0
  0
SPLINE
  5
7C
330
1F
100
AcDbEntity
  8
0
 62
     8
370
    15
100
AcDbSpline
210
0.0
220
0.0
230
1.0
 70
    24
 71
     3
 72
     8
 73
     4
 74
     0
 42
0.0000000001
 43
0.0000000001
 40
0.0
 40
0.0
 40
0.0
 40
0.0
 40
1.0
 40
1.0
 40
1.0
 40
1.0
 10
-10.95225
 20
9.4113
 30
0.0
 10
-10.95225
 20
9.4113
 30
0.0
 10
-10.2776
 20
9.4113
 30
0.0
 10
-10.2776
 20
9.4113
 30
0.0
  0
SPLINE
  5
7D
330
1F
100
AcDbEntity
  8
0
 62
     8
370
    15
100
AcDbSpline
210
0.0
220
0.0
230
1.0
 70
    24
 71
     3
 72
     8
 73
     4
 74
     0
 42
0.0000000001
 43
0.0000000001
 40
0.0
 40
0.0
 40
0.0
 40
0.0
 40
1.0
 40
1.0
 40
1.0
 40
1.0
 10
-11.71093
 20
9.4113
 30
0.0
 10
-11.71093
 20
9.4113
 30
0.0
 10
-10.95225
 20
9.4113
 30
0.0
 10
-10.95225
 20
9.4113
 30
0.0
  0
SPLINE
  5
7E
330
1F
100
AcDbEntity
  8
0
 62
     8
370
    15
100
AcDbSpline
210
0.0
220
0.0
230
1.0
 70
    24
 71
     3
 72
     8
 73
     4
 74
     0
 42
0.0000000001
 43
0.0000000001
 40
0.0
 40
0.0
 40
0.0
 40
0.0
 40
1.0
 40
1.0
 40
1.0
 40
1.0
 10
-8.69426
 20
8.06816
 30
0.0
 10
-8.69426
 20
8.06816
 30
0.0
 10
-13.29426
 20
8.06816
 30
0.0
 10
-13.29426
 20
8.06816
 30
0.0
  0
SPLINE
  5
7F
330
1F
100
AcDbEntity
  8
0
 62
     8
370
    15
100
AcDbSpline
210
0.0
220
0.0
230
1.0
 70
    24
 71
     3
 72
     8
 73
     4
 74
     0
 42
0.0000000001
 43
0.0000000001
 40
0.0
 40
0.0
 40
0.0
 40
0.0
 40
1.0
 40
1.0
 40
1.0
 40
1.0
 10
-13.29426
 20
6.60771
 30
0.0
 10
-13.29426
 20
6.60771
 30
0.0
 10
-8.69426
 20
6.60771
 30
0.0
 10
-8.69426
 20
6.60771
 30
0.0
  0
SPLINE
  5
80
330
1F
100
AcDbEntity
  8
0
 62
     8
370
    15
100
AcDbSpline
210
0.0
220
0.0
230
1.0
 70
    24
 71
     3
 72
     8
 73
     4
 74
     0
 42
0.0000000001
 43
0.0000000001
 40
0.0
 40
0.0
 40
0.0
 40
0.0
 40
1.0
 40
1.0
 40
1.0
 40
1.0
 10
-11.02771
 20
8.26804
 30
0.0
 10
-11.02771
 20
8.26804
 30
0.0
 10
-8.88728
 20
8.26804
 30
0.0
 10
-8.88728
 20
8.26804
 30
0.0
  0
SPLINE
  5
81
330
1F
100
AcDbEntity
  8
0
 62
     8
370
    15
100
AcDbSpline
210
0.0
220
0.0
230
1.0
 70
    24
 71
     3
 72
     8
 73
     4
 74
     0
 42
0.0000000001
 43
0.0000000001
 40
0.0
 40
0.0
 40
0.0
 40
0.0
 40
1.0
 40
1.0
 40
1.0
 40
1.0
 10
-13.10124
 20
8.26804
 30
0.0
 10
-13.10124
 20
8.26804
 30
0.0
 10
-11.02771
 20
8.26804
 30
0.0
 10
-11.02771
 20
8.26804
 30
0.0
  0
SPLINE
  5
82
330
1F
100
AcDbEntity
  8
0
 62
     8
370
    15
100
AcDbSpline
210
0.0
220
0.0
230
1.0
 70
    24
 71
     3
 72
     8
 73
     4
 74
     0
 42
0.0000000001
 43
0.0000000001
 40
0.0
 40
0.0
 40
0.0
 40
0.0
 40
1.0
 40
1.0
 40
1.0
 40
1.0
 10
-11.01067
 20
8.3613
 30
0.0
 10
-11.01067
 20
8.3613
 30
0.0
 10
-12.0276
 20
8.3613
 30
0.0
 10
-12.0276
 20
8.3613
 30
0.0
  0
SPLINE
  5
83
330
1F
100
AcDbEntity
  8
0
 62
     8
370
    15
100
AcDbSpline
210
0.0
220
0.0
230
1.0
 70
    24
 71
     3
 72
     8
 73
     4
 74
     0
 42
0.0000000001
 43
0.0000000001
 40
0.0
 40
0.0
 40
0.0
 40
0.0
 40
1.0
 40
1.0
 40
1.0
 40
1.0
 10
-9.96093
 20
8.3613
 30
0.0
 10
-9.96093
 20
8.3613
 30
0.0
 10
-11.01067
 20
8.3613
 30
0.0
 10
-11.01067
 20
8.3613
 30
0.0
  0
SPLINE
  5
84
330
1F
100
AcDbEntity
  8
0
 62
     8
370
    15
100
AcDbSpline
210
0.0
220
0.0
230
1.0
 70
    24
 71
     3
 72
     8
 73
     4
 74
     0
 42
0.0000000001
 43
0.0000000001
 40
0.0
 40
0.0
 40
0.0
 40
0.0
 40
1.0
 40
1.0
 40
1.0
 40
1.0
 10
-11.34067
 20
0.26784
 30
0.0
 10
-11.34067
 20
0.26784
 30
0.0
 10
-11.39426
 20
0.26784
 30
0.0
 10
-11.39426
 20
0.26784
 30
0.0
  0
SPLINE
  5
85
330
1F
100
AcDbEntity
  8
0
 62
     8
370
    15
100
AcDbSpline
210
0.0
220
0.0
230
1.0
 70
    24
 71
     3
 72
     8
 73
     4
 74
     0
 42
0.0000000001
 43
0.0000000001
 40
0.0
 40
0.0
 40
0.0
 40
0.0
 40
1.0
 40
1.0
 40
1.0
 40
1.0
 10
-10.59426
 20
0.26784
 30
0.0
 10
-10.59426
 20
0.26784
 30
0.0
 10
-11.34067
 20
0.26784
 30
0.0
 10
-11.34067
 20
0.26784
 30
0.0
  0
SPLINE
  5
86
330
1F
100
AcDbEntity
  8
0
 62
     8
370
    15
100
AcDbSpline
210
0.0
220
0.0
230
1.0
 70
    24
 71
     3
 72
     8
 73
     4
 74
     0
 42
0.0000000001
 43
0.0000000001
 40
0.0
 40
0.0
 40
0.0
 40
0.0
 40
1.0
 40
1.0
 40
1.0
 40
1.0
 10
-12.09537
 20
0.26784
 30
0.0
 10
-12.09537
 20
0.26784
 30
0.0
 10
-12.89537
 20
0.26784
 30
0.0
 10
-12.89537
 20
0.26784
 30
0.0
  0
SPLINE
  5
87
330
1F
100
AcDbEntity
  8
0
 62
     8
370
    15
100
AcDbSpline
210
0.0
220
0.0
230
1.0
 70
    24
 71
     3
 72
     8
 73
     4
 74
     0
 42
0.0000000001
 43
0.0000000001
 40
0.0
 40
0.0
 40
0.0
 40
0.0
 40
1.0
 40
1.0
 40
1.0
 40
1.0
 10
-9.14674
 20
0.26784
 30
0.0
 10
-9.14674
 20
0.26784
 30
0.0
 10
-9.89315
 20
0.26784
 30
0.0
 10
-9.89315
 20
0.26784
 30
0.0
  0
SPLINE
  5
88
330
1F
100
AcDbEntity
  8
0
 62
     8
370
    15
100
AcDbSpline
210
0.0
220
0.0
230
1.0
 70
    24
 71
     3
 72
     8
 73
     4
 74
     0
 42
0.0000000001
 43
0.0000000001
 40
0.0
 40
0.0
 40
0.0
 40
0.0
 40
1.0
 40
1.0
 40
1.0
 40
1.0
 10
-9.09315
 20
0.26784
 30
0.0
 10
-9.09315
 20
0.26784
 30
0.0
 10
-9.14674
 20
0.26784
 30
0.0
 10
-9.14674
 20
0.26784
 30
0.0
  0
SPLINE
  5
89
330
1F
100
AcDbEntity
  8
0
100
AcDbSpline
210
0.0
220
0.0
230
1.0
 70
    27
 71
     3
 72
    12
 73
     8
 74
     0
 42
0.0000000001
 43
0.0000000001
 40
0.0
 40
0.0
 40
0.0
 40
0.0
 40
0.3333333333333333
 40
0.3333333333333333
 40
0.3333333333333333
 40
0.3333333333333333
 40
1.0
 40
1.0
 40
1.0
 40
1.0
 10
-14.33048
 20
11.82796
 30
0.0
 10
-14.33048
 20
11.82796
 30
0.0
 10
-14.27968
 20
11.49776
 30
0.0
 10
-14.27968
 20
11.49776
 30
0.0
 10
-14.27968
 20
11.49776
 30
0.0
 10
-14.27968
 20
11.49776
 30
0.0
 10
-14.33048
 20
11.82796
 30
0.0
 10
-14.33048
 20
11.82796
 30
0.0
  0
SPLINE
  5
8A
330
1F
100
AcDbEntity
  8
0
100
AcDbSpline
210
0.0
220
0.0
230
1.0
 70
     8
 71
     3
 72
    12
 73
     8
 74
     0
 42
0.0000000001
 43
0.0000000001
 40
0.0
 40
0.0
 40
0.0
 40
0.0
 40
0.3333333333333333
 40
0.3333333333333333
 40
0.3333333333333333
 40
0.3333333333333333
 40
1.0
 40
1.0
 40
1.0
 40
1.0
 10
-14.27968
 20
11.49776
 30
0.0
 10
-14.27968
 20
11.49776
 30
0.0
 10
-14.38128
 20
11.49776
 30
0.0
 10
-14.38128
 20
11.49776
 30
0.0
 10
-14.38128
 20
11.49776
 30
0.0
 10
-14.38128
 20
11.49776
 30
0.0
 10
-14.33048
 20
11.82796
 30
0.0
 10
-14.33048
 20
11.82796
 30
0.0
  0
SPLINE
  5
8B
330
1F
100
AcDbEntity
  8
0
370
     9
100
AcDbSpline
210
0.0
220
0.0
230
1.0
 70
    24
 71
     3
 72
     8
 73
     4
 74
     0
 42
0.0000000001
 43
0.0000000001
 40
0.0
 40
0.0
 40
0.0
 40
0.0
 40
1.0
 40
1.0
 40
1.0
 40
1.0
 10
-14.33048
 20
11.82796
 30
0.0
 10
-14.33048
 20
11.82796
 30
0.0
 10
-14.27968
 20
11.49776
 30
0.0
 10
-14.27968
 20
11.49776
 30
0.0
  0
SPLINE
  5
8C
330
1F
100
AcDbEntity
  8
0
370
     9
100
AcDbSpline
210
0.0
220
0.0
230
1.0
 70
     8
 71
     3
 72
    12
 73
     8
 74
     0
 42
0.0000000001
 43
0.0000000001
 40
0.0
 40
0.0
 40
0.0
 40
0.0
 40
0.3333333333333333
 40
0.3333333333333333
 40
0.3333333333333333
 40
0.3333333333333333
 40
1.0
 40
1.0
 40
1.0
 40
1.0
 10
-14.27968
 20
11.49776
 30
0.0
 10
-14.27968
 20
11.49776
 30
0.0
 10
-14.38128
 20
11.49776
 30
0.0
 10
-14.38128
 20
11.49776
 30
0.0
 10
-14.38128
 20
11.49776
 30
0.0
 10
-14.38128
 20
11.49776
 30
0.0
 10
-14.33048
 20
11.82796
 30
0.0
 10
-14.33048
 20
11.82796
 30
0.0
  0
SPLINE
  5
8D
330
1F
100
AcDbEntity
  8
0
100
AcDbSpline
210
0.0
220
0.0
230
1.0
 70
    27
 71
     3
 72
    12
 73
     8
 74
     0
 42
0.0000000001
 43
0.0000000001
 40
0.0
 40
0.0
 40
0.0
 40
0.0
 40
0.3333333333333333
 40
0.3333333333333333
 40
0.3333333333333333
 40
0.3333333333333333
 40
1.0
 40
1.0
 40
1.0
 40
1.0
 10
-14.33048
 20
0.20117
 30
0.0
 10
-14.33048
 20
0.20117
 30
0.0
 10
-14.38128
 20
0.53137
 30
0.0
 10
-14.38128
 20
0.53137
 30
0.0
 10
-14.38128
 20
0.53137
 30
0.0
 10
-14.38128
 20
0.53137
 30
0.0
 10
-14.33048
 20
0.20117
 30
0.0
 10
-14.33048
 20
0.20117
 30
0.0
  0
SPLINE
  5
8E
330
1F
100
AcDbEntity
  8
0
100
AcDbSpline
210
0.0
220
0.0
230
1.0
 70
     8
 71
     3
 72
    12
 73
     8
 74
     0
 42
0.0000000001
 43
0.0000000001
 40
0.0
 40
0.0
 40
0.0
 40
0.0
 40
0.3333333333333333
 40
0.3333333333333333
 40
0.3333333333333333
 40
0.3333333333333333
 40
1.0
 40
1.0
 40
1.0
 40
1.0
 10
-14.38128
 20
0.53137
 30
0.0
 10
-14.38128
 20
0.53137
 30
0.0
 10
-14.27968
 20
0.53137
 30
0.0
 10
-14.27968
 20
0.53137
 30
0.0
 10
-14.27968
 20
0.53137
 30
0.0
 10
-14.27968
 20
0.53137
 30
0.0
 10
-14.33048
 20
0.20117
 30
0.0
 10
-14.33048
 20
0.20117
 30
0.0
  0
SPLINE
  5
8F
330
1F
100
AcDbEntity
  8
0
370
     9
100
AcDbSpline
210
0.0
220
0.0
230
1.0
 70
    24
 71
     3
 72
     8
 73
     4
 74
     0
 42
0.0000000001
 43
0.0000000001
 40
0.0
 40
0.0
 40
0.0
 40
0.0
 40
1.0
 40
1.0
 40
1.0
 40
1.0
 10
-14.33048
 20
0.20117
 30
0.0
 10
-14.33048
 20
0.20117
 30
0.0
 10
-14.38128
 20
0.53137
 30
0.0
 10
-14.38128
 20
0.53137
 30
0.0
  0
SPLINE
  5
90
330
1F
100
AcDbEntity
  8
0
370
     9
100
AcDbSpline
210
0.0
220
0.0
230
1.0
 70
     8
 71
     3
 72
    12
 73
     8
 74
     0
 42
0.0000000001
 43
0.0000000001
 40
0.0
 40
0.0
 40
0.0
 40
0.0
 40
0.3333333333333333
 40
0.3333333333333333
 40
0.3333333333333333
 40
0.3333333333333333
 40
1.0
 40
1.0
 40
1.0
 40
1.0
 10
-14.38128
 20
0.53137
 30
0.0
 10
-14.38128
 20
0.53137
 30
0.0
 10
-14.27968
 20
0.53137
 30
0.0
 10
-14.27968
 20
0.53137
 30
0.0
 10
-14.27968
 20
0.53137
 30
0.0
 10
-14.27968
 20
0.53137
 30
0.0
 10
-14.33048
 20
0.20117
 30
0.0
 10
-14.33048
 20
0.20117
 30
0.0
  0
SPLINE
  5
91
330
1F
100
AcDbEntity
  8
0
370
     9
100
AcDbSpline
210
0.0
220
0.0
230
1.0
 70
    24
 71
     3
 72
     8
 73
     4
 74
     0
 42
0.0000000001
 43
0.0000000001
 40
0.0
 40
0.0
 40
0.0
 40
0.0
 40
1.0
 40
1.0
 40
1.0
 40
1.0
 10
-11.9276
 20
11.82796
 30
0.0
 10
-11.9276
 20
11.82796
 30
0.0
 10
-14.43048
 20
11.82796
 30
0.0
 10
-14.43048
 20
11.82796
 30
0.0
  0
SPLINE
  5
92
330
1F
100
AcDbEntity
  8
0
370
     9
100
AcDbSpline
210
0.0
220
0.0
230
1.0
 70
    24
 71
     3
 72
     8
 73
     4
 74
     0
 42
0.0000000001
 43
0.0000000001
 40
0.0
 40
0.0
 40
0.0
 40
0.0
 40
1.0
 40
1.0
 40
1.0
 40
1.0
 10
-12.92871
 20
0.20117
 30
0.0
 10
-12.92871
 20
0.20117
 30
0.0
 10
-14.43048
 20
0.20117
 30
0.0
 10
-14.43048
 20
0.20117
 30
0.0
  0
SPLINE
  5
93
330
1F
100
AcDbEntity
  8
0
370
     9
100
AcDbSpline
210
0.0
220
0.0
230
1.0
 70
    24
 71
     3
 72
     8
 73
     4
 74
     0
 42
0.0000000001
 43
0.0000000001
 40
0.0
 40
0.0
 40
0.0
 40
0.0
 40
1.0
 40
1.0
 40
1.0
 40
1.0
 10
-14.33048
 20
11.82796
 30
0.0
 10
-14.33048
 20
11.82796
 30
0.0
 10
-14.33048
 20
0.20117
 30
0.0
 10
-14.33048
 20
0.20117
 30
0.0
  0
SPLINE
  5
94
330
1F
100
AcDbEntity
  8
0
100
AcDbSpline
210
0.0
220
0.0
230
1.0
 70
    11
 71
     3
 72
    40
 73
    36
 74
     0
 42
0.0000000001
 43
0.0000000001
 40
0.0
 40
0.0
 40
0.0
 40
0.0
 40
0.1
 40
0.1
 40
0.1
 40
0.1
 40
0.2
 40
0.2
 40
0.2
 40
0.2
 40
0.3
 40
0.3
 40
0.3
 40
0.3
 40
0.4
 40
0.4
 40
0.4
 40
0.4
 40
0.5
 40
0.5
 40
0.5
 40
0.5
 40
0.6
 40
0.6
 40
0.6
 40
0.6
 40
0.7
 40
0.7
 40
0.7
 40
0.7
 40
0.8
 40
0.8
 40
0.8
 40
0.8
 40
1.0
 40
1.0
 40
1.0
 40
1.0
 10
-14.46478
 20
5.13683
 30
0.0
 10
-14.46478
 20
5.13683
 30
0.0
 10
-14.46478
 20
5.10609
 30
0.0
 10
-14.46478
 20
5.10609
 30
0.0
 10
-14.46478
 20
5.10609
 30
0.0
 10
-14.46478
 20
5.10609
 30
0.0
 10
-14.66078
 20
5.10609
 30
0.0
 10
-14.66078
 20
5.10609
 30
0.0
 10
-14.66078
 20
5.10609
 30
0.0
 10
-14.65372
 20
5.09868
 30
0.0
 10
-14.64666
 20
5.089
 30
0.0
 10
-14.6396
 20
5.07698
 30
0.0
 10
-14.6396
 20
5.07698
 30
0.0
 10
-14.63255
 20
5.06491
 30
0.0
 10
-14.62724
 20
5.05412
 30
0.0
 10
-14.62374
 20
5.04455
 30
0.0
 10
-14.62374
 20
5.04455
 30
0.0
 10
-14.62374
 20
5.04455
 30
0.0
 10
-14.65343
 20
5.04455
 30
0.0
 10
-14.65343
 20
5.04455
 30
0.0
 10
-14.65343
 20
5.04455
 30
0.0
 10
-14.66154
 20
5.06176
 30
0.0
 10
-14.67134
 20
5.07681
 30
0.0
 10
-14.68283
 20
5.0897
 30
0.0
 10
-14.68283
 20
5.0897
 30
0.0
 10
-14.69438
 20
5.10253
 30
0.0
 10
-14.70552
 20
5.11169
 30
0.0
 10
-14.71631
 20
5.11706
 30
0.0
 10
-14.71631
 20
5.11706
 30
0.0
 10
-14.71631
 20
5.11706
 30
0.0
 10
-14.71631
 20
5.13683
 30
0.0
 10
-14.71631
 20
5.13683
 30
0.0
 10
-14.71631
 20
5.13683
 30
0.0
 10
-14.71631
 20
5.13683
 30
0.0
 10
-14.46478
 20
5.13683
 30
0.0
 10
-14.46478
 20
5.13683
 30
0.0
  0
SPLINE
  5
95
330
1F
100
AcDbEntity
  8
0
100
AcDbSpline
210
0.0
220
0.0
230
1.0
 70
    11
 71
     3
 72
    48
 73
    44
 74
     0
 42
0.0000000001
 43
0.0000000001
 40
0.0
 40
0.0
 40
0.0
 40
0.0
 40
0.0833333333333333
 40
0.0833333333333333
 40
0.0833333333333333
 40
0.0833333333333333
 40
0.1666666666666667
 40
0.1666666666666667
 40
0.1666666666666667
 40
0.1666666666666667
 40
0.25
 40
0.25
 40
0.25
 40
0.25
 40
0.3333333333333333
 40
0.3333333333333333
 40
0.3333333333333333
 40
0.3333333333333333
 40
0.4166666666666667
 40
0.4166666666666667
 40
0.4166666666666667
 40
0.4166666666666667
 40
0.5
 40
0.5
 40
0.5
 40
0.5
 40
0.5833333333333334
 40
0.5833333333333334
 40
0.5833333333333334
 40
0.5833333333333334
 40
0.6666666666666666
 40
0.6666666666666666
 40
0.6666666666666666
 40
0.6666666666666666
 40
0.75
 40
0.75
 40
0.75
 40
0.75
 40
0.8333333333333334
 40
0.8333333333333334
 40
0.8333333333333334
 40
0.8333333333333334
 40
1.0
 40
1.0
 40
1.0
 40
1.0
 10
-14.68248
 20
5.21769
 30
0.0
 10
-14.68248
 20
5.21769
 30
0.0
 10
-14.71205
 20
5.21769
 30
0.0
 10
-14.71205
 20
5.21769
 30
0.0
 10
-14.71205
 20
5.21769
 30
0.0
 10
-14.71205
 20
5.21769
 30
0.0
 10
-14.71205
 20
5.37985
 30
0.0
 10
-14.71205
 20
5.37985
 30
0.0
 10
-14.71205
 20
5.37985
 30
0.0
 10
-14.71205
 20
5.37985
 30
0.0
 10
-14.68814
 20
5.37985
 30
0.0
 10
-14.68814
 20
5.37985
 30
0.0
 10
-14.68814
 20
5.37985
 30
0.0
 10
-14.67116
 20
5.36393
 30
0.0
 10
-14.64859
 20
5.34812
 30
0.0
 10
-14.62047
 20
5.33243
 30
0.0
 10
-14.62047
 20
5.33243
 30
0.0
 10
-14.59235
 20
5.31679
 30
0.0
 10
-14.56336
 20
5.30466
 30
0.0
 10
-14.53367
 20
5.29614
 30
0.0
 10
-14.53367
 20
5.29614
 30
0.0
 10
-14.51267
 20
5.28996
 30
0.0
 10
-14.48975
 20
5.28605
 30
0.0
 10
-14.46478
 20
5.28436
 30
0.0
 10
-14.46478
 20
5.28436
 30
0.0
 10
-14.46478
 20
5.28436
 30
0.0
 10
-14.46478
 20
5.25274
 30
0.0
 10
-14.46478
 20
5.25274
 30
0.0
 10
-14.46478
 20
5.25274
 30
0.0
 10
-14.4845
 20
5.25309
 30
0.0
 10
-14.5083
 20
5.25694
 30
0.0
 10
-14.53624
 20
5.26435
 30
0.0
 10
-14.53624
 20
5.26435
 30
0.0
 10
-14.56412
 20
5.27176
 30
0.0
 10
-14.59107
 20
5.28238
 30
0.0
 10
-14.61697
 20
5.2962
 30
0.0
 10
-14.61697
 20
5.2962
 30
0.0
 10
-14.64287
 20
5.31009
 30
0.0
 10
-14.66475
 20
5.32479
 30
0.0
 10
-14.68248
 20
5.34042
 30
0.0
 10
-14.68248
 20
5.34042
 30
0.0
 10
-14.68248
 20
5.34042
 30
0.0
 10
-14.68248
 20
5.21769
 30
0.0
 10
-14.68248
 20
5.21769
 30
0.0
  0
SPLINE
  5
96
330
1F
100
AcDbEntity
  8
0
100
AcDbSpline
210
0.0
220
0.0
230
1.0
 70
    11
 71
     3
 72
    48
 73
    44
 74
     0
 42
0.0000000001
 43
0.0000000001
 40
0.0
 40
0.0
 40
0.0
 40
0.0
 40
0.0833333333333333
 40
0.0833333333333333
 40
0.0833333333333333
 40
0.0833333333333333
 40
0.1666666666666667
 40
0.1666666666666667
 40
0.1666666666666667
 40
0.1666666666666667
 40
0.25
 40
0.25
 40
0.25
 40
0.25
 40
0.3333333333333333
 40
0.3333333333333333
 40
0.3333333333333333
 40
0.3333333333333333
 40
0.4166666666666667
 40
0.4166666666666667
 40
0.4166666666666667
 40
0.4166666666666667
 40
0.5
 40
0.5
 40
0.5
 40
0.5
 40
0.5833333333333334
 40
0.5833333333333334
 40
0.5833333333333334
 40
0.5833333333333334
 40
0.6666666666666666
 40
0.6666666666666666
 40
0.6666666666666666
 40
0.6666666666666666
 40
0.75
 40
0.75
 40
0.75
 40
0.75
 40
0.8333333333333334
 40
0.8333333333333334
 40
0.8333333333333334
 40
0.8333333333333334
 40
1.0
 40
1.0
 40
1.0
 40
1.0
 10
-14.46478
 20
5.50889
 30
0.0
 10
-14.46478
 20
5.50889
 30
0.0
 10
-14.52475
 20
5.50889
 30
0.0
 10
-14.52475
 20
5.50889
 30
0.0
 10
-14.52475
 20
5.50889
 30
0.0
 10
-14.52475
 20
5.50889
 30
0.0
 10
-14.52475
 20
5.40021
 30
0.0
 10
-14.52475
 20
5.40021
 30
0.0
 10
-14.52475
 20
5.40021
 30
0.0
 10
-14.52475
 20
5.40021
 30
0.0
 10
-14.55298
 20
5.40021
 30
0.0
 10
-14.55298
 20
5.40021
 30
0.0
 10
-14.55298
 20
5.40021
 30
0.0
 10
-14.55298
 20
5.40021
 30
0.0
 10
-14.71532
 20
5.51455
 30
0.0
 10
-14.71532
 20
5.51455
 30
0.0
 10
-14.71532
 20
5.51455
 30
0.0
 10
-14.71532
 20
5.51455
 30
0.0
 10
-14.71532
 20
5.53969
 30
0.0
 10
-14.71532
 20
5.53969
 30
0.0
 10
-14.71532
 20
5.53969
 30
0.0
 10
-14.71532
 20
5.53969
 30
0.0
 10
-14.55298
 20
5.53969
 30
0.0
 10
-14.55298
 20
5.53969
 30
0.0
 10
-14.55298
 20
5.53969
 30
0.0
 10
-14.55298
 20
5.53969
 30
0.0
 10
-14.55298
 20
5.57352
 30
0.0
 10
-14.55298
 20
5.57352
 30
0.0
 10
-14.55298
 20
5.57352
 30
0.0
 10
-14.55298
 20
5.57352
 30
0.0
 10
-14.52475
 20
5.57352
 30
0.0
 10
-14.52475
 20
5.57352
 30
0.0
 10
-14.52475
 20
5.57352
 30
0.0
 10
-14.52475
 20
5.57352
 30
0.0
 10
-14.52475
 20
5.53969
 30
0.0
 10
-14.52475
 20
5.53969
 30
0.0
 10
-14.52475
 20
5.53969
 30
0.0
 10
-14.52475
 20
5.53969
 30
0.0
 10
-14.46478
 20
5.53969
 30
0.0
 10
-14.46478
 20
5.53969
 30
0.0
 10
-14.46478
 20
5.53969
 30
0.0
 10
-14.46478
 20
5.53969
 30
0.0
 10
-14.46478
 20
5.50889
 30
0.0
 10
-14.46478
 20
5.50889
 30
0.0
  0
SPLINE
  5
97
330
1F
100
AcDbEntity
  8
0
100
AcDbSpline
210
0.0
220
0.0
230
1.0
 70
    11
 71
     3
 72
    16
 73
    12
 74
     0
 42
0.0000000001
 43
0.0000000001
 40
0.0
 40
0.0
 40
0.0
 40
0.0
 40
0.25
 40
0.25
 40
0.25
 40
0.25
 40
0.5
 40
0.5
 40
0.5
 40
0.5
 40
1.0
 40
1.0
 40
1.0
 40
1.0
 10
-14.55298
 20
5.50889
 30
0.0
 10
-14.55298
 20
5.50889
 30
0.0
 10
-14.66591
 20
5.50889
 30
0.0
 10
-14.66591
 20
5.50889
 30
0.0
 10
-14.66591
 20
5.50889
 30
0.0
 10
-14.66591
 20
5.50889
 30
0.0
 10
-14.55298
 20
5.43049
 30
0.0
 10
-14.55298
 20
5.43049
 30
0.0
 10
-14.55298
 20
5.43049
 30
0.0
 10
-14.55298
 20
5.43049
 30
0.0
 10
-14.55298
 20
5.50889
 30
0.0
 10
-14.55298
 20
5.50889
 30
0.0
  0
SPLINE
  5
98
330
1F
100
AcDbEntity
  8
0
370
    15
100
AcDbSpline
210
0.0
220
0.0
230
1.0
 70
    24
 71
     3
 72
     8
 73
     4
 74
     0
 42
0.0000000001
 43
0.0000000001
 40
0.0
 40
0.0
 40
0.0
 40
0.0
 40
1.0
 40
1.0
 40
1.0
 40
1.0
 10
-0.65347
 20
9.37796
 30
0.0
 10
-0.65347
 20
9.37796
 30
0.0
 10
-0.65347
 20
8.4613
 30
0.0
 10
-0.65347
 20
8.4613
 30
0.0
  0
SPLINE
  5
99
330
1F
100
AcDbEntity
  8
0
370
    15
100
AcDbSpline
210
0.0
220
0.0
230
1.0
 70
    24
 71
     3
 72
     8
 73
     4
 74
     0
 42
0.0000000001
 43
0.0000000001
 40
0.0
 40
0.0
 40
0.0
 40
0.0
 40
1.0
 40
1.0
 40
1.0
 40
1.0
 10
1.54653
 20
8.4613
 30
0.0
 10
1.54653
 20
8.4613
 30
0.0
 10
1.54653
 20
9.37796
 30
0.0
 10
1.54653
 20
9.37796
 30
0.0
  0
SPLINE
  5
9A
330
1F
100
AcDbEntity
  8
0
370
    15
100
AcDbSpline
210
0.0
220
0.0
230
1.0
 70
     8
 71
     3
 72
    12
 73
     8
 74
     0
 42
0.0000000001
 43
0.0000000001
 40
0.0
 40
0.0
 40
0.0
 40
0.0
 40
0.3333333333333333
 40
0.3333333333333333
 40
0.3333333333333333
 40
0.3333333333333333
 40
1.0
 40
1.0
 40
1.0
 40
1.0
 10
-0.6368
 20
9.39463
 30
0.0
 10
-0.64122
 20
9.39463
 30
0.0
 10
-0.64546
 20
9.39287
 30
0.0
 10
-0.64859
 20
9.38975
 30
0.0
 10
-0.64859
 20
9.38975
 30
0.0
 10
-0.65171
 20
9.38662
 30
0.0
 10
-0.65347
 20
9.38238
 30
0.0
 10
-0.65347
 20
9.37796
 30
0.0
  0
SPLINE
  5
9B
330
1F
100
AcDbEntity
  8
0
370
    15
100
AcDbSpline
210
0.0
220
0.0
230
1.0
 70
     8
 71
     3
 72
    12
 73
     8
 74
     0
 42
0.0000000001
 43
0.0000000001
 40
0.0
 40
0.0
 40
0.0
 40
0.0
 40
0.3333333333333333
 40
0.3333333333333333
 40
0.3333333333333333
 40
0.3333333333333333
 40
1.0
 40
1.0
 40
1.0
 40
1.0
 10
1.54653
 20
9.37796
 30
0.0
 10
1.54653
 20
9.38238
 30
0.0
 10
1.54478
 20
9.38662
 30
0.0
 10
1.54165
 20
9.38975
 30
0.0
 10
1.54165
 20
9.38975
 30
0.0
 10
1.53852
 20
9.39287
 30
0.0
 10
1.53429
 20
9.39463
 30
0.0
 10
1.52987
 20
9.39463
 30
0.0
  0
SPLINE
  5
9C
330
1F
100
AcDbEntity
  8
0
370
    15
100
AcDbSpline
210
0.0
220
0.0
230
1.0
 70
     8
 71
     3
 72
     8
 73
     4
 74
     0
 42
0.0000000001
 43
0.0000000001
 40
0.0
 40
0.0
 40
0.0
 40
0.0
 40
1.0
 40
1.0
 40
1.0
 40
1.0
 10
-0.2868
 20
9.39463
 30
0.0
 10
-0.2776
 20
9.39463
 30
0.0
 10
-0.27013
 20
9.40209
 30
0.0
 10
-0.27013
 20
9.4113
 30
0.0
  0
SPLINE
  5
9D
330
1F
100
AcDbEntity
  8
0
370
    15
100
AcDbSpline
210
0.0
220
0.0
230
1.0
 70
     8
 71
     3
 72
    12
 73
     8
 74
     0
 42
0.0000000001
 43
0.0000000001
 40
0.0
 40
0.0
 40
0.0
 40
0.0
 40
0.3333333333333333
 40
0.3333333333333333
 40
0.3333333333333333
 40
0.3333333333333333
 40
1.0
 40
1.0
 40
1.0
 40
1.0
 10
1.1632
 20
9.4113
 30
0.0
 10
1.1632
 20
9.40688
 30
0.0
 10
1.16495
 20
9.40264
 30
0.0
 10
1.16808
 20
9.39951
 30
0.0
 10
1.16808
 20
9.39951
 30
0.0
 10
1.17121
 20
9.39639
 30
0.0
 10
1.17545
 20
9.39463
 30
0.0
 10
1.17987
 20
9.39463
 30
0.0
  0
SPLINE
  5
9E
330
1F
100
AcDbEntity
  8
0
370
    15
100
AcDbSpline
210
0.0
220
0.0
230
1.0
 70
    24
 71
     3
 72
     8
 73
     4
 74
     0
 42
0.0000000001
 43
0.0000000001
 40
0.0
 40
0.0
 40
0.0
 40
0.0
 40
1.0
 40
1.0
 40
1.0
 40
1.0
 10
-0.27013
 20
10.1613
 30
0.0
 10
-0.27013
 20
10.1613
 30
0.0
 10
-0.27013
 20
9.4113
 30
0.0
 10
-0.27013
 20
9.4113
 30
0.0
  0
SPLINE
  5
9F
330
1F
100
AcDbEntity
  8
0
370
    15
100
AcDbSpline
210
0.0
220
0.0
230
1.0
 70
    24
 71
     3
 72
     8
 73
     4
 74
     0
 42
0.0000000001
 43
0.0000000001
 40
0.0
 40
0.0
 40
0.0
 40
0.0
 40
1.0
 40
1.0
 40
1.0
 40
1.0
 10
1.1632
 20
9.4113
 30
0.0
 10
1.1632
 20
9.4113
 30
0.0
 10
1.1632
 20
10.1613
 30
0.0
 10
1.1632
 20
10.1613
 30
0.0
  0
SPLINE
  5
A0
330
1F
100
AcDbEntity
  8
0
370
    15
100
AcDbSpline
210
0.0
220
0.0
230
1.0
 70
    24
 71
     3
 72
     8
 73
     4
 74
     0
 42
0.0000000001
 43
0.0000000001
 40
0.0
 40
0.0
 40
0.0
 40
0.0
 40
1.0
 40
1.0
 40
1.0
 40
1.0
 10
3.91169
 20
11.22796
 30
0.0
 10
3.91169
 20
11.22796
 30
0.0
 10
4.1132
 20
11.22796
 30
0.0
 10
4.1132
 20
11.22796
 30
0.0
  0
SPLINE
  5
A1
330
1F
100
AcDbEntity
  8
0
370
    15
100
AcDbSpline
210
0.0
220
0.0
230
1.0
 70
    24
 71
     3
 72
     8
 73
     4
 74
     0
 42
0.0000000001
 43
0.0000000001
 40
0.0
 40
0.0
 40
0.0
 40
0.0
 40
1.0
 40
1.0
 40
1.0
 40
1.0
 10
1.27987
 20
11.22796
 30
0.0
 10
1.27987
 20
11.22796
 30
0.0
 10
3.64693
 20
11.22796
 30
0.0
 10
3.64693
 20
11.22796
 30
0.0
  0
SPLINE
  5
A2
330
1F
100
AcDbEntity
  8
0
370
    15
100
AcDbSpline
210
0.0
220
0.0
230
1.0
 70
    24
 71
     3
 72
     8
 73
     4
 74
     0
 42
0.0000000001
 43
0.0000000001
 40
0.0
 40
0.0
 40
0.0
 40
0.0
 40
1.0
 40
1.0
 40
1.0
 40
1.0
 10
4.1132
 20
11.62796
 30
0.0
 10
4.1132
 20
11.62796
 30
0.0
 10
1.27987
 20
11.62796
 30
0.0
 10
1.27987
 20
11.62796
 30
0.0
  0
SPLINE
  5
A3
330
1F
100
AcDbEntity
  8
0
370
    15
100
AcDbSpline
210
0.0
220
0.0
230
1.0
 70
    24
 71
     3
 72
     8
 73
     4
 74
     0
 42
0.0000000001
 43
0.0000000001
 40
0.0
 40
0.0
 40
0.0
 40
0.0
 40
1.0
 40
1.0
 40
1.0
 40
1.0
 10
-0.3868
 20
11.82796
 30
0.0
 10
-0.3868
 20
11.82796
 30
0.0
 10
-0.3868
 20
10.1613
 30
0.0
 10
-0.3868
 20
10.1613
 30
0.0
  0
SPLINE
  5
A4
330
1F
100
AcDbEntity
  8
0
370
    15
100
AcDbSpline
210
0.0
220
0.0
230
1.0
 70
    24
 71
     3
 72
     8
 73
     4
 74
     0
 42
0.0000000001
 43
0.0000000001
 40
0.0
 40
0.0
 40
0.0
 40
0.0
 40
1.0
 40
1.0
 40
1.0
 40
1.0
 10
1.27987
 20
11.62796
 30
0.0
 10
1.27987
 20
11.62796
 30
0.0
 10
1.27987
 20
11.82796
 30
0.0
 10
1.27987
 20
11.82796
 30
0.0
  0
SPLINE
  5
A5
330
1F
100
AcDbEntity
  8
0
370
    15
100
AcDbSpline
210
0.0
220
0.0
230
1.0
 70
    24
 71
     3
 72
     8
 73
     4
 74
     0
 42
0.0000000001
 43
0.0000000001
 40
0.0
 40
0.0
 40
0.0
 40
0.0
 40
1.0
 40
1.0
 40
1.0
 40
1.0
 10
1.27987
 20
10.1613
 30
0.0
 10
1.27987
 20
10.1613
 30
0.0
 10
1.27987
 20
11.22796
 30
0.0
 10
1.27987
 20
11.22796
 30
0.0
  0
SPLINE
  5
A6
330
1F
100
AcDbEntity
  8
0
370
    15
100
AcDbSpline
210
0.0
220
0.0
230
1.0
 70
     8
 71
     3
 72
     8
 73
     4
 74
     0
 42
0.0000000001
 43
0.0000000001
 40
0.0
 40
0.0
 40
0.0
 40
0.0
 40
1.0
 40
1.0
 40
1.0
 40
1.0
 10
2.64653
 20
6.4345
 30
0.0
 10
2.70841
 20
6.47023
 30
0.0
 10
2.74653
 20
6.53625
 30
0.0
 10
2.74653
 20
6.60771
 30
0.0
  0
SPLINE
  5
A7
330
1F
100
AcDbEntity
  8
0
370
    15
100
AcDbSpline
210
0.0
220
0.0
230
1.0
 70
     8
 71
     3
 72
     8
 73
     4
 74
     0
 42
0.0000000001
 43
0.0000000001
 40
0.0
 40
0.0
 40
0.0
 40
0.0
 40
1.0
 40
1.0
 40
1.0
 40
1.0
 10
-1.85347
 20
6.60771
 30
0.0
 10
-1.85347
 20
6.53625
 30
0.0
 10
-1.81535
 20
6.47023
 30
0.0
 10
-1.75347
 20
6.4345
 30
0.0
  0
SPLINE
  5
A8
330
1F
100
AcDbEntity
  8
0
370
    15
100
AcDbSpline
210
0.0
220
0.0
230
1.0
 70
     8
 71
     3
 72
     8
 73
     4
 74
     0
 42
0.0000000001
 43
0.0000000001
 40
0.0
 40
0.0
 40
0.0
 40
0.0
 40
1.0
 40
1.0
 40
1.0
 40
1.0
 10
2.74653
 20
8.06816
 30
0.0
 10
2.74653
 20
8.1759
 30
0.0
 10
2.66119
 20
8.26428
 30
0.0
 10
2.55351
 20
8.26804
 30
0.0
  0
SPLINE
  5
A9
330
1F
100
AcDbEntity
  8
0
370
    15
100
AcDbSpline
210
0.0
220
0.0
230
1.0
 70
     8
 71
     3
 72
     8
 73
     4
 74
     0
 42
0.0000000001
 43
0.0000000001
 40
0.0
 40
0.0
 40
0.0
 40
0.0
 40
1.0
 40
1.0
 40
1.0
 40
1.0
 10
-1.66045
 20
8.26804
 30
0.0
 10
-1.76812
 20
8.26428
 30
0.0
 10
-1.85347
 20
8.1759
 30
0.0
 10
-1.85347
 20
8.06816
 30
0.0
  0
SPLINE
  5
AA
330
1F
100
AcDbEntity
  8
0
370
    15
100
AcDbSpline
210
0.0
220
0.0
230
1.0
 70
    24
 71
     3
 72
     8
 73
     4
 74
     0
 42
0.0000000001
 43
0.0000000001
 40
0.0
 40
0.0
 40
0.0
 40
0.0
 40
1.0
 40
1.0
 40
1.0
 40
1.0
 10
-1.85347
 20
8.06816
 30
0.0
 10
-1.85347
 20
8.06816
 30
0.0
 10
-1.85347
 20
6.60771
 30
0.0
 10
-1.85347
 20
6.60771
 30
0.0
  0
SPLINE
  5
AB
330
1F
100
AcDbEntity
  8
0
370
    15
100
AcDbSpline
210
0.0
220
0.0
230
1.0
 70
    24
 71
     3
 72
     8
 73
     4
 74
     0
 42
0.0000000001
 43
0.0000000001
 40
0.0
 40
0.0
 40
0.0
 40
0.0
 40
1.0
 40
1.0
 40
1.0
 40
1.0
 10
2.74653
 20
6.60771
 30
0.0
 10
2.74653
 20
6.60771
 30
0.0
 10
2.74653
 20
8.06816
 30
0.0
 10
2.74653
 20
8.06816
 30
0.0
  0
SPLINE
  5
AC
330
1F
100
AcDbEntity
  8
0
370
    15
100
AcDbSpline
210
0.0
220
0.0
230
1.0
 70
    24
 71
     3
 72
     8
 73
     4
 74
     0
 42
0.0000000001
 43
0.0000000001
 40
0.0
 40
0.0
 40
0.0
 40
0.0
 40
1.0
 40
1.0
 40
1.0
 40
1.0
 10
2.55351
 20
8.26804
 30
0.0
 10
2.55351
 20
8.26804
 30
0.0
 10
1.47987
 20
8.30553
 30
0.0
 10
1.47987
 20
8.30553
 30
0.0
  0
SPLINE
  5
AD
330
1F
100
AcDbEntity
  8
0
370
    15
100
AcDbSpline
210
0.0
220
0.0
230
1.0
 70
    24
 71
     3
 72
     8
 73
     4
 74
     0
 42
0.0000000001
 43
0.0000000001
 40
0.0
 40
0.0
 40
0.0
 40
0.0
 40
1.0
 40
1.0
 40
1.0
 40
1.0
 10
-0.5868
 20
8.30553
 30
0.0
 10
-0.5868
 20
8.30553
 30
0.0
 10
-1.66045
 20
8.26804
 30
0.0
 10
-1.66045
 20
8.26804
 30
0.0
  0
SPLINE
  5
AE
330
1F
100
AcDbEntity
  8
0
370
    15
100
AcDbSpline
210
0.0
220
0.0
230
1.0
 70
    24
 71
     3
 72
     8
 73
     4
 74
     0
 42
0.0000000001
 43
0.0000000001
 40
0.0
 40
0.0
 40
0.0
 40
0.0
 40
1.0
 40
1.0
 40
1.0
 40
1.0
 10
-0.5868
 20
8.3613
 30
0.0
 10
-0.5868
 20
8.3613
 30
0.0
 10
-0.5868
 20
8.30553
 30
0.0
 10
-0.5868
 20
8.30553
 30
0.0
  0
SPLINE
  5
AF
330
1F
100
AcDbEntity
  8
0
370
    15
100
AcDbSpline
210
0.0
220
0.0
230
1.0
 70
    24
 71
     3
 72
     8
 73
     4
 74
     0
 42
0.0000000001
 43
0.0000000001
 40
0.0
 40
0.0
 40
0.0
 40
0.0
 40
1.0
 40
1.0
 40
1.0
 40
1.0
 10
1.47987
 20
8.30553
 30
0.0
 10
1.47987
 20
8.30553
 30
0.0
 10
1.47987
 20
8.3613
 30
0.0
 10
1.47987
 20
8.3613
 30
0.0
  0
SPLINE
  5
B0
330
1F
100
AcDbEntity
  8
0
370
    15
100
AcDbSpline
210
0.0
220
0.0
230
1.0
 70
     8
 71
     3
 72
    12
 73
     8
 74
     0
 42
0.0000000001
 43
0.0000000001
 40
0.0
 40
0.0
 40
0.0
 40
0.0
 40
0.3333333333333333
 40
0.3333333333333333
 40
0.3333333333333333
 40
0.3333333333333333
 40
1.0
 40
1.0
 40
1.0
 40
1.0
 10
-0.4868
 20
8.4613
 30
0.0
 10
-0.51332
 20
8.4613
 30
0.0
 10
-0.53876
 20
8.45076
 30
0.0
 10
-0.55751
 20
8.43201
 30
0.0
 10
-0.55751
 20
8.43201
 30
0.0
 10
-0.57627
 20
8.41325
 30
0.0
 10
-0.5868
 20
8.38782
 30
0.0
 10
-0.5868
 20
8.3613
 30
0.0
  0
SPLINE
  5
B1
330
1F
100
AcDbEntity
  8
0
370
    15
100
AcDbSpline
210
0.0
220
0.0
230
1.0
 70
     8
 71
     3
 72
    12
 73
     8
 74
     0
 42
0.0000000001
 43
0.0000000001
 40
0.0
 40
0.0
 40
0.0
 40
0.0
 40
0.3333333333333333
 40
0.3333333333333333
 40
0.3333333333333333
 40
0.3333333333333333
 40
1.0
 40
1.0
 40
1.0
 40
1.0
 10
1.47987
 20
8.3613
 30
0.0
 10
1.47987
 20
8.38782
 30
0.0
 10
1.46933
 20
8.41325
 30
0.0
 10
1.45058
 20
8.43201
 30
0.0
 10
1.45058
 20
8.43201
 30
0.0
 10
1.43182
 20
8.45076
 30
0.0
 10
1.40639
 20
8.4613
 30
0.0
 10
1.37987
 20
8.4613
 30
0.0
  0
SPLINE
  5
B2
330
1F
100
AcDbEntity
  8
0
370
    15
100
AcDbSpline
210
0.0
220
0.0
230
1.0
 70
    24
 71
     3
 72
     8
 73
     4
 74
     0
 42
0.0000000001
 43
0.0000000001
 40
0.0
 40
0.0
 40
0.0
 40
0.0
 40
1.0
 40
1.0
 40
1.0
 40
1.0
 10
2.57987
 20
0.26784
 30
0.0
 10
2.57987
 20
0.26784
 30
0.0
 10
2.57987
 20
0.3345
 30
0.0
 10
2.57987
 20
0.3345
 30
0.0
  0
SPLINE
  5
B3
330
1F
100
AcDbEntity
  8
0
370
    15
100
AcDbSpline
210
0.0
220
0.0
230
1.0
 70
    24
 71
     3
 72
     8
 73
     4
 74
     0
 42
0.0000000001
 43
0.0000000001
 40
0.0
 40
0.0
 40
0.0
 40
0.0
 40
1.0
 40
1.0
 40
1.0
 40
1.0
 10
1.77987
 20
0.3345
 30
0.0
 10
1.77987
 20
0.3345
 30
0.0
 10
1.77987
 20
0.26784
 30
0.0
 10
1.77987
 20
0.26784
 30
0.0
  0
SPLINE
  5
B4
330
1F
100
AcDbEntity
  8
0
370
    15
100
AcDbSpline
210
0.0
220
0.0
230
1.0
 70
     8
 71
     3
 72
     8
 73
     4
 74
     0
 42
0.0000000001
 43
0.0000000001
 40
0.0
 40
0.0
 40
0.0
 40
0.0
 40
1.0
 40
1.0
 40
1.0
 40
1.0
 10
2.5132
 20
0.20117
 30
0.0
 10
2.55002
 20
0.20117
 30
0.0
 10
2.57987
 20
0.23102
 30
0.0
 10
2.57987
 20
0.26783
 30
0.0
  0
SPLINE
  5
B5
330
1F
100
AcDbEntity
  8
0
370
    15
100
AcDbSpline
210
0.0
220
0.0
230
1.0
 70
     8
 71
     3
 72
    12
 73
     8
 74
     0
 42
0.0000000001
 43
0.0000000001
 40
0.0
 40
0.0
 40
0.0
 40
0.0
 40
0.3333333333333333
 40
0.3333333333333333
 40
0.3333333333333333
 40
0.3333333333333333
 40
1.0
 40
1.0
 40
1.0
 40
1.0
 10
1.77987
 20
0.26784
 30
0.0
 10
1.77987
 20
0.25015
 30
0.0
 10
1.78689
 20
0.2332
 30
0.0
 10
1.79939
 20
0.22069
 30
0.0
 10
1.79939
 20
0.22069
 30
0.0
 10
1.81189
 20
0.20819
 30
0.0
 10
1.82885
 20
0.20117
 30
0.0
 10
1.84653
 20
0.20117
 30
0.0
  0
SPLINE
  5
B6
330
1F
100
AcDbEntity
  8
0
370
    15
100
AcDbSpline
210
0.0
220
0.0
230
1.0
 70
    24
 71
     3
 72
     8
 73
     4
 74
     0
 42
0.0000000001
 43
0.0000000001
 40
0.0
 40
0.0
 40
0.0
 40
0.0
 40
1.0
 40
1.0
 40
1.0
 40
1.0
 10
-0.02013
 20
0.26784
 30
0.0
 10
-0.02013
 20
0.26784
 30
0.0
 10
-0.02013
 20
0.3345
 30
0.0
 10
-0.02013
 20
0.3345
 30
0.0
  0
SPLINE
  5
B7
330
1F
100
AcDbEntity
  8
0
370
    15
100
AcDbSpline
210
0.0
220
0.0
230
1.0
 70
    24
 71
     3
 72
     8
 73
     4
 74
     0
 42
0.0000000001
 43
0.0000000001
 40
0.0
 40
0.0
 40
0.0
 40
0.0
 40
1.0
 40
1.0
 40
1.0
 40
1.0
 10
-0.82013
 20
0.3345
 30
0.0
 10
-0.82013
 20
0.3345
 30
0.0
 10
-0.82013
 20
0.26784
 30
0.0
 10
-0.82013
 20
0.26784
 30
0.0
  0
SPLINE
  5
B8
330
1F
100
AcDbEntity
  8
0
370
    15
100
AcDbSpline
210
0.0
220
0.0
230
1.0
 70
     8
 71
     3
 72
     8
 73
     4
 74
     0
 42
0.0000000001
 43
0.0000000001
 40
0.0
 40
0.0
 40
0.0
 40
0.0
 40
1.0
 40
1.0
 40
1.0
 40
1.0
 10
-0.0868
 20
0.20117
 30
0.0
 10
-0.04998
 20
0.20117
 30
0.0
 10
-0.02013
 20
0.23102
 30
0.0
 10
-0.02013
 20
0.26783
 30
0.0
  0
SPLINE
  5
B9
330
1F
100
AcDbEntity
  8
0
370
    15
100
AcDbSpline
210
0.0
220
0.0
230
1.0
 70
     8
 71
     3
 72
    12
 73
     8
 74
     0
 42
0.0000000001
 43
0.0000000001
 40
0.0
 40
0.0
 40
0.0
 40
0.0
 40
0.3333333333333333
 40
0.3333333333333333
 40
0.3333333333333333
 40
0.3333333333333333
 40
1.0
 40
1.0
 40
1.0
 40
1.0
 10
-0.82013
 20
0.26784
 30
0.0
 10
-0.82013
 20
0.25015
 30
0.0
 10
-0.81311
 20
0.2332
 30
0.0
 10
-0.80061
 20
0.22069
 30
0.0
 10
-0.80061
 20
0.22069
 30
0.0
 10
-0.78811
 20
0.20819
 30
0.0
 10
-0.77115
 20
0.20117
 30
0.0
 10
-0.75347
 20
0.20117
 30
0.0
  0
SPLINE
  5
BA
330
1F
100
AcDbEntity
  8
0
370
    15
100
AcDbSpline
210
0.0
220
0.0
230
1.0
 70
    24
 71
     3
 72
     8
 73
     4
 74
     0
 42
0.0000000001
 43
0.0000000001
 40
0.0
 40
0.0
 40
0.0
 40
0.0
 40
1.0
 40
1.0
 40
1.0
 40
1.0
 10
2.77987
 20
6.3345
 30
0.0
 10
2.77987
 20
6.3345
 30
0.0
 10
2.77987
 20
6.4345
 30
0.0
 10
2.77987
 20
6.4345
 30
0.0
  0
SPLINE
  5
BB
330
1F
100
AcDbEntity
  8
0
370
    15
100
AcDbSpline
210
0.0
220
0.0
230
1.0
 70
    24
 71
     3
 72
     8
 73
     4
 74
     0
 42
0.0000000001
 43
0.0000000001
 40
0.0
 40
0.0
 40
0.0
 40
0.0
 40
1.0
 40
1.0
 40
1.0
 40
1.0
 10
-1.8868
 20
6.4345
 30
0.0
 10
-1.8868
 20
6.4345
 30
0.0
 10
-1.8868
 20
6.3345
 30
0.0
 10
-1.8868
 20
6.3345
 30
0.0
  0
SPLINE
  5
BC
330
1F
100
AcDbEntity
  8
0
370
    15
100
AcDbSpline
210
0.0
220
0.0
230
1.0
 70
    24
 71
     3
 72
     8
 73
     4
 74
     0
 42
0.0000000001
 43
0.0000000001
 40
0.0
 40
0.0
 40
0.0
 40
0.0
 40
1.0
 40
1.0
 40
1.0
 40
1.0
 10
2.77987
 20
0.3345
 30
0.0
 10
2.77987
 20
0.3345
 30
0.0
 10
2.77987
 20
6.3345
 30
0.0
 10
2.77987
 20
6.3345
 30
0.0
  0
SPLINE
  5
BD
330
1F
100
AcDbEntity
  8
0
370
    15
100
AcDbSpline
210
0.0
220
0.0
230
1.0
 70
    24
 71
     3
 72
     8
 73
     4
 74
     0
 42
0.0000000001
 43
0.0000000001
 40
0.0
 40
0.0
 40
0.0
 40
0.0
 40
1.0
 40
1.0
 40
1.0
 40
1.0
 10
-1.8868
 20
6.3345
 30
0.0
 10
-1.8868
 20
6.3345
 30
0.0
 10
-1.8868
 20
0.3345
 30
0.0
 10
-1.8868
 20
0.3345
 30
0.0
  0
SPLINE
  5
BE
330
1F
100
AcDbEntity
  8
0
370
    15
100
AcDbSpline
210
0.0
220
0.0
230
1.0
 70
    24
 71
     3
 72
     8
 73
     4
 74
     0
 42
0.0000000001
 43
0.0000000001
 40
0.0
 40
0.0
 40
0.0
 40
0.0
 40
1.0
 40
1.0
 40
1.0
 40
1.0
 10
-0.65347
 20
8.4613
 30
0.0
 10
-0.65347
 20
8.4613
 30
0.0
 10
1.54653
 20
8.4613
 30
0.0
 10
1.54653
 20
8.4613
 30
0.0
  0
SPLINE
  5
BF
330
1F
100
AcDbEntity
  8
0
370
    15
100
AcDbSpline
210
0.0
220
0.0
230
1.0
 70
    24
 71
     3
 72
     8
 73
     4
 74
     0
 42
0.0000000001
 43
0.0000000001
 40
0.0
 40
0.0
 40
0.0
 40
0.0
 40
1.0
 40
1.0
 40
1.0
 40
1.0
 10
-0.6368
 20
9.39463
 30
0.0
 10
-0.6368
 20
9.39463
 30
0.0
 10
1.52987
 20
9.39463
 30
0.0
 10
1.52987
 20
9.39463
 30
0.0
  0
SPLINE
  5
C0
330
1F
100
AcDbEntity
  8
0
370
    15
100
AcDbSpline
210
0.0
220
0.0
230
1.0
 70
     8
 71
     3
 72
    24
 73
    20
 74
     0
 42
0.0000000001
 43
0.0000000001
 40
0.0
 40
0.0
 40
0.0
 40
0.0
 40
0.1666666666666667
 40
0.1666666666666667
 40
0.1666666666666667
 40
0.1666666666666667
 40
0.3333333333333333
 40
0.3333333333333333
 40
0.3333333333333333
 40
0.3333333333333333
 40
0.5
 40
0.5
 40
0.5
 40
0.5
 40
0.6666666666666666
 40
0.6666666666666666
 40
0.6666666666666666
 40
0.6666666666666666
 40
1.0
 40
1.0
 40
1.0
 40
1.0
 10
3.77987
 20
11.27889
 30
0.0
 10
3.76686
 20
11.27784
 30
0.0
 10
3.75386
 20
11.2768
 30
0.0
 10
3.7417
 20
11.27408
 30
0.0
 10
3.7417
 20
11.27408
 30
0.0
 10
3.72963
 20
11.27139
 30
0.0
 10
3.7184
 20
11.26706
 30
0.0
 10
3.7082
 20
11.26256
 30
0.0
 10
3.7082
 20
11.26256
 30
0.0
 10
3.69641
 20
11.25736
 30
0.0
 10
3.68599
 20
11.25194
 30
0.0
 10
3.67693
 20
11.24681
 30
0.0
 10
3.67693
 20
11.24681
 30
0.0
 10
3.66659
 20
11.24094
 30
0.0
 10
3.658
 20
11.23545
 30
0.0
 10
3.6533
 20
11.23241
 30
0.0
 10
3.6533
 20
11.23241
 30
0.0
 10
3.64937
 20
11.22987
 30
0.0
 10
3.64815
 20
11.22905
 30
0.0
 10
3.64693
 20
11.22823
 30
0.0
  0
SPLINE
  5
C1
330
1F
100
AcDbEntity
  8
0
370
    15
100
AcDbSpline
210
0.0
220
0.0
230
1.0
 70
     8
 71
     3
 72
    28
 73
    24
 74
     0
 42
0.0000000001
 43
0.0000000001
 40
0.0
 40
0.0
 40
0.0
 40
0.0
 40
0.1428571428571428
 40
0.1428571428571428
 40
0.1428571428571428
 40
0.1428571428571428
 40
0.2857142857142857
 40
0.2857142857142857
 40
0.2857142857142857
 40
0.2857142857142857
 40
0.4285714285714285
 40
0.4285714285714285
 40
0.4285714285714285
 40
0.4285714285714285
 40
0.5714285714285714
 40
0.5714285714285714
 40
0.5714285714285714
 40
0.5714285714285714
 40
0.7142857142857143
 40
0.7142857142857143
 40
0.7142857142857143
 40
0.7142857142857143
 40
1.0
 40
1.0
 40
1.0
 40
1.0
 10
3.91169
 20
11.22897
 30
0.0
 10
3.91204
 20
11.22873
 30
0.0
 10
3.9124
 20
11.2285
 30
0.0
 10
3.91204
 20
11.22873
 30
0.0
 10
3.91204
 20
11.22873
 30
0.0
 10
3.91128
 20
11.22924
 30
0.0
 10
3.90725
 20
11.23191
 30
0.0
 10
3.90217
 20
11.23514
 30
0.0
 10
3.90217
 20
11.23514
 30
0.0
 10
3.89679
 20
11.23857
 30
0.0
 10
3.89023
 20
11.24262
 30
0.0
 10
3.88231
 20
11.24708
 30
0.0
 10
3.88231
 20
11.24708
 30
0.0
 10
3.87315
 20
11.25225
 30
0.0
 10
3.86218
 20
11.25795
 30
0.0
 10
3.84983
 20
11.26329
 30
0.0
 10
3.84983
 20
11.26329
 30
0.0
 10
3.83843
 20
11.26822
 30
0.0
 10
3.82586
 20
11.27282
 30
0.0
 10
3.81239
 20
11.27539
 30
0.0
 10
3.81239
 20
11.27539
 30
0.0
 10
3.80191
 20
11.27738
 30
0.0
 10
3.79089
 20
11.27814
 30
0.0
 10
3.77987
 20
11.27889
 30
0.0
  0
SPLINE
  5
C2
330
1F
100
AcDbEntity
  8
0
370
    15
100
AcDbSpline
210
0.0
220
0.0
230
1.0
 70
    24
 71
     3
 72
     8
 73
     4
 74
     0
 42
0.0000000001
 43
0.0000000001
 40
0.0
 40
0.0
 40
0.0
 40
0.0
 40
1.0
 40
1.0
 40
1.0
 40
1.0
 10
4.1132
 20
11.42796
 30
0.0
 10
4.1132
 20
11.42796
 30
0.0
 10
4.1132
 20
11.22796
 30
0.0
 10
4.1132
 20
11.22796
 30
0.0
  0
SPLINE
  5
C3
330
1F
100
AcDbEntity
  8
0
370
    15
100
AcDbSpline
210
0.0
220
0.0
230
1.0
 70
    24
 71
     3
 72
     8
 73
     4
 74
     0
 42
0.0000000001
 43
0.0000000001
 40
0.0
 40
0.0
 40
0.0
 40
0.0
 40
1.0
 40
1.0
 40
1.0
 40
1.0
 10
4.1132
 20
11.62796
 30
0.0
 10
4.1132
 20
11.62796
 30
0.0
 10
4.1132
 20
11.42796
 30
0.0
 10
4.1132
 20
11.42796
 30
0.0
  0
SPLINE
  5
C4
330
1F
100
AcDbEntity
  8
0
370
    15
100
AcDbSpline
210
0.0
220
0.0
230
1.0
 70
     8
 71
     3
 72
    48
 73
    44
 74
     0
 42
0.0000000001
 43
0.0000000001
 40
0.0
 40
0.0
 40
0.0
 40
0.0
 40
0.0833333333333333
 40
0.0833333333333333
 40
0.0833333333333333
 40
0.0833333333333333
 40
0.1666666666666667
 40
0.1666666666666667
 40
0.1666666666666667
 40
0.1666666666666667
 40
0.25
 40
0.25
 40
0.25
 40
0.25
 40
0.3333333333333333
 40
0.3333333333333333
 40
0.3333333333333333
 40
0.3333333333333333
 40
0.4166666666666667
 40
0.4166666666666667
 40
0.4166666666666667
 40
0.4166666666666667
 40
0.5
 40
0.5
 40
0.5
 40
0.5
 40
0.5833333333333334
 40
0.5833333333333334
 40
0.5833333333333334
 40
0.5833333333333334
 40
0.6666666666666666
 40
0.6666666666666666
 40
0.6666666666666666
 40
0.6666666666666666
 40
0.75
 40
0.75
 40
0.75
 40
0.75
 40
0.8333333333333334
 40
0.8333333333333334
 40
0.8333333333333334
 40
0.8333333333333334
 40
1.0
 40
1.0
 40
1.0
 40
1.0
 10
1.2793
 20
11.62558
 30
0.0
 10
1.27946
 20
11.62626
 30
0.0
 10
1.27962
 20
11.62695
 30
0.0
 10
1.27962
 20
11.62692
 30
0.0
 10
1.27962
 20
11.62692
 30
0.0
 10
1.27959
 20
11.62682
 30
0.0
 10
1.27781
 20
11.6194
 30
0.0
 10
1.27568
 20
11.60973
 30
0.0
 10
1.27568
 20
11.60973
 30
0.0
 10
1.27353
 20
11.59997
 30
0.0
 10
1.27103
 20
11.58791
 30
0.0
 10
1.2684
 20
11.57295
 30
0.0
 10
1.2684
 20
11.57295
 30
0.0
 10
1.26571
 20
11.55763
 30
0.0
 10
1.26289
 20
11.53925
 30
0.0
 10
1.26063
 20
11.51914
 30
0.0
 10
1.26063
 20
11.51914
 30
0.0
 10
1.25837
 20
11.49895
 30
0.0
 10
1.25668
 20
11.47701
 30
0.0
 10
1.25594
 20
11.45448
 30
0.0
 10
1.25594
 20
11.45448
 30
0.0
 10
1.25523
 20
11.43251
 30
0.0
 10
1.25543
 20
11.40998
 30
0.0
 10
1.25648
 20
11.38827
 30
0.0
 10
1.25648
 20
11.38827
 30
0.0
 10
1.25752
 20
11.36688
 30
0.0
 10
1.2594
 20
11.34629
 30
0.0
 10
1.26173
 20
11.32745
 30
0.0
 10
1.26173
 20
11.32745
 30
0.0
 10
1.2641
 20
11.30825
 30
0.0
 10
1.26694
 20
11.29086
 30
0.0
 10
1.26954
 20
11.27663
 30
0.0
 10
1.26954
 20
11.27663
 30
0.0
 10
1.27221
 20
11.26207
 30
0.0
 10
1.27463
 20
11.25081
 30
0.0
 10
1.27667
 20
11.2417
 30
0.0
 10
1.27667
 20
11.2417
 30
0.0
 10
1.27871
 20
11.23267
 30
0.0
 10
1.28038
 20
11.22577
 30
0.0
 10
1.27984
 20
11.22808
 30
0.0
 10
1.27984
 20
11.22808
 30
0.0
 10
1.27978
 20
11.22832
 30
0.0
 10
1.2797
 20
11.22865
 30
0.0
 10
1.27963
 20
11.22898
 30
0.0
  0
SPLINE
  5
C5
330
1F
100
AcDbEntity
  8
0
370
    15
100
AcDbSpline
210
0.0
220
0.0
230
1.0
 70
    24
 71
     3
 72
     8
 73
     4
 74
     0
 42
0.0000000001
 43
0.0000000001
 40
0.0
 40
0.0
 40
0.0
 40
0.0
 40
1.0
 40
1.0
 40
1.0
 40
1.0
 10
0.44653
 20
10.1613
 30
0.0
 10
0.44653
 20
10.1613
 30
0.0
 10
1.27987
 20
10.1613
 30
0.0
 10
1.27987
 20
10.1613
 30
0.0
  0
SPLINE
  5
C6
330
1F
100
AcDbEntity
  8
0
370
    15
100
AcDbSpline
210
0.0
220
0.0
230
1.0
 70
    24
 71
     3
 72
     8
 73
     4
 74
     0
 42
0.0000000001
 43
0.0000000001
 40
0.0
 40
0.0
 40
0.0
 40
0.0
 40
1.0
 40
1.0
 40
1.0
 40
1.0
 10
-0.3868
 20
10.1613
 30
0.0
 10
-0.3868
 20
10.1613
 30
0.0
 10
0.44653
 20
10.1613
 30
0.0
 10
0.44653
 20
10.1613
 30
0.0
  0
SPLINE
  5
C7
330
1F
100
AcDbEntity
  8
0
370
    15
100
AcDbSpline
210
0.0
220
0.0
230
1.0
 70
    24
 71
     3
 72
     8
 73
     4
 74
     0
 42
0.0000000001
 43
0.0000000001
 40
0.0
 40
0.0
 40
0.0
 40
0.0
 40
1.0
 40
1.0
 40
1.0
 40
1.0
 10
0.44653
 20
11.82796
 30
0.0
 10
0.44653
 20
11.82796
 30
0.0
 10
1.27987
 20
11.82796
 30
0.0
 10
1.27987
 20
11.82796
 30
0.0
  0
SPLINE
  5
C8
330
1F
100
AcDbEntity
  8
0
370
    15
100
AcDbSpline
210
0.0
220
0.0
230
1.0
 70
    24
 71
     3
 72
     8
 73
     4
 74
     0
 42
0.0000000001
 43
0.0000000001
 40
0.0
 40
0.0
 40
0.0
 40
0.0
 40
1.0
 40
1.0
 40
1.0
 40
1.0
 10
-0.3868
 20
11.82796
 30
0.0
 10
-0.3868
 20
11.82796
 30
0.0
 10
0.44653
 20
11.82796
 30
0.0
 10
0.44653
 20
11.82796
 30
0.0
  0
SPLINE
  5
C9
330
1F
100
AcDbEntity
  8
0
370
    15
100
AcDbSpline
210
0.0
220
0.0
230
1.0
 70
    24
 71
     3
 72
     8
 73
     4
 74
     0
 42
0.0000000001
 43
0.0000000001
 40
0.0
 40
0.0
 40
0.0
 40
0.0
 40
1.0
 40
1.0
 40
1.0
 40
1.0
 10
1.47974
 20
8.30553
 30
0.0
 10
1.47974
 20
8.30553
 30
0.0
 10
1.47987
 20
8.30553
 30
0.0
 10
1.47987
 20
8.30553
 30
0.0
  0
SPLINE
  5
CA
330
1F
100
AcDbEntity
  8
0
370
    15
100
AcDbSpline
210
0.0
220
0.0
230
1.0
 70
    24
 71
     3
 72
     8
 73
     4
 74
     0
 42
0.0000000001
 43
0.0000000001
 40
0.0
 40
0.0
 40
0.0
 40
0.0
 40
1.0
 40
1.0
 40
1.0
 40
1.0
 10
-0.5868
 20
8.30553
 30
0.0
 10
-0.5868
 20
8.30553
 30
0.0
 10
1.47974
 20
8.30553
 30
0.0
 10
1.47974
 20
8.30553
 30
0.0
  0
SPLINE
  5
CB
330
1F
100
AcDbEntity
  8
0
370
    15
100
AcDbSpline
210
0.0
220
0.0
230
1.0
 70
    24
 71
     3
 72
     8
 73
     4
 74
     0
 42
0.0000000001
 43
0.0000000001
 40
0.0
 40
0.0
 40
0.0
 40
0.0
 40
1.0
 40
1.0
 40
1.0
 40
1.0
 10
2.34653
 20
0.20117
 30
0.0
 10
2.34653
 20
0.20117
 30
0.0
 10
1.84653
 20
0.20117
 30
0.0
 10
1.84653
 20
0.20117
 30
0.0
  0
SPLINE
  5
CC
330
1F
100
AcDbEntity
  8
0
370
    15
100
AcDbSpline
210
0.0
220
0.0
230
1.0
 70
    24
 71
     3
 72
     8
 73
     4
 74
     0
 42
0.0000000001
 43
0.0000000001
 40
0.0
 40
0.0
 40
0.0
 40
0.0
 40
1.0
 40
1.0
 40
1.0
 40
1.0
 10
2.5132
 20
0.20117
 30
0.0
 10
2.5132
 20
0.20117
 30
0.0
 10
2.34653
 20
0.20117
 30
0.0
 10
2.34653
 20
0.20117
 30
0.0
  0
SPLINE
  5
CD
330
1F
100
AcDbEntity
  8
0
370
    15
100
AcDbSpline
210
0.0
220
0.0
230
1.0
 70
    24
 71
     3
 72
     8
 73
     4
 74
     0
 42
0.0000000001
 43
0.0000000001
 40
0.0
 40
0.0
 40
0.0
 40
0.0
 40
1.0
 40
1.0
 40
1.0
 40
1.0
 10
-0.0868
 20
0.20117
 30
0.0
 10
-0.0868
 20
0.20117
 30
0.0
 10
-0.75347
 20
0.20117
 30
0.0
 10
-0.75347
 20
0.20117
 30
0.0
  0
SPLINE
  5
CE
330
1F
100
AcDbEntity
  8
0
370
    15
100
AcDbSpline
210
0.0
220
0.0
230
1.0
 70
    24
 71
     3
 72
     8
 73
     4
 74
     0
 42
0.0000000001
 43
0.0000000001
 40
0.0
 40
0.0
 40
0.0
 40
0.0
 40
1.0
 40
1.0
 40
1.0
 40
1.0
 10
2.77987
 20
6.3345
 30
0.0
 10
2.77987
 20
6.3345
 30
0.0
 10
-1.8868
 20
6.3345
 30
0.0
 10
-1.8868
 20
6.3345
 30
0.0
  0
SPLINE
  5
CF
330
1F
100
AcDbEntity
  8
0
370
    15
100
AcDbSpline
210
0.0
220
0.0
230
1.0
 70
    24
 71
     3
 72
     8
 73
     4
 74
     0
 42
0.0000000001
 43
0.0000000001
 40
0.0
 40
0.0
 40
0.0
 40
0.0
 40
1.0
 40
1.0
 40
1.0
 40
1.0
 10
2.77987
 20
6.4345
 30
0.0
 10
2.77987
 20
6.4345
 30
0.0
 10
-1.8868
 20
6.4345
 30
0.0
 10
-1.8868
 20
6.4345
 30
0.0
  0
SPLINE
  5
D0
330
1F
100
AcDbEntity
  8
0
370
    15
100
AcDbSpline
210
0.0
220
0.0
230
1.0
 70
    24
 71
     3
 72
     8
 73
     4
 74
     0
 42
0.0000000001
 43
0.0000000001
 40
0.0
 40
0.0
 40
0.0
 40
0.0
 40
1.0
 40
1.0
 40
1.0
 40
1.0
 10
-1.8868
 20
0.3345
 30
0.0
 10
-1.8868
 20
0.3345
 30
0.0
 10
2.77987
 20
0.3345
 30
0.0
 10
2.77987
 20
0.3345
 30
0.0
  0
SPLINE
  5
D1
330
1F
100
AcDbEntity
  8
0
 62
     8
370
    15
100
AcDbSpline
210
0.0
220
0.0
230
1.0
 70
    24
 71
     3
 72
     8
 73
     4
 74
     0
 42
0.0000000001
 43
0.0000000001
 40
0.0
 40
0.0
 40
0.0
 40
0.0
 40
1.0
 40
1.0
 40
1.0
 40
1.0
 10
-0.65347
 20
9.37796
 30
0.0
 10
-0.65347
 20
9.37796
 30
0.0
 10
1.54653
 20
9.37796
 30
0.0
 10
1.54653
 20
9.37796
 30
0.0
  0
SPLINE
  5
D2
330
1F
100
AcDbEntity
  8
0
 62
     8
370
    15
100
AcDbSpline
210
0.0
220
0.0
230
1.0
 70
    24
 71
     3
 72
     8
 73
     4
 74
     0
 42
0.0000000001
 43
0.0000000001
 40
0.0
 40
0.0
 40
0.0
 40
0.0
 40
1.0
 40
1.0
 40
1.0
 40
1.0
 10
-0.27013
 20
9.4113
 30
0.0
 10
-0.27013
 20
9.4113
 30
0.0
 10
1.1632
 20
9.4113
 30
0.0
 10
1.1632
 20
9.4113
 30
0.0
  0
SPLINE
  5
D3
330
1F
100
AcDbEntity
  8
0
 62
     8
370
    15
100
AcDbSpline
210
0.0
220
0.0
230
1.0
 70
    24
 71
     3
 72
     8
 73
     4
 74
     0
 42
0.0000000001
 43
0.0000000001
 40
0.0
 40
0.0
 40
0.0
 40
0.0
 40
1.0
 40
1.0
 40
1.0
 40
1.0
 10
-1.85347
 20
6.60771
 30
0.0
 10
-1.85347
 20
6.60771
 30
0.0
 10
2.74653
 20
6.60771
 30
0.0
 10
2.74653
 20
6.60771
 30
0.0
  0
SPLINE
  5
D4
330
1F
100
AcDbEntity
  8
0
 62
     8
370
    15
100
AcDbSpline
210
0.0
220
0.0
230
1.0
 70
    24
 71
     3
 72
     8
 73
     4
 74
     0
 42
0.0000000001
 43
0.0000000001
 40
0.0
 40
0.0
 40
0.0
 40
0.0
 40
1.0
 40
1.0
 40
1.0
 40
1.0
 10
2.55325
 20
8.26804
 30
0.0
 10
2.55325
 20
8.26804
 30
0.0
 10
2.55351
 20
8.26804
 30
0.0
 10
2.55351
 20
8.26804
 30
0.0
  0
SPLINE
  5
D5
330
1F
100
AcDbEntity
  8
0
 62
     8
370
    15
100
AcDbSpline
210
0.0
220
0.0
230
1.0
 70
    24
 71
     3
 72
     8
 73
     4
 74
     0
 42
0.0000000001
 43
0.0000000001
 40
0.0
 40
0.0
 40
0.0
 40
0.0
 40
1.0
 40
1.0
 40
1.0
 40
1.0
 10
-1.66045
 20
8.26804
 30
0.0
 10
-1.66045
 20
8.26804
 30
0.0
 10
2.55325
 20
8.26804
 30
0.0
 10
2.55325
 20
8.26804
 30
0.0
  0
SPLINE
  5
D6
330
1F
100
AcDbEntity
  8
0
 62
     8
370
    15
100
AcDbSpline
210
0.0
220
0.0
230
1.0
 70
    24
 71
     3
 72
     8
 73
     4
 74
     0
 42
0.0000000001
 43
0.0000000001
 40
0.0
 40
0.0
 40
0.0
 40
0.0
 40
1.0
 40
1.0
 40
1.0
 40
1.0
 10
2.74653
 20
8.06816
 30
0.0
 10
2.74653
 20
8.06816
 30
0.0
 10
-1.85347
 20
8.06816
 30
0.0
 10
-1.85347
 20
8.06816
 30
0.0
  0
SPLINE
  5
D7
330
1F
100
AcDbEntity
  8
0
 62
     8
370
    15
100
AcDbSpline
210
0.0
220
0.0
230
1.0
 70
    24
 71
     3
 72
     8
 73
     4
 74
     0
 42
0.0000000001
 43
0.0000000001
 40
0.0
 40
0.0
 40
0.0
 40
0.0
 40
1.0
 40
1.0
 40
1.0
 40
1.0
 10
1.47987
 20
8.3613
 30
0.0
 10
1.47987
 20
8.3613
 30
0.0
 10
-0.5868
 20
8.3613
 30
0.0
 10
-0.5868
 20
8.3613
 30
0.0
  0
SPLINE
  5
D8
330
1F
100
AcDbEntity
  8
0
 62
     8
370
    15
100
AcDbSpline
210
0.0
220
0.0
230
1.0
 70
    24
 71
     3
 72
     8
 73
     4
 74
     0
 42
0.0000000001
 43
0.0000000001
 40
0.0
 40
0.0
 40
0.0
 40
0.0
 40
1.0
 40
1.0
 40
1.0
 40
1.0
 10
2.37987
 20
0.26784
 30
0.0
 10
2.37987
 20
0.26784
 30
0.0
 10
1.77987
 20
0.26784
 30
0.0
 10
1.77987
 20
0.26784
 30
0.0
  0
SPLINE
  5
D9
330
1F
100
AcDbEntity
  8
0
 62
     8
370
    15
100
AcDbSpline
210
0.0
220
0.0
230
1.0
 70
    24
 71
     3
 72
     8
 73
     4
 74
     0
 42
0.0000000001
 43
0.0000000001
 40
0.0
 40
0.0
 40
0.0
 40
0.0
 40
1.0
 40
1.0
 40
1.0
 40
1.0
 10
2.57987
 20
0.26784
 30
0.0
 10
2.57987
 20
0.26784
 30
0.0
 10
2.37987
 20
0.26784
 30
0.0
 10
2.37987
 20
0.26784
 30
0.0
  0
SPLINE
  5
DA
330
1F
100
AcDbEntity
  8
0
 62
     8
370
    15
100
AcDbSpline
210
0.0
220
0.0
230
1.0
 70
    24
 71
     3
 72
     8
 73
     4
 74
     0
 42
0.0000000001
 43
0.0000000001
 40
0.0
 40
0.0
 40
0.0
 40
0.0
 40
1.0
 40
1.0
 40
1.0
 40
1.0
 10
-0.02013
 20
0.26784
 30
0.0
 10
-0.02013
 20
0.26784
 30
0.0
 10
-0.82013
 20
0.26784
 30
0.0
 10
-0.82013
 20
0.26784
 30
0.0
  0
SPLINE
  5
DB
330
1F
100
AcDbEntity
  8
0
100
AcDbSpline
210
0.0
220
0.0
230
1.0
 70
    27
 71
     3
 72
    12
 73
     8
 74
     0
 42
0.0000000001
 43
0.0000000001
 40
0.0
 40
0.0
 40
0.0
 40
0.0
 40
0.3333333333333333
 40
0.3333333333333333
 40
0.3333333333333333
 40
0.3333333333333333
 40
1.0
 40
1.0
 40
1.0
 40
1.0
 10
-1.8868
 20
-0.79883
 30
0.0
 10
-1.8868
 20
-0.79883
 30
0.0
 10
-1.5566
 20
-0.74803
 30
0.0
 10
-1.5566
 20
-0.74803
 30
0.0
 10
-1.5566
 20
-0.74803
 30
0.0
 10
-1.5566
 20
-0.74803
 30
0.0
 10
-1.8868
 20
-0.79883
 30
0.0
 10
-1.8868
 20
-0.79883
 30
0.0
  0
SPLINE
  5
DC
330
1F
100
AcDbEntity
  8
0
100
AcDbSpline
210
0.0
220
0.0
230
1.0
 70
     8
 71
     3
 72
    12
 73
     8
 74
     0
 42
0.0000000001
 43
0.0000000001
 40
0.0
 40
0.0
 40
0.0
 40
0.0
 40
0.3333333333333333
 40
0.3333333333333333
 40
0.3333333333333333
 40
0.3333333333333333
 40
1.0
 40
1.0
 40
1.0
 40
1.0
 10
-1.5566
 20
-0.74803
 30
0.0
 10
-1.5566
 20
-0.74803
 30
0.0
 10
-1.5566
 20
-0.84963
 30
0.0
 10
-1.5566
 20
-0.84963
 30
0.0
 10
-1.5566
 20
-0.84963
 30
0.0
 10
-1.5566
 20
-0.84963
 30
0.0
 10
-1.8868
 20
-0.79883
 30
0.0
 10
-1.8868
 20
-0.79883
 30
0.0
  0
SPLINE
  5
DD
330
1F
100
AcDbEntity
  8
0
370
     9
100
AcDbSpline
210
0.0
220
0.0
230
1.0
 70
    24
 71
     3
 72
     8
 73
     4
 74
     0
 42
0.0000000001
 43
0.0000000001
 40
0.0
 40
0.0
 40
0.0
 40
0.0
 40
1.0
 40
1.0
 40
1.0
 40
1.0
 10
-1.8868
 20
-0.79883
 30
0.0
 10
-1.8868
 20
-0.79883
 30
0.0
 10
-1.5566
 20
-0.74803
 30
0.0
 10
-1.5566
 20
-0.74803
 30
0.0
  0
SPLINE
  5
DE
330
1F
100
AcDbEntity
  8
0
370
     9
100
AcDbSpline
210
0.0
220
0.0
230
1.0
 70
     8
 71
     3
 72
    12
 73
     8
 74
     0
 42
0.0000000001
 43
0.0000000001
 40
0.0
 40
0.0
 40
0.0
 40
0.0
 40
0.3333333333333333
 40
0.3333333333333333
 40
0.3333333333333333
 40
0.3333333333333333
 40
1.0
 40
1.0
 40
1.0
 40
1.0
 10
-1.5566
 20
-0.74803
 30
0.0
 10
-1.5566
 20
-0.74803
 30
0.0
 10
-1.5566
 20
-0.84963
 30
0.0
 10
-1.5566
 20
-0.84963
 30
0.0
 10
-1.5566
 20
-0.84963
 30
0.0
 10
-1.5566
 20
-0.84963
 30
0.0
 10
-1.8868
 20
-0.79883
 30
0.0
 10
-1.8868
 20
-0.79883
 30
0.0
  0
SPLINE
  5
DF
330
1F
100
AcDbEntity
  8
0
100
AcDbSpline
210
0.0
220
0.0
230
1.0
 70
    27
 71
     3
 72
    12
 73
     8
 74
     0
 42
0.0000000001
 43
0.0000000001
 40
0.0
 40
0.0
 40
0.0
 40
0.0
 40
0.3333333333333333
 40
0.3333333333333333
 40
0.3333333333333333
 40
0.3333333333333333
 40
1.0
 40
1.0
 40
1.0
 40
1.0
 10
2.77987
 20
-0.79883
 30
0.0
 10
2.77987
 20
-0.79883
 30
0.0
 10
2.44967
 20
-0.84963
 30
0.0
 10
2.44967
 20
-0.84963
 30
0.0
 10
2.44967
 20
-0.84963
 30
0.0
 10
2.44967
 20
-0.84963
 30
0.0
 10
2.77987
 20
-0.79883
 30
0.0
 10
2.77987
 20
-0.79883
 30
0.0
  0
SPLINE
  5
E0
330
1F
100
AcDbEntity
  8
0
100
AcDbSpline
210
0.0
220
0.0
230
1.0
 70
     8
 71
     3
 72
    12
 73
     8
 74
     0
 42
0.0000000001
 43
0.0000000001
 40
0.0
 40
0.0
 40
0.0
 40
0.0
 40
0.3333333333333333
 40
0.3333333333333333
 40
0.3333333333333333
 40
0.3333333333333333
 40
1.0
 40
1.0
 40
1.0
 40
1.0
 10
2.44967
 20
-0.84963
 30
0.0
 10
2.44967
 20
-0.84963
 30
0.0
 10
2.44967
 20
-0.74803
 30
0.0
 10
2.44967
 20
-0.74803
 30
0.0
 10
2.44967
 20
-0.74803
 30
0.0
 10
2.44967
 20
-0.74803
 30
0.0
 10
2.77987
 20
-0.79883
 30
0.0
 10
2.77987
 20
-0.79883
 30
0.0
  0
SPLINE
  5
E1
330
1F
100
AcDbEntity
  8
0
370
     9
100
AcDbSpline
210
0.0
220
0.0
230
1.0
 70
    24
 71
     3
 72
     8
 73
     4
 74
     0
 42
0.0000000001
 43
0.0000000001
 40
0.0
 40
0.0
 40
0.0
 40
0.0
 40
1.0
 40
1.0
 40
1.0
 40
1.0
 10
2.77987
 20
-0.79883
 30
0.0
 10
2.77987
 20
-0.79883
 30
0.0
 10
2.44967
 20
-0.84963
 30
0.0
 10
2.44967
 20
-0.84963
 30
0.0
  0
SPLINE
  5
E2
330
1F
100
AcDbEntity
  8
0
370
     9
100
AcDbSpline
210
0.0
220
0.0
230
1.0
 70
     8
 71
     3
 72
    12
 73
     8
 74
     0
 42
0.0000000001
 43
0.0000000001
 40
0.0
 40
0.0
 40
0.0
 40
0.0
 40
0.3333333333333333
 40
0.3333333333333333
 40
0.3333333333333333
 40
0.3333333333333333
 40
1.0
 40
1.0
 40
1.0
 40
1.0
 10
2.44967
 20
-0.84963
 30
0.0
 10
2.44967
 20
-0.84963
 30
0.0
 10
2.44967
 20
-0.74803
 30
0.0
 10
2.44967
 20
-0.74803
 30
0.0
 10
2.44967
 20
-0.74803
 30
0.0
 10
2.44967
 20
-0.74803
 30
0.0
 10
2.77987
 20
-0.79883
 30
0.0
 10
2.77987
 20
-0.79883
 30
0.0
  0
SPLINE
  5
E3
330
1F
100
AcDbEntity
  8
0
370
     9
100
AcDbSpline
210
0.0
220
0.0
230
1.0
 70
    24
 71
     3
 72
     8
 73
     4
 74
     0
 42
0.0000000001
 43
0.0000000001
 40
0.0
 40
0.0
 40
0.0
 40
0.0
 40
1.0
 40
1.0
 40
1.0
 40
1.0
 10
-1.8868
 20
0.2345
 30
0.0
 10
-1.8868
 20
0.2345
 30
0.0
 10
-1.8868
 20
-0.89883
 30
0.0
 10
-1.8868
 20
-0.89883
 30
0.0
  0
SPLINE
  5
E4
330
1F
100
AcDbEntity
  8
0
370
     9
100
AcDbSpline
210
0.0
220
0.0
230
1.0
 70
    24
 71
     3
 72
     8
 73
     4
 74
     0
 42
0.0000000001
 43
0.0000000001
 40
0.0
 40
0.0
 40
0.0
 40
0.0
 40
1.0
 40
1.0
 40
1.0
 40
1.0
 10
2.77987
 20
0.2345
 30
0.0
 10
2.77987
 20
0.2345
 30
0.0
 10
2.77987
 20
-0.89883
 30
0.0
 10
2.77987
 20
-0.89883
 30
0.0
  0
SPLINE
  5
E5
330
1F
100
AcDbEntity
  8
0
370
     9
100
AcDbSpline
210
0.0
220
0.0
230
1.0
 70
    24
 71
     3
 72
     8
 73
     4
 74
     0
 42
0.0000000001
 43
0.0000000001
 40
0.0
 40
0.0
 40
0.0
 40
0.0
 40
1.0
 40
1.0
 40
1.0
 40
1.0
 10
-1.8868
 20
-0.79883
 30
0.0
 10
-1.8868
 20
-0.79883
 30
0.0
 10
2.77987
 20
-0.79883
 30
0.0
 10
2.77987
 20
-0.79883
 30
0.0
  0
SPLINE
  5
E6
330
1F
100
AcDbEntity
  8
0
100
AcDbSpline
210
0.0
220
0.0
230
1.0
 70
    11
 71
     3
 72
    84
 73
    80
 74
     0
 42
0.0000000001
 43
0.0000000001
 40
0.0
 40
0.0
 40
0.0
 40
0.0
 40
0.0476190476190476
 40
0.0476190476190476
 40
0.0476190476190476
 40
0.0476190476190476
 40
0.0952380952380952
 40
0.0952380952380952
 40
0.0952380952380952
 40
0.0952380952380952
 40
0.1428571428571428
 40
0.1428571428571428
 40
0.1428571428571428
 40
0.1428571428571428
 40
0.1904761904761905
 40
0.1904761904761905
 40
0.1904761904761905
 40
0.1904761904761905
 40
0.2380952380952381
 40
0.2380952380952381
 40
0.2380952380952381
 40
0.2380952380952381
 40
0.2857142857142857
 40
0.2857142857142857
 40
0.2857142857142857
 40
0.2857142857142857
 40
0.3333333333333333
 40
0.3333333333333333
 40
0.3333333333333333
 40
0.3333333333333333
 40
0.3809523809523809
 40
0.3809523809523809
 40
0.3809523809523809
 40
0.3809523809523809
 40
0.4285714285714285
 40
0.4285714285714285
 40
0.4285714285714285
 40
0.4285714285714285
 40
0.4761904761904762
 40
0.4761904761904762
 40
0.4761904761904762
 40
0.4761904761904762
 40
0.5238095238095238
 40
0.5238095238095238
 40
0.5238095238095238
 40
0.5238095238095238
 40
0.5714285714285714
 40
0.5714285714285714
 40
0.5714285714285714
 40
0.5714285714285714
 40
0.6190476190476191
 40
0.6190476190476191
 40
0.6190476190476191
 40
0.6190476190476191
 40
0.6666666666666666
 40
0.6666666666666666
 40
0.6666666666666666
 40
0.6666666666666666
 40
0.7142857142857143
 40
0.7142857142857143
 40
0.7142857142857143
 40
0.7142857142857143
 40
0.7619047619047619
 40
0.7619047619047619
 40
0.7619047619047619
 40
0.7619047619047619
 40
0.8095238095238095
 40
0.8095238095238095
 40
0.8095238095238095
 40
0.8095238095238095
 40
0.8571428571428571
 40
0.8571428571428571
 40
0.8571428571428571
 40
0.8571428571428571
 40
0.9047619047619048
 40
0.9047619047619048
 40
0.9047619047619048
 40
0.9047619047619048
 40
1.0
 40
1.0
 40
1.0
 40
1.0
 10
0.20696
 20
-0.43691
 30
0.0
 10
0.20696
 20
-0.43691
 30
0.0
 10
0.23566
 20
-0.40477
 30
0.0
 10
0.23566
 20
-0.40477
 30
0.0
 10
0.23566
 20
-0.40477
 30
0.0
 10
0.23566
 20
-0.40477
 30
0.0
 10
0.25257
 20
-0.41912
 30
0.0
 10
0.25257
 20
-0.41912
 30
0.0
 10
0.25257
 20
-0.41912
 30
0.0
 10
0.25257
 20
-0.41912
 30
0.0
 10
0.22253
 20
-0.45296
 30
0.0
 10
0.22253
 20
-0.45296
 30
0.0
 10
0.22253
 20
-0.45296
 30
0.0
 10
0.23233
 20
-0.46754
 30
0.0
 10
0.23892
 20
-0.48031
 30
0.0
 10
0.24236
 20
-0.49122
 30
0.0
 10
0.24236
 20
-0.49122
 30
0.0
 10
0.24691
 20
-0.50557
 30
0.0
 10
0.24919
 20
-0.52167
 30
0.0
 10
0.24919
 20
-0.53941
 30
0.0
 10
0.24919
 20
-0.53941
 30
0.0
 10
0.24919
 20
-0.56507
 30
0.0
 10
0.244
 20
-0.58794
 30
0.0
 10
0.23361
 20
-0.60795
 30
0.0
 10
0.23361
 20
-0.60795
 30
0.0
 10
0.22323
 20
-0.62801
 30
0.0
 10
0.20871
 20
-0.64318
 30
0.0
 10
0.18998
 20
-0.65345
 30
0.0
 10
0.18998
 20
-0.65345
 30
0.0
 10
0.1712
 20
-0.66366
 30
0.0
 10
0.15131
 20
-0.66879
 30
0.0
 10
0.13025
 20
-0.66879
 30
0.0
 10
0.13025
 20
-0.66879
 30
0.0
 10
0.1145
 20
-0.66879
 30
0.0
 10
0.10026
 20
-0.66657
 30
0.0
 10
0.08749
 20
-0.66214
 30
0.0
 10
0.08749
 20
-0.66214
 30
0.0
 10
0.07769
 20
-0.6587
 30
0.0
 10
0.06626
 20
-0.65216
 30
0.0
 10
0.05313
 20
-0.64248
 30
0.0
 10
0.05313
 20
-0.64248
 30
0.0
 10
0.05313
 20
-0.64248
 30
0.0
 10
0.02443
 20
-0.67462
 30
0.0
 10
0.02443
 20
-0.67462
 30
0.0
 10
0.02443
 20
-0.67462
 30
0.0
 10
0.02443
 20
-0.67462
 30
0.0
 10
0.00751
 20
-0.66027
 30
0.0
 10
0.00751
 20
-0.66027
 30
0.0
 10
0.00751
 20
-0.66027
 30
0.0
 10
0.00751
 20
-0.66027
 30
0.0
 10
0.03761
 20
-0.62661
 30
0.0
 10
0.03761
 20
-0.62661
 30
0.0
 10
0.03761
 20
-0.62661
 30
0.0
 10
0.02641
 20
-0.60964
 30
0.0
 10
0.01895
 20
-0.59511
 30
0.0
 10
0.01521
 20
-0.5831
 30
0.0
 10
0.01521
 20
-0.5831
 30
0.0
 10
0.01148
 20
-0.57108
 30
0.0
 10
0.00956
 20
-0.55661
 30
0.0
 10
0.00956
 20
-0.53976
 30
0.0
 10
0.00956
 20
-0.53976
 30
0.0
 10
0.00956
 20
-0.51403
 30
0.0
 10
0.01469
 20
-0.49111
 30
0.0
 10
0.02496
 20
-0.47098
 30
0.0
 10
0.02496
 20
-0.47098
 30
0.0
 10
0.03522
 20
-0.45086
 30
0.0
 10
0.04957
 20
-0.43563
 30
0.0
 10
0.06812
 20
-0.42525
 30
0.0
 10
0.06812
 20
-0.42525
 30
0.0
 10
0.08661
 20
-0.41492
 30
0.0
 10
0.10721
 20
-0.40973
 30
0.0
 10
0.1299
 20
-0.40973
 30
0.0
 10
0.1299
 20
-0.40973
 30
0.0
 10
0.14518
 20
-0.40973
 30
0.0
 10
0.15854
 20
-0.41171
 30
0.0
 10
0.16997
 20
-0.4158
 30
0.0
 10
0.16997
 20
-0.4158
 30
0.0
 10
0.18141
 20
-0.41982
 30
0.0
 10
0.19377
 20
-0.42688
 30
0.0
 10
0.20696
 20
-0.43691
 30
0.0
  0
SPLINE
  5
E7
330
1F
100
AcDbEntity
  8
0
100
AcDbSpline
210
0.0
220
0.0
230
1.0
 70
    11
 71
     3
 72
    32
 73
    28
 74
     0
 42
0.0000000001
 43
0.0000000001
 40
0.0
 40
0.0
 40
0.0
 40
0.0
 40
0.125
 40
0.125
 40
0.125
 40
0.125
 40
0.25
 40
0.25
 40
0.25
 40
0.25
 40
0.375
 40
0.375
 40
0.375
 40
0.375
 40
0.5
 40
0.5
 40
0.5
 40
0.5
 40
0.625
 40
0.625
 40
0.625
 40
0.625
 40
0.75
 40
0.75
 40
0.75
 40
0.75
 40
1.0
 40
1.0
 40
1.0
 40
1.0
 10
0.18648
 20
-0.45996
 30
0.0
 10
0.17575
 20
-0.45156
 30
0.0
 10
0.16636
 20
-0.44578
 30
0.0
 10
0.15836
 20
-0.44269
 30
0.0
 10
0.15836
 20
-0.44269
 30
0.0
 10
0.15031
 20
-0.43966
 30
0.0
 10
0.14086
 20
-0.43808
 30
0.0
 10
0.13007
 20
-0.43808
 30
0.0
 10
0.13007
 20
-0.43808
 30
0.0
 10
0.10511
 20
-0.43808
 30
0.0
 10
0.08451
 20
-0.44654
 30
0.0
 10
0.06818
 20
-0.46346
 30
0.0
 10
0.06818
 20
-0.46346
 30
0.0
 10
0.05191
 20
-0.48037
 30
0.0
 10
0.04374
 20
-0.50563
 30
0.0
 10
0.04374
 20
-0.53929
 30
0.0
 10
0.04374
 20
-0.53929
 30
0.0
 10
0.04374
 20
-0.55247
 30
0.0
 10
0.04502
 20
-0.5642
 30
0.0
 10
0.04753
 20
-0.57446
 30
0.0
 10
0.04753
 20
-0.57446
 30
0.0
 10
0.04934
 20
-0.58211
 30
0.0
 10
0.05313
 20
-0.5915
 30
0.0
 10
0.05896
 20
-0.60264
 30
0.0
 10
0.05896
 20
-0.60264
 30
0.0
 10
0.05896
 20
-0.60264
 30
0.0
 10
0.18648
 20
-0.45996
 30
0.0
 10
0.18648
 20
-0.45996
 30
0.0
  0
SPLINE
  5
E8
330
1F
100
AcDbEntity
  8
0
100
AcDbSpline
210
0.0
220
0.0
230
1.0
 70
    11
 71
     3
 72
    28
 73
    24
 74
     0
 42
0.0000000001
 43
0.0000000001
 40
0.0
 40
0.0
 40
0.0
 40
0.0
 40
0.1428571428571428
 40
0.1428571428571428
 40
0.1428571428571428
 40
0.1428571428571428
 40
0.2857142857142857
 40
0.2857142857142857
 40
0.2857142857142857
 40
0.2857142857142857
 40
0.4285714285714285
 40
0.4285714285714285
 40
0.4285714285714285
 40
0.4285714285714285
 40
0.5714285714285714
 40
0.5714285714285714
 40
0.5714285714285714
 40
0.5714285714285714
 40
0.7142857142857143
 40
0.7142857142857143
 40
0.7142857142857143
 40
0.7142857142857143
 40
1.0
 40
1.0
 40
1.0
 40
1.0
 10
0.20048
 20
-0.47757
 30
0.0
 10
0.20048
 20
-0.47757
 30
0.0
 10
0.07349
 20
-0.61973
 30
0.0
 10
0.07349
 20
-0.61973
 30
0.0
 10
0.07349
 20
-0.61973
 30
0.0
 10
0.08224
 20
-0.62691
 30
0.0
 10
0.09035
 20
-0.63192
 30
0.0
 10
0.09776
 20
-0.63478
 30
0.0
 10
0.09776
 20
-0.63478
 30
0.0
 10
0.10744
 20
-0.63857
 30
0.0
 10
0.11794
 20
-0.64044
 30
0.0
 10
0.1292
 20
-0.64044
 30
0.0
 10
0.1292
 20
-0.64044
 30
0.0
 10
0.15405
 20
-0.64044
 30
0.0
 10
0.17452
 20
-0.63169
 30
0.0
 10
0.19074
 20
-0.61413
 30
0.0
 10
0.19074
 20
-0.61413
 30
0.0
 10
0.2069
 20
-0.59657
 30
0.0
 10
0.21501
 20
-0.57196
 30
0.0
 10
0.21501
 20
-0.54028
 30
0.0
 10
0.21501
 20
-0.54028
 30
0.0
 10
0.21501
 20
-0.5166
 30
0.0
 10
0.21016
 20
-0.49566
 30
0.0
 10
0.20048
 20
-0.47757
 30
0.0
  0
SPLINE
  5
E9
330
1F
100
AcDbEntity
  8
0
100
AcDbSpline
210
0.0
220
0.0
230
1.0
 70
    11
 71
     3
 72
    48
 73
    44
 74
     0
 42
0.0000000001
 43
0.0000000001
 40
0.0
 40
0.0
 40
0.0
 40
0.0
 40
0.0833333333333333
 40
0.0833333333333333
 40
0.0833333333333333
 40
0.0833333333333333
 40
0.1666666666666667
 40
0.1666666666666667
 40
0.1666666666666667
 40
0.1666666666666667
 40
0.25
 40
0.25
 40
0.25
 40
0.25
 40
0.3333333333333333
 40
0.3333333333333333
 40
0.3333333333333333
 40
0.3333333333333333
 40
0.4166666666666667
 40
0.4166666666666667
 40
0.4166666666666667
 40
0.4166666666666667
 40
0.5
 40
0.5
 40
0.5
 40
0.5
 40
0.5833333333333334
 40
0.5833333333333334
 40
0.5833333333333334
 40
0.5833333333333334
 40
0.6666666666666666
 40
0.6666666666666666
 40
0.6666666666666666
 40
0.6666666666666666
 40
0.75
 40
0.75
 40
0.75
 40
0.75
 40
0.8333333333333334
 40
0.8333333333333334
 40
0.8333333333333334
 40
0.8333333333333334
 40
1.0
 40
1.0
 40
1.0
 40
1.0
 10
0.53775
 20
-0.44148
 30
0.0
 10
0.53775
 20
-0.44148
 30
0.0
 10
0.53775
 20
-0.41191
 30
0.0
 10
0.53775
 20
-0.41191
 30
0.0
 10
0.53775
 20
-0.41191
 30
0.0
 10
0.53775
 20
-0.41191
 30
0.0
 10
0.69991
 20
-0.41191
 30
0.0
 10
0.69991
 20
-0.41191
 30
0.0
 10
0.69991
 20
-0.41191
 30
0.0
 10
0.69991
 20
-0.41191
 30
0.0
 10
0.69991
 20
-0.43582
 30
0.0
 10
0.69991
 20
-0.43582
 30
0.0
 10
0.69991
 20
-0.43582
 30
0.0
 10
0.68399
 20
-0.4528
 30
0.0
 10
0.66818
 20
-0.47537
 30
0.0
 10
0.65249
 20
-0.50349
 30
0.0
 10
0.65249
 20
-0.50349
 30
0.0
 10
0.63685
 20
-0.53161
 30
0.0
 10
0.62472
 20
-0.5606
 30
0.0
 10
0.6162
 20
-0.59029
 30
0.0
 10
0.6162
 20
-0.59029
 30
0.0
 10
0.61002
 20
-0.61129
 30
0.0
 10
0.60611
 20
-0.63421
 30
0.0
 10
0.60442
 20
-0.65918
 30
0.0
 10
0.60442
 20
-0.65918
 30
0.0
 10
0.60442
 20
-0.65918
 30
0.0
 10
0.5728
 20
-0.65918
 30
0.0
 10
0.5728
 20
-0.65918
 30
0.0
 10
0.5728
 20
-0.65918
 30
0.0
 10
0.57315
 20
-0.63946
 30
0.0
 10
0.577
 20
-0.61566
 30
0.0
 10
0.58441
 20
-0.58772
 30
0.0
 10
0.58441
 20
-0.58772
 30
0.0
 10
0.59182
 20
-0.55984
 30
0.0
 10
0.60244
 20
-0.53289
 30
0.0
 10
0.61626
 20
-0.50699
 30
0.0
 10
0.61626
 20
-0.50699
 30
0.0
 10
0.63015
 20
-0.48109
 30
0.0
 10
0.64485
 20
-0.45921
 30
0.0
 10
0.66048
 20
-0.44148
 30
0.0
 10
0.66048
 20
-0.44148
 30
0.0
 10
0.66048
 20
-0.44148
 30
0.0
 10
0.53775
 20
-0.44148
 30
0.0
 10
0.53775
 20
-0.44148
 30
0.0
  0
SPLINE
  5
EA
330
1F
100
AcDbEntity
  8
0
100
AcDbSpline
210
0.0
220
0.0
230
1.0
 70
    11
 71
     3
 72
    52
 73
    48
 74
     0
 42
0.0000000001
 43
0.0000000001
 40
0.0
 40
0.0
 40
0.0
 40
0.0
 40
0.0769230769230769
 40
0.0769230769230769
 40
0.0769230769230769
 40
0.0769230769230769
 40
0.1538461538461539
 40
0.1538461538461539
 40
0.1538461538461539
 40
0.1538461538461539
 40
0.2307692307692308
 40
0.2307692307692308
 40
0.2307692307692308
 40
0.2307692307692308
 40
0.3076923076923077
 40
0.3076923076923077
 40
0.3076923076923077
 40
0.3076923076923077
 40
0.3846153846153846
 40
0.3846153846153846
 40
0.3846153846153846
 40
0.3846153846153846
 40
0.4615384615384616
 40
0.4615384615384616
 40
0.4615384615384616
 40
0.4615384615384616
 40
0.5384615384615384
 40
0.5384615384615384
 40
0.5384615384615384
 40
0.5384615384615384
 40
0.6153846153846154
 40
0.6153846153846154
 40
0.6153846153846154
 40
0.6153846153846154
 40
0.6923076923076923
 40
0.6923076923076923
 40
0.6923076923076923
 40
0.6923076923076923
 40
0.7692307692307693
 40
0.7692307692307693
 40
0.7692307692307693
 40
0.7692307692307693
 40
0.8461538461538461
 40
0.8461538461538461
 40
0.8461538461538461
 40
0.8461538461538461
 40
1.0
 40
1.0
 40
1.0
 40
1.0
 10
0.73036
 20
-0.53563
 30
0.0
 10
0.73036
 20
-0.506
 30
0.0
 10
0.7334
 20
-0.48214
 30
0.0
 10
0.73952
 20
-0.46411
 30
0.0
 10
0.73952
 20
-0.46411
 30
0.0
 10
0.74559
 20
-0.44603
 30
0.0
 10
0.75469
 20
-0.43209
 30
0.0
 10
0.76671
 20
-0.42229
 30
0.0
 10
0.76671
 20
-0.42229
 30
0.0
 10
0.77872
 20
-0.41249
 30
0.0
 10
0.79383
 20
-0.40759
 30
0.0
 10
0.81203
 20
-0.40759
 30
0.0
 10
0.81203
 20
-0.40759
 30
0.0
 10
0.82551
 20
-0.40759
 30
0.0
 10
0.83729
 20
-0.41033
 30
0.0
 10
0.84744
 20
-0.41576
 30
0.0
 10
0.84744
 20
-0.41576
 30
0.0
 10
0.85759
 20
-0.42112
 30
0.0
 10
0.86593
 20
-0.42894
 30
0.0
 10
0.87258
 20
-0.43915
 30
0.0
 10
0.87258
 20
-0.43915
 30
0.0
 10
0.87917
 20
-0.44936
 30
0.0
 10
0.88436
 20
-0.46178
 30
0.0
 10
0.8881
 20
-0.47642
 30
0.0
 10
0.8881
 20
-0.47642
 30
0.0
 10
0.89189
 20
-0.49106
 30
0.0
 10
0.89376
 20
-0.51078
 30
0.0
 10
0.89376
 20
-0.53563
 30
0.0
 10
0.89376
 20
-0.53563
 30
0.0
 10
0.89376
 20
-0.56503
 30
0.0
 10
0.89072
 20
-0.58871
 30
0.0
 10
0.88471
 20
-0.6068
 30
0.0
 10
0.88471
 20
-0.6068
 30
0.0
 10
0.87865
 20
-0.62488
 30
0.0
 10
0.86961
 20
-0.63882
 30
0.0
 10
0.85759
 20
-0.64868
 30
0.0
 10
0.85759
 20
-0.64868
 30
0.0
 10
0.84557
 20
-0.65854
 30
0.0
 10
0.83041
 20
-0.66344
 30
0.0
 10
0.81203
 20
-0.66344
 30
0.0
 10
0.81203
 20
-0.66344
 30
0.0
 10
0.78788
 20
-0.66344
 30
0.0
 10
0.76892
 20
-0.65481
 30
0.0
 10
0.75516
 20
-0.63748
 30
0.0
 10
0.75516
 20
-0.63748
 30
0.0
 10
0.73865
 20
-0.61666
 30
0.0
 10
0.73036
 20
-0.58265
 30
0.0
 10
0.73036
 20
-0.53563
 30
0.0
  0
SPLINE
  5
EB
330
1F
100
AcDbEntity
  8
0
100
AcDbSpline
210
0.0
220
0.0
230
1.0
 70
    11
 71
     3
 72
    36
 73
    32
 74
     0
 42
0.0000000001
 43
0.0000000001
 40
0.0
 40
0.0
 40
0.0
 40
0.0
 40
0.1111111111111111
 40
0.1111111111111111
 40
0.1111111111111111
 40
0.1111111111111111
 40
0.2222222222222222
 40
0.2222222222222222
 40
0.2222222222222222
 40
0.2222222222222222
 40
0.3333333333333333
 40
0.3333333333333333
 40
0.3333333333333333
 40
0.3333333333333333
 40
0.4444444444444444
 40
0.4444444444444444
 40
0.4444444444444444
 40
0.4444444444444444
 40
0.5555555555555556
 40
0.5555555555555556
 40
0.5555555555555556
 40
0.5555555555555556
 40
0.6666666666666666
 40
0.6666666666666666
 40
0.6666666666666666
 40
0.6666666666666666
 40
0.7777777777777778
 40
0.7777777777777778
 40
0.7777777777777778
 40
0.7777777777777778
 40
1.0
 40
1.0
 40
1.0
 40
1.0
 10
0.76198
 20
-0.53563
 30
0.0
 10
0.76198
 20
-0.57676
 30
0.0
 10
0.76682
 20
-0.60411
 30
0.0
 10
0.77645
 20
-0.61776
 30
0.0
 10
0.77645
 20
-0.61776
 30
0.0
 10
0.78607
 20
-0.63136
 30
0.0
 10
0.79791
 20
-0.63818
 30
0.0
 10
0.81203
 20
-0.63818
 30
0.0
 10
0.81203
 20
-0.63818
 30
0.0
 10
0.82621
 20
-0.63818
 30
0.0
 10
0.83805
 20
-0.6313
 30
0.0
 10
0.84767
 20
-0.61765
 30
0.0
 10
0.84767
 20
-0.61765
 30
0.0
 10
0.8573
 20
-0.604
 30
0.0
 10
0.86214
 20
-0.57664
 30
0.0
 10
0.86214
 20
-0.53563
 30
0.0
 10
0.86214
 20
-0.53563
 30
0.0
 10
0.86214
 20
-0.49439
 30
0.0
 10
0.8573
 20
-0.46697
 30
0.0
 10
0.84767
 20
-0.45344
 30
0.0
 10
0.84767
 20
-0.45344
 30
0.0
 10
0.83805
 20
-0.43985
 30
0.0
 10
0.82609
 20
-0.43308
 30
0.0
 10
0.81174
 20
-0.43308
 30
0.0
 10
0.81174
 20
-0.43308
 30
0.0
 10
0.79756
 20
-0.43308
 30
0.0
 10
0.78631
 20
-0.43909
 30
0.0
 10
0.77785
 20
-0.45105
 30
0.0
 10
0.77785
 20
-0.45105
 30
0.0
 10
0.76729
 20
-0.46627
 30
0.0
 10
0.76198
 20
-0.49451
 30
0.0
 10
0.76198
 20
-0.53563
 30
0.0
  0
SPLINE
  5
EC
330
1F
100
AcDbEntity
  8
0
370
    15
100
AcDbSpline
210
0.0
220
0.0
230
1.0
 70
    24
 71
     3
 72
     8
 73
     4
 74
     0
 42
0.0000000001
 43
0.0000000001
 40
0.0
 40
0.0
 40
0.0
 40
0.0
 40
1.0
 40
1.0
 40
1.0
 40
1.0
 10
-11.19426
 20
-8.36909
 30
0.0
 10
-11.19426
 20
-8.36909
 30
0.0
 10
-11.19426
 20
-11.22678
 30
0.0
 10
-11.19426
 20
-11.22678
 30
0.0
  0
SPLINE
  5
ED
330
1F
100
AcDbEntity
  8
0
370
    15
100
AcDbSpline
210
0.0
220
0.0
230
1.0
 70
    24
 71
     3
 72
     8
 73
     4
 74
     0
 42
0.0000000001
 43
0.0000000001
 40
0.0
 40
0.0
 40
0.0
 40
0.0
 40
1.0
 40
1.0
 40
1.0
 40
1.0
 10
-10.79426
 20
-11.22678
 30
0.0
 10
-10.79426
 20
-11.22678
 30
0.0
 10
-10.79426
 20
-8.36909
 30
0.0
 10
-10.79426
 20
-8.36909
 30
0.0
  0
SPLINE
  5
EE
330
1F
100
AcDbEntity
  8
0
370
    15
100
AcDbSpline
210
0.0
220
0.0
230
1.0
 70
     8
 71
     3
 72
    20
 73
    16
 74
     0
 42
0.0000000001
 43
0.0000000001
 40
0.0
 40
0.0
 40
0.0
 40
0.0
 40
0.2
 40
0.2
 40
0.2
 40
0.2
 40
0.4
 40
0.4
 40
0.4
 40
0.4
 40
0.6
 40
0.6
 40
0.6
 40
0.6
 40
1.0
 40
1.0
 40
1.0
 40
1.0
 10
-10.79426
 20
-8.64178
 30
0.0
 10
-10.23514
 20
-8.5384
 30
0.0
 10
-9.84695
 20
-8.02592
 30
0.0
 10
-9.89886
 20
-7.4597
 30
0.0
 10
-9.89886
 20
-7.4597
 30
0.0
 10
-9.95076
 20
-6.89347
 30
0.0
 10
-10.42566
 20
-6.46011
 30
0.0
 10
-10.99426
 20
-6.46011
 30
0.0
 10
-10.99426
 20
-6.46011
 30
0.0
 10
-11.56286
 20
-6.46011
 30
0.0
 10
-12.03776
 20
-6.89346
 30
0.0
 10
-12.08967
 20
-7.45969
 30
0.0
 10
-12.08967
 20
-7.45969
 30
0.0
 10
-12.14158
 20
-8.02592
 30
0.0
 10
-11.75339
 20
-8.53839
 30
0.0
 10
-11.19427
 20
-8.64178
 30
0.0
  0
SPLINE
  5
EF
330
1F
100
AcDbEntity
  8
0
370
    15
100
AcDbSpline
210
0.0
220
0.0
230
1.0
 70
    24
 71
     3
 72
     8
 73
     4
 74
     0
 42
0.0000000001
 43
0.0000000001
 40
0.0
 40
0.0
 40
0.0
 40
0.0
 40
1.0
 40
1.0
 40
1.0
 40
1.0
 10
-10.79426
 20
-11.22678
 30
0.0
 10
-10.79426
 20
-11.22678
 30
0.0
 10
-11.19426
 20
-11.22678
 30
0.0
 10
-11.19426
 20
-11.22678
 30
0.0
  0
SPLINE
  5
F0
330
1F
100
AcDbEntity
  8
0
370
    15
100
AcDbSpline
210
0.0
220
0.0
230
1.0
 70
     8
 71
     3
 72
    20
 73
    16
 74
     0
 42
0.0000000001
 43
0.0000000001
 40
0.0
 40
0.0
 40
0.0
 40
0.0
 40
0.2
 40
0.2
 40
0.2
 40
0.2
 40
0.4
 40
0.4
 40
0.4
 40
0.4
 40
0.6
 40
0.6
 40
0.6
 40
0.6
 40
1.0
 40
1.0
 40
1.0
 40
1.0
 10
-10.16093
 20
-7.56011
 30
0.0
 10
-10.16093
 20
-7.09988
 30
0.0
 10
-10.53403
 20
-6.72678
 30
0.0
 10
-10.99426
 20
-6.72678
 30
0.0
 10
-10.99426
 20
-6.72678
 30
0.0
 10
-11.4545
 20
-6.72678
 30
0.0
 10
-11.8276
 20
-7.09987
 30
0.0
 10
-11.8276
 20
-7.56011
 30
0.0
 10
-11.8276
 20
-7.56011
 30
0.0
 10
-11.8276
 20
-8.02035
 30
0.0
 10
-11.4545
 20
-8.39344
 30
0.0
 10
-10.99427
 20
-8.39345
 30
0.0
 10
-10.99427
 20
-8.39345
 30
0.0
 10
-10.53403
 20
-8.39345
 30
0.0
 10
-10.16093
 20
-8.02035
 30
0.0
 10
-10.16093
 20
-7.56012
 30
0.0
  0
SPLINE
  5
F1
330
1F
100
AcDbEntity
  8
0
370
    15
100
AcDbSpline
210
0.0
220
0.0
230
1.0
 70
     8
 71
     3
 72
    12
 73
     8
 74
     0
 42
0.0000000001
 43
0.0000000001
 40
0.0
 40
0.0
 40
0.0
 40
0.0
 40
0.3333333333333333
 40
0.3333333333333333
 40
0.3333333333333333
 40
0.3333333333333333
 40
1.0
 40
1.0
 40
1.0
 40
1.0
 10
-10.79426
 20
-9.8514
 30
0.0
 10
-9.57464
 20
-9.74494
 30
0.0
 10
-8.65215
 20
-8.70175
 30
0.0
 10
-8.69572
 20
-7.47826
 30
0.0
 10
-8.69572
 20
-7.47826
 30
0.0
 10
-8.73929
 20
-6.25478
 30
0.0
 10
-9.73363
 20
-5.27984
 30
0.0
 10
-10.95774
 20
-5.2604
 30
0.0
  0
SPLINE
  5
F2
330
1F
100
AcDbEntity
  8
0
370
    15
100
AcDbSpline
210
0.0
220
0.0
230
1.0
 70
     8
 71
     3
 72
    12
 73
     8
 74
     0
 42
0.0000000001
 43
0.0000000001
 40
0.0
 40
0.0
 40
0.0
 40
0.0
 40
0.3333333333333333
 40
0.3333333333333333
 40
0.3333333333333333
 40
0.3333333333333333
 40
1.0
 40
1.0
 40
1.0
 40
1.0
 10
-10.95776
 20
-5.2604
 30
0.0
 10
-12.196
 20
-5.24075
 30
0.0
 10
-13.22751
 20
-6.20503
 30
0.0
 10
-13.29122
 20
-7.44178
 30
0.0
 10
-13.29122
 20
-7.44178
 30
0.0
 10
-13.35493
 20
-8.67854
 30
0.0
 10
-12.42797
 20
-9.74371
 30
0.0
 10
-11.19426
 20
-9.8514
 30
0.0
  0
SPLINE
  5
F3
330
1F
100
AcDbEntity
  8
0
370
    15
100
AcDbSpline
210
0.0
220
0.0
230
1.0
 70
     8
 71
     3
 72
    12
 73
     8
 74
     0
 42
0.0000000001
 43
0.0000000001
 40
0.0
 40
0.0
 40
0.0
 40
0.0
 40
0.3333333333333333
 40
0.3333333333333333
 40
0.3333333333333333
 40
0.3333333333333333
 40
1.0
 40
1.0
 40
1.0
 40
1.0
 10
-10.79426
 20
-9.88486
 30
0.0
 10
-9.54913
 20
-9.77774
 30
0.0
 10
-8.60947
 20
-8.70861
 30
0.0
 10
-8.66308
 20
-7.46003
 30
0.0
 10
-8.66308
 20
-7.46003
 30
0.0
 10
-8.71668
 20
-6.21144
 30
0.0
 10
-9.74452
 20
-5.22679
 30
0.0
 10
-10.99425
 20
-5.22678
 30
0.0
  0
SPLINE
  5
F4
330
1F
100
AcDbEntity
  8
0
370
    15
100
AcDbSpline
210
0.0
220
0.0
230
1.0
 70
     8
 71
     3
 72
    12
 73
     8
 74
     0
 42
0.0000000001
 43
0.0000000001
 40
0.0
 40
0.0
 40
0.0
 40
0.0
 40
0.3333333333333333
 40
0.3333333333333333
 40
0.3333333333333333
 40
0.3333333333333333
 40
1.0
 40
1.0
 40
1.0
 40
1.0
 10
-10.99426
 20
-5.22678
 30
0.0
 10
-12.244
 20
-5.22678
 30
0.0
 10
-13.27184
 20
-6.21144
 30
0.0
 10
-13.32545
 20
-7.46002
 30
0.0
 10
-13.32545
 20
-7.46002
 30
0.0
 10
-13.37906
 20
-8.70861
 30
0.0
 10
-12.4394
 20
-9.77774
 30
0.0
 10
-11.19426
 20
-9.88486
 30
0.0
  0
SPLINE
  5
F5
330
1F
100
AcDbEntity
  8
0
 62
     8
370
    15
100
AcDbSpline
210
0.0
220
0.0
230
1.0
 70
     8
 71
     3
 72
    20
 73
    16
 74
     0
 42
0.0000000001
 43
0.0000000001
 40
0.0
 40
0.0
 40
0.0
 40
0.0
 40
0.2
 40
0.2
 40
0.2
 40
0.2
 40
0.4
 40
0.4
 40
0.4
 40
0.4
 40
0.6
 40
0.6
 40
0.6
 40
0.6
 40
1.0
 40
1.0
 40
1.0
 40
1.0
 10
-10.79426
 20
-8.62483
 30
0.0
 10
-10.24448
 20
-8.52155
 30
0.0
 10
-9.86374
 20
-8.01667
 30
0.0
 10
-9.9156
 20
-7.45968
 30
0.0
 10
-9.9156
 20
-7.45968
 30
0.0
 10
-9.96745
 20
-6.90269
 30
0.0
 10
-10.43486
 20
-6.47678
 30
0.0
 10
-10.99426
 20
-6.47678
 30
0.0
 10
-10.99426
 20
-6.47678
 30
0.0
 10
-11.55366
 20
-6.47678
 30
0.0
 10
-12.02107
 20
-6.90269
 30
0.0
 10
-12.07293
 20
-7.45968
 30
0.0
 10
-12.07293
 20
-7.45968
 30
0.0
 10
-12.12479
 20
-8.01666
 30
0.0
 10
-11.74405
 20
-8.52155
 30
0.0
 10
-11.19427
 20
-8.62482
 30
0.0
  0
SPLINE
  5
F6
330
1F
100
AcDbEntity
  8
0
 62
     8
370
    15
100
AcDbSpline
210
0.0
220
0.0
230
1.0
 70
     8
 71
     3
 72
    20
 73
    16
 74
     0
 42
0.0000000001
 43
0.0000000001
 40
0.0
 40
0.0
 40
0.0
 40
0.0
 40
0.2
 40
0.2
 40
0.2
 40
0.2
 40
0.4
 40
0.4
 40
0.4
 40
0.4
 40
0.6
 40
0.6
 40
0.6
 40
0.6
 40
1.0
 40
1.0
 40
1.0
 40
1.0
 10
-10.79426
 20
-9.65758
 30
0.0
 10
-9.67461
 20
-9.55082
 30
0.0
 10
-8.83622
 20
-8.58346
 30
0.0
 10
-8.88966
 20
-7.46
 30
0.0
 10
-8.88966
 20
-7.46
 30
0.0
 10
-8.9431
 20
-6.33654
 30
0.0
 10
-9.86953
 20
-5.45314
 30
0.0
 10
-10.99426
 20
-5.45313
 30
0.0
 10
-10.99426
 20
-5.45313
 30
0.0
 10
-12.11899
 20
-5.45313
 30
0.0
 10
-13.04542
 20
-6.33653
 30
0.0
 10
-13.09886
 20
-7.45999
 30
0.0
 10
-13.09886
 20
-7.45999
 30
0.0
 10
-13.15231
 20
-8.58345
 30
0.0
 10
-12.31393
 20
-9.55081
 30
0.0
 10
-11.19427
 20
-9.65758
 30
0.0
  0
SPLINE
  5
F7
330
1F
100
AcDbEntity
  8
0
100
AcDbSpline
210
0.0
220
0.0
230
1.0
 70
    27
 71
     3
 72
    12
 73
     8
 74
     0
 42
0.0000000001
 43
0.0000000001
 40
0.0
 40
0.0
 40
0.0
 40
0.0
 40
0.3333333333333333
 40
0.3333333333333333
 40
0.3333333333333333
 40
0.3333333333333333
 40
1.0
 40
1.0
 40
1.0
 40
1.0
 10
-7.65805
 20
-5.22678
 30
0.0
 10
-7.65805
 20
-5.22678
 30
0.0
 10
-7.60725
 20
-5.55698
 30
0.0
 10
-7.60725
 20
-5.55698
 30
0.0
 10
-7.60725
 20
-5.55698
 30
0.0
 10
-7.60725
 20
-5.55698
 30
0.0
 10
-7.65805
 20
-5.22678
 30
0.0
 10
-7.65805
 20
-5.22678
 30
0.0
  0
SPLINE
  5
F8
330
1F
100
AcDbEntity
  8
0
100
AcDbSpline
210
0.0
220
0.0
230
1.0
 70
     8
 71
     3
 72
    12
 73
     8
 74
     0
 42
0.0000000001
 43
0.0000000001
 40
0.0
 40
0.0
 40
0.0
 40
0.0
 40
0.3333333333333333
 40
0.3333333333333333
 40
0.3333333333333333
 40
0.3333333333333333
 40
1.0
 40
1.0
 40
1.0
 40
1.0
 10
-7.60725
 20
-5.55698
 30
0.0
 10
-7.60725
 20
-5.55698
 30
0.0
 10
-7.70885
 20
-5.55698
 30
0.0
 10
-7.70885
 20
-5.55698
 30
0.0
 10
-7.70885
 20
-5.55698
 30
0.0
 10
-7.70885
 20
-5.55698
 30
0.0
 10
-7.65805
 20
-5.22678
 30
0.0
 10
-7.65805
 20
-5.22678
 30
0.0
  0
SPLINE
  5
F9
330
1F
100
AcDbEntity
  8
0
370
     9
100
AcDbSpline
210
0.0
220
0.0
230
1.0
 70
    24
 71
     3
 72
     8
 73
     4
 74
     0
 42
0.0000000001
 43
0.0000000001
 40
0.0
 40
0.0
 40
0.0
 40
0.0
 40
1.0
 40
1.0
 40
1.0
 40
1.0
 10
-7.65805
 20
-5.22678
 30
0.0
 10
-7.65805
 20
-5.22678
 30
0.0
 10
-7.60725
 20
-5.55698
 30
0.0
 10
-7.60725
 20
-5.55698
 30
0.0
  0
SPLINE
  5
FA
330
1F
100
AcDbEntity
  8
0
370
     9
100
AcDbSpline
210
0.0
220
0.0
230
1.0
 70
     8
 71
     3
 72
    12
 73
     8
 74
     0
 42
0.0000000001
 43
0.0000000001
 40
0.0
 40
0.0
 40
0.0
 40
0.0
 40
0.3333333333333333
 40
0.3333333333333333
 40
0.3333333333333333
 40
0.3333333333333333
 40
1.0
 40
1.0
 40
1.0
 40
1.0
 10
-7.60725
 20
-5.55698
 30
0.0
 10
-7.60725
 20
-5.55698
 30
0.0
 10
-7.70885
 20
-5.55698
 30
0.0
 10
-7.70885
 20
-5.55698
 30
0.0
 10
-7.70885
 20
-5.55698
 30
0.0
 10
-7.70885
 20
-5.55698
 30
0.0
 10
-7.65805
 20
-5.22678
 30
0.0
 10
-7.65805
 20
-5.22678
 30
0.0
  0
SPLINE
  5
FB
330
1F
100
AcDbEntity
  8
0
100
AcDbSpline
210
0.0
220
0.0
230
1.0
 70
    27
 71
     3
 72
    12
 73
     8
 74
     0
 42
0.0000000001
 43
0.0000000001
 40
0.0
 40
0.0
 40
0.0
 40
0.0
 40
0.3333333333333333
 40
0.3333333333333333
 40
0.3333333333333333
 40
0.3333333333333333
 40
1.0
 40
1.0
 40
1.0
 40
1.0
 10
-7.65805
 20
-11.2734
 30
0.0
 10
-7.65805
 20
-11.2734
 30
0.0
 10
-7.70885
 20
-10.9432
 30
0.0
 10
-7.70885
 20
-10.9432
 30
0.0
 10
-7.70885
 20
-10.9432
 30
0.0
 10
-7.70885
 20
-10.9432
 30
0.0
 10
-7.65805
 20
-11.2734
 30
0.0
 10
-7.65805
 20
-11.2734
 30
0.0
  0
SPLINE
  5
FC
330
1F
100
AcDbEntity
  8
0
100
AcDbSpline
210
0.0
220
0.0
230
1.0
 70
     8
 71
     3
 72
    12
 73
     8
 74
     0
 42
0.0000000001
 43
0.0000000001
 40
0.0
 40
0.0
 40
0.0
 40
0.0
 40
0.3333333333333333
 40
0.3333333333333333
 40
0.3333333333333333
 40
0.3333333333333333
 40
1.0
 40
1.0
 40
1.0
 40
1.0
 10
-7.70885
 20
-10.9432
 30
0.0
 10
-7.70885
 20
-10.9432
 30
0.0
 10
-7.60725
 20
-10.9432
 30
0.0
 10
-7.60725
 20
-10.9432
 30
0.0
 10
-7.60725
 20
-10.9432
 30
0.0
 10
-7.60725
 20
-10.9432
 30
0.0
 10
-7.65805
 20
-11.2734
 30
0.0
 10
-7.65805
 20
-11.2734
 30
0.0
  0
SPLINE
  5
FD
330
1F
100
AcDbEntity
  8
0
370
     9
100
AcDbSpline
210
0.0
220
0.0
230
1.0
 70
    24
 71
     3
 72
     8
 73
     4
 74
     0
 42
0.0000000001
 43
0.0000000001
 40
0.0
 40
0.0
 40
0.0
 40
0.0
 40
1.0
 40
1.0
 40
1.0
 40
1.0
 10
-7.65805
 20
-11.2734
 30
0.0
 10
-7.65805
 20
-11.2734
 30
0.0
 10
-7.70885
 20
-10.9432
 30
0.0
 10
-7.70885
 20
-10.9432
 30
0.0
  0
SPLINE
  5
FE
330
1F
100
AcDbEntity
  8
0
370
     9
100
AcDbSpline
210
0.0
220
0.0
230
1.0
 70
     8
 71
     3
 72
    12
 73
     8
 74
     0
 42
0.0000000001
 43
0.0000000001
 40
0.0
 40
0.0
 40
0.0
 40
0.0
 40
0.3333333333333333
 40
0.3333333333333333
 40
0.3333333333333333
 40
0.3333333333333333
 40
1.0
 40
1.0
 40
1.0
 40
1.0
 10
-7.70885
 20
-10.9432
 30
0.0
 10
-7.70885
 20
-10.9432
 30
0.0
 10
-7.60725
 20
-10.9432
 30
0.0
 10
-7.60725
 20
-10.9432
 30
0.0
 10
-7.60725
 20
-10.9432
 30
0.0
 10
-7.60725
 20
-10.9432
 30
0.0
 10
-7.65805
 20
-11.2734
 30
0.0
 10
-7.65805
 20
-11.2734
 30
0.0
  0
SPLINE
  5
FF
330
1F
100
AcDbEntity
  8
0
370
     9
100
AcDbSpline
210
0.0
220
0.0
230
1.0
 70
    24
 71
     3
 72
     8
 73
     4
 74
     0
 42
0.0000000001
 43
0.0000000001
 40
0.0
 40
0.0
 40
0.0
 40
0.0
 40
1.0
 40
1.0
 40
1.0
 40
1.0
 10
-10.89426
 20
-5.22678
 30
0.0
 10
-10.89426
 20
-5.22678
 30
0.0
 10
-7.55805
 20
-5.22678
 30
0.0
 10
-7.55805
 20
-5.22678
 30
0.0
  0
SPLINE
  5
100
330
1F
100
AcDbEntity
  8
0
370
     9
100
AcDbSpline
210
0.0
220
0.0
230
1.0
 70
    24
 71
     3
 72
     8
 73
     4
 74
     0
 42
0.0000000001
 43
0.0000000001
 40
0.0
 40
0.0
 40
0.0
 40
0.0
 40
1.0
 40
1.0
 40
1.0
 40
1.0
 10
-10.89426
 20
-11.2734
 30
0.0
 10
-10.89426
 20
-11.2734
 30
0.0
 10
-7.55805
 20
-11.2734
 30
0.0
 10
-7.55805
 20
-11.2734
 30
0.0
  0
SPLINE
  5
101
330
1F
100
AcDbEntity
  8
0
370
     9
100
AcDbSpline
210
0.0
220
0.0
230
1.0
 70
    24
 71
     3
 72
     8
 73
     4
 74
     0
 42
0.0000000001
 43
0.0000000001
 40
0.0
 40
0.0
 40
0.0
 40
0.0
 40
1.0
 40
1.0
 40
1.0
 40
1.0
 10
-7.65805
 20
-5.22678
 30
0.0
 10
-7.65805
 20
-5.22678
 30
0.0
 10
-7.65805
 20
-11.2734
 30
0.0
 10
-7.65805
 20
-11.2734
 30
0.0
  0
ENDSEC
  0
SECTION
  2
OBJECTS
  0
DICTIONARY
  5
C
330
0
100
AcDbDictionary
281
     1
  3
ACAD_GROUP
350
D
  3
ACAD_LAYOUT
350
1A
  3
ACAD_MATERIAL
350
3B
  3
ACAD_MLEADERSTYLE
350
123
  3
ACAD_MLINESTYLE
350
17
  3
ACAD_PLOTSETTINGS
350
19
  3
ACAD_PLOTSTYLENAME
350
E
  3
ACAD_TABLESTYLE
350
122
  3
ACAD_VISUALSTYLE
350
2A
  0
DICTIONARY
  5
D
102
{ACAD_REACTORS
330
C
102
}
330
C
100
AcDbDictionary
281
     1
  0
DICTIONARY
  5
1A
102
{ACAD_REACTORS
330
C
102
}
330
C
100
AcDbDictionary
281
     1
  3
Layout1
350
1E
  3
Layout2
350
26
  3
Model
350
22
  0
DICTIONARY
  5
3B
102
{ACAD_REACTORS
330
C
102
}
330
C
100
AcDbDictionary
281
     1
  3
ByBlock
350
3D
  3
ByLayer
350
3C
  3
Global
350
3E
  0
DICTIONARY
  5
123
102
{ACAD_REACTORS
330
C
102
}
330
C
100
AcDbDictionary
281
     1
  0
DICTIONARY
  5
17
102
{ACAD_REACTORS
330
C
102
}
330
C
100
AcDbDictionary
281
     1
  3
Standard
350
18
  0
DICTIONARY
  5
19
102
{ACAD_REACTORS
330
C
102
}
330
C
100
AcDbDictionary
281
     1
  0
ACDBDICTIONARYWDFLT
  5
E
102
{ACAD_REACTORS
330
C
102
}
330
C
100
AcDbDictionary
281
     1
  3
Normal
350
F
100
AcDbDictionaryWithDefault
340
F
  0
DICTIONARY
  5
122
102
{ACAD_REACTORS
330
C
102
}
330
C
100
AcDbDictionary
281
     1
  0
DICTIONARY
  5
2A
102
{ACAD_REACTORS
330
C
102
}
330
C
100
AcDbDictionary
281
     1
  3
2dWireframe
350
2F
  3
3D Hidden
350
31
  3
3dWireframe
350
30
  3
Basic
350
32
  3
Brighten
350
36
  3
ColorChange
350
3A
  3
Conceptual
350
34
  3
Dim
350
35
  3
Facepattern
350
39
  3
Flat
350
2B
  3
FlatWithEdges
350
2C
  3
Gouraud
350
2D
  3
GouraudWithEdges
350
2E
  3
Linepattern
350
38
  3
Realistic
350
33
  3
Thicken
350
37
  0
LAYOUT
  5
1E
102
{ACAD_REACTORS
330
1A
102
}
330
1A
100
AcDbPlotSettings
  1

  2
none_device
  4

  6

 40
0.0
 41
0.0
 42
0.0
 43
0.0
 44
0.0
 45
0.0
 46
0.0
 47
0.0
 48
0.0
 49
0.0
140
0.0
141
0.0
142
1.0
143
1.0
 70
   688
 72
     0
 73
     0
 74
     5
  7

 75
    16
 76
     0
 77
     2
 78
   300
147
1.0
148
0.0
149
0.0
100
AcDbLayout
  1
Layout1
 70
     1
 71
     1
 10
0.0
 20
0.0
 11
12.0
 21
9.0
 12
0.0
 22
0.0
 32
0.0
 14
1.000000000000000E+20
 24
1.000000000000000E+20
 34
1.000000000000000E+20
 15
-1.000000000000000E+20
 25
-1.000000000000000E+20
 35
-1.000000000000000E+20
146
0.0
 13
0.0
 23
0.0
 33
0.0
 16
1.0
 26
0.0
 36
0.0
 17
0.0
 27
1.0
 37
0.0
 76
     0
330
1B
  0
LAYOUT
  5
26
102
{ACAD_REACTORS
330
1A
102
}
330
1A
100
AcDbPlotSettings
  1

  2
none_device
  4

  6

 40
0.0
 41
0.0
 42
0.0
 43
0.0
 44
0.0
 45
0.0
 46
0.0
 47
0.0
 48
0.0
 49
0.0
140
0.0
141
0.0
142
1.0
143
1.0
 70
   688
 72
     0
 73
     0
 74
     5
  7

 75
    16
 76
     0
 77
     2
 78
   300
147
1.0
148
0.0
149
0.0
100
AcDbLayout
  1
Layout2
 70
     1
 71
     2
 10
0.0
 20
0.0
 11
0.0
 21
0.0
 12
0.0
 22
0.0
 32
0.0
 14
0.0
 24
0.0
 34
0.0
 15
0.0
 25
0.0
 35
0.0
146
0.0
 13
0.0
 23
0.0
 33
0.0
 16
1.0
 26
0.0
 36
0.0
 17
0.0
 27
1.0
 37
0.0
 76
     0
330
23
  0
LAYOUT
  5
22
102
{ACAD_REACTORS
330
1A
102
}
330
1A
100
AcDbPlotSettings
  1

  2
none_device
  4

  6

 40
0.0
 41
0.0
 42
0.0
 43
0.0
 44
0.0
 45
0.0
 46
0.0
 47
0.0
 48
0.0
 49
0.0
140
0.0
141
0.0
142
1.0
143
1.0
 70
  1712
 72
     0
 73
     0
 74
     0
  7

 75
     0
 76
     0
 77
     2
 78
   300
147
1.0
148
0.0
149
0.0
100
AcDbLayout
  1
Model
 70
     1
 71
     0
 10
0.0
 20
0.0
 11
12.0
 21
9.0
 12
0.0
 22
0.0
 32
0.0
 14
-14.78165
 24
-11.27721
 34
0.0
 15
4.1207
 25
11.83546
 35
0.0
146
0.0
 13
0.0
 23
0.0
 33
0.0
 16
1.0
 26
0.0
 36
0.0
 17
0.0
 27
1.0
 37
0.0
 76
     0
330
1F
331
29
  0
MATERIAL
  5
3D
102
{ACAD_REACTORS
330
3B
102
}
330
3B
100
AcDbMaterial
  1
ByBlock
 72
     1
 94
      127
  0
MATERIAL
  5
3C
102
{ACAD_REACTORS
330
3B
102
}
330
3B
100
AcDbMaterial
  1
ByLayer
 72
     1
 94
      127
  0
MATERIAL
  5
3E
102
{ACAD_REACTORS
330
3B
102
}
330
3B
100
AcDbMaterial
  1
Global
 72
     1
 94
      127
  0
MLINESTYLE
  5
18
102
{ACAD_REACTORS
330
17
102
}
330
17
100
AcDbMlineStyle
  2
Standard
 70
     0
  3

 62
   256
 51
90.0
 52
90.0
 71
     2
 49
0.5
 62
   256
  6
BYLAYER
 49
-0.5
 62
   256
  6
BYLAYER
  0
ACDBPLACEHOLDER
  5
F
102
{ACAD_REACTORS
330
E
102
}
330
E
  0
VISUALSTYLE
  5
2F
102
{ACAD_REACTORS
330
2A
102
}
102
{ACAD_XDICTIONARY
360
10A
102
}
330
2A
100
AcDbVisualStyle
  2
2dWireframe
 70
     4
 71
     0
 72
     2
 73
     0
 90
        0
 40
-0.6
 41
-30.0
 62
     5
 63
     7
421
 16777215
 74
     1
 91
        4
 64
     7
 65
   257
 75
     1
175
     1
 42
1.0
 92
        0
 66
   257
 43
1.0
 76
     1
 77
     6
 78
     2
 67
     7
 79
     5
170
     0
171
     0
290
     0
174
     0
 93
        1
 44
0.0
173
     0
291
     0
 45
0.0
  0
VISUALSTYLE
  5
31
102
{ACAD_REACTORS
330
2A
102
}
102
{ACAD_XDICTIONARY
360
10E
102
}
330
2A
100
AcDbVisualStyle
  2
3D Hidden
 70
     6
 71
     1
 72
     2
 73
     2
 90
        0
 40
-0.6
 41
-30.0
 62
     5
 63
     7
421
 16777215
 74
     2
 91
        2
 64
     7
 65
   257
 75
     2
175
     1
 42
40.0
 92
        0
 66
   257
 43
1.0
 76
     1
 77
     6
 78
     2
 67
     7
 79
     3
170
     0
171
     0
290
     0
174
     0
 93
        1
 44
0.0
173
     0
291
     0
 45
0.0
  0
VISUALSTYLE
  5
30
102
{ACAD_REACTORS
330
2A
102
}
102
{ACAD_XDICTIONARY
360
10C
102
}
330
2A
100
AcDbVisualStyle
  2
3dWireframe
 70
     5
 71
     0
 72
     2
 73
     0
 90
        0
 40
-0.6
 41
-30.0
 62
     5
 63
     7
421
 16777215
 74
     1
 91
        4
 64
     7
 65
   257
 75
     1
175
     1
 42
1.0
 92
        0
 66
   257
 43
1.0
 76
     1
 77
     6
 78
     2
 67
     7
 79
     5
170
     0
171
     0
290
     0
174
     0
 93
        1
 44
0.0
173
     0
291
     0
 45
0.0
  0
VISUALSTYLE
  5
32
102
{ACAD_REACTORS
330
2A
102
}
102
{ACAD_XDICTIONARY
360
110
102
}
330
2A
100
AcDbVisualStyle
  2
Basic
 70
     7
 71
     1
 72
     0
 73
     1
 90
        0
 40
-0.6
 41
-30.0
 62
     5
 63
     7
421
 16777215
 74
     0
 91
        4
 64
     7
 65
   257
 75
     1
175
     1
 42
1.0
 92
        8
 66
     7
 43
1.0
 76
     1
 77
     6
 78
     2
 67
     7
 79
     5
170
     0
171
     0
290
     0
174
     0
 93
        1
 44
0.0
173
     0
291
     1
 45
0.0
  0
VISUALSTYLE
  5
36
102
{ACAD_REACTORS
330
2A
102
}
102
{ACAD_XDICTIONARY
360
118
102
}
330
2A
100
AcDbVisualStyle
  2
Brighten
 70
    12
 71
     2
 72
     2
 73
     0
 90
        0
 40
-0.6
 41
-30.0
 62
     5
 63
     7
421
 16777215
 74
     1
 91
        4
 64
     7
 65
   257
 75
     1
175
     1
 42
1.0
 92
        8
 66
     7
 43
1.0
 76
     1
 77
     6
 78
     2
 67
     7
 79
     5
170
     0
171
     0
290
     0
174
     0
 93
        1
 44
50.0
173
     0
291
     1
 45
0.0
  0
VISUALSTYLE
  5
3A
102
{ACAD_REACTORS
330
2A
102
}
102
{ACAD_XDICTIONARY
360
120
102
}
330
2A
100
AcDbVisualStyle
  2
ColorChange
 70
    16
 71
     2
 72
     2
 73
     3
 90
        0
 40
-0.6
 41
-30.0
 62
     5
 63
     8
421
  8421504
 74
     1
 91
        4
 64
     7
 65
   257
 75
     1
175
     1
 42
1.0
 92
        8
 66
     8
424
  8421504
 43
1.0
 76
     1
 77
     6
 78
     2
 67
     7
 79
     5
170
     0
171
     0
290
     0
174
     0
 93
        1
 44
0.0
173
     0
291
     1
 45
0.0
  0
VISUALSTYLE
  5
34
102
{ACAD_REACTORS
330
2A
102
}
102
{ACAD_XDICTIONARY
360
114
102
}
330
2A
100
AcDbVisualStyle
  2
Conceptual
 70
     9
 71
     3
 72
     2
 73
     0
 90
        0
 40
-0.6
 41
-30.0
 62
     5
 63
     7
421
 16777215
 74
     2
 91
        2
 64
     7
 65
   257
 75
     1
175
     1
 42
40.0
 92
        8
 66
     7
 43
1.0
 76
     1
 77
     6
 78
     2
 67
     7
 79
     3
170
     0
171
     0
290
     0
174
     0
 93
        1
 44
0.0
173
     0
291
     0
 45
0.0
  0
VISUALSTYLE
  5
35
102
{ACAD_REACTORS
330
2A
102
}
102
{ACAD_XDICTIONARY
360
116
102
}
330
2A
100
AcDbVisualStyle
  2
Dim
 70
    11
 71
     2
 72
     2
 73
     0
 90
        0
 40
-0.6
 41
-30.0
 62
     5
 63
     7
421
 16777215
 74
     1
 91
        4
 64
     7
 65
   257
 75
     1
175
     1
 42
1.0
 92
        8
 66
     7
 43
1.0
 76
     1
 77
     6
 78
     2
 67
     7
 79
     5
170
     0
171
     0
290
     0
174
     0
 93
        1
 44
-50.0
173
     0
291
     1
 45
0.0
  0
VISUALSTYLE
  5
39
102
{ACAD_REACTORS
330
2A
102
}
102
{ACAD_XDICTIONARY
360
11E
102
}
330
2A
100
AcDbVisualStyle
  2
Facepattern
 70
    15
 71
     2
 72
     2
 73
     0
 90
        0
 40
-0.6
 41
-30.0
 62
     5
 63
     7
421
 16777215
 74
     1
 91
        4
 64
     7
 65
   257
 75
     1
175
     1
 42
1.0
 92
        8
 66
     7
 43
1.0
 76
     1
 77
     6
 78
     2
 67
     7
 79
     5
170
     0
171
     0
290
     0
174
     0
 93
        1
 44
0.0
173
     0
291
     1
 45
0.0
  0
VISUALSTYLE
  5
2B
102
{ACAD_REACTORS
330
2A
102
}
102
{ACAD_XDICTIONARY
360
102
102
}
330
2A
100
AcDbVisualStyle
  2
Flat
 70
     0
 71
     2
 72
     1
 73
     1
 90
        2
 40
-0.6
 41
30.0
 62
     5
 63
     7
421
 16777215
 74
     0
 91
        4
 64
     7
 65
   257
 75
     1
175
     1
 42
1.0
 92
        8
 66
     7
 43
1.0
 76
     1
 77
     6
 78
     2
 67
     7
 79
     5
170
     0
171
     0
290
     0
174
     0
 93
       13
 44
0.0
173
     0
291
     1
 45
0.0
  0
VISUALSTYLE
  5
2C
102
{ACAD_REACTORS
330
2A
102
}
102
{ACAD_XDICTIONARY
360
104
102
}
330
2A
100
AcDbVisualStyle
  2
FlatWithEdges
 70
     1
 71
     2
 72
     1
 73
     1
 90
        2
 40
-0.6
 41
30.0
 62
     5
 63
     7
421
 16777215
 74
     1
 91
        4
 64
     7
 65
   257
 75
     1
175
     1
 42
1.0
 92
        0
 66
   257
 43
1.0
 76
     1
 77
     6
 78
     2
 67
     7
 79
     5
170
     0
171
     0
290
     0
174
     0
 93
       13
 44
0.0
173
     0
291
     1
 45
0.0
  0
VISUALSTYLE
  5
2D
102
{ACAD_REACTORS
330
2A
102
}
102
{ACAD_XDICTIONARY
360
106
102
}
330
2A
100
AcDbVisualStyle
  2
Gouraud
 70
     2
 71
     2
 72
     2
 73
     1
 90
        2
 40
-0.6
 41
30.0
 62
     5
 63
     7
421
 16777215
 74
     0
 91
        4
 64
     7
 65
   257
 75
     1
175
     1
 42
1.0
 92
        0
 66
     7
 43
1.0
 76
     1
 77
     6
 78
     2
 67
     7
 79
     5
170
     0
171
     0
290
     0
174
     0
 93
       13
 44
0.0
173
     0
291
     1
 45
0.0
  0
VISUALSTYLE
  5
2E
102
{ACAD_REACTORS
330
2A
102
}
102
{ACAD_XDICTIONARY
360
108
102
}
330
2A
100
AcDbVisualStyle
  2
GouraudWithEdges
 70
     3
 71
     2
 72
     2
 73
     1
 90
        2
 40
-0.6
 41
30.0
 62
     5
 63
     7
421
 16777215
 74
     1
 91
        4
 64
     7
 65
   257
 75
     1
175
     1
 42
1.0
 92
        0
 66
   257
 43
1.0
 76
     1
 77
     6
 78
     2
 67
     7
 79
     5
170
     0
171
     0
290
     0
174
     0
 93
       13
 44
0.0
173
     0
291
     1
 45
0.0
  0
VISUALSTYLE
  5
38
102
{ACAD_REACTORS
330
2A
102
}
102
{ACAD_XDICTIONARY
360
11C
102
}
330
2A
100
AcDbVisualStyle
  2
Linepattern
 70
    14
 71
     2
 72
     2
 73
     0
 90
        0
 40
-0.6
 41
-30.0
 62
     5
 63
     7
421
 16777215
 74
     1
 91
        4
 64
     7
 65
   257
 75
     7
175
     7
 42
1.0
 92
        8
 66
     7
 43
1.0
 76
     1
 77
     6
 78
     2
 67
     7
 79
     5
170
     0
171
     0
290
     0
174
     0
 93
        1
 44
0.0
173
     0
291
     1
 45
0.0
  0
VISUALSTYLE
  5
33
102
{ACAD_REACTORS
330
2A
102
}
102
{ACAD_XDICTIONARY
360
112
102
}
330
2A
100
AcDbVisualStyle
  2
Realistic
 70
     8
 71
     2
 72
     2
 73
     0
 90
        0
 40
-0.6
 41
-30.0
 62
     5
 63
     7
421
 16777215
 74
     1
 91
        0
 64
     7
 65
   257
 75
     1
175
     1
 42
1.0
 92
        8
 66
     8
424
  7895160
 43
1.0
 76
     1
 77
     6
 78
     2
 67
     7
 79
     5
170
     0
171
     0
290
     0
174
     0
 93
       13
 44
0.0
173
     0
291
     0
 45
0.0
  0
VISUALSTYLE
  5
37
102
{ACAD_REACTORS
330
2A
102
}
102
{ACAD_XDICTIONARY
360
11A
102
}
330
2A
100
AcDbVisualStyle
  2
Thicken
 70
    13
 71
     2
 72
     2
 73
     0
 90
        0
 40
-0.6
 41
-30.0
 62
     5
 63
     7
421
 16777215
 74
     1
 91
        4
 64
     7
 65
   257
 75
     1
175
     1
 42
1.0
 92
       12
 66
     7
 43
1.0
 76
     1
 77
     6
 78
     2
 67
     7
 79
     5
170
     0
171
     0
290
     0
174
     0
 93
        1
 44
0.0
173
     0
291
     1
 45
0.0
  0
DICTIONARY
  5
10A
330
2F
100
AcDbDictionary
280
     1
281
     1
  3
ACAD_XREC_ROUNDTRIP
360
10B
  0
DICTIONARY
  5
10E
330
31
100
AcDbDictionary
280
     1
281
     1
  3
ACAD_XREC_ROUNDTRIP
360
10F
  0
DICTIONARY
  5
10C
330
30
100
AcDbDictionary
280
     1
281
     1
  3
ACAD_XREC_ROUNDTRIP
360
10D
  0
DICTIONARY
  5
110
330
32
100
AcDbDictionary
280
     1
281
     1
  3
ACAD_XREC_ROUNDTRIP
360
111
  0
DICTIONARY
  5
118
330
36
100
AcDbDictionary
280
     1
281
     1
  3
ACAD_XREC_ROUNDTRIP
360
119
  0
DICTIONARY
  5
120
330
3A
100
AcDbDictionary
280
     1
281
     1
  3
ACAD_XREC_ROUNDTRIP
360
121
  0
DICTIONARY
  5
114
330
34
100
AcDbDictionary
280
     1
281
     1
  3
ACAD_XREC_ROUNDTRIP
360
115
  0
DICTIONARY
  5
116
330
35
100
AcDbDictionary
280
     1
281
     1
  3
ACAD_XREC_ROUNDTRIP
360
117
  0
DICTIONARY
  5
11E
330
39
100
AcDbDictionary
280
     1
281
     1
  3
ACAD_XREC_ROUNDTRIP
360
11F
  0
DICTIONARY
  5
102
330
2B
100
AcDbDictionary
280
     1
281
     1
  3
ACAD_XREC_ROUNDTRIP
360
103
  0
DICTIONARY
  5
104
330
2C
100
AcDbDictionary
280
     1
281
     1
  3
ACAD_XREC_ROUNDTRIP
360
105
  0
DICTIONARY
  5
106
330
2D
100
AcDbDictionary
280
     1
281
     1
  3
ACAD_XREC_ROUNDTRIP
360
107
  0
DICTIONARY
  5
108
330
2E
100
AcDbDictionary
280
     1
281
     1
  3
ACAD_XREC_ROUNDTRIP
360
109
  0
DICTIONARY
  5
11C
330
38
100
AcDbDictionary
280
     1
281
     1
  3
ACAD_XREC_ROUNDTRIP
360
11D
  0
DICTIONARY
  5
112
330
33
100
AcDbDictionary
280
     1
281
     1
  3
ACAD_XREC_ROUNDTRIP
360
113
  0
DICTIONARY
  5
11A
330
37
100
AcDbDictionary
280
     1
281
     1
  3
ACAD_XREC_ROUNDTRIP
360
11B
  0
XRECORD
  5
10B
102
{ACAD_REACTORS
330
10A
102
}
330
10A
100
AcDbXrecord
280
     1
102
RTVSPropertyOp0
 70
     1
102
RTVSPropertyOp1
 70
     1
102
RTVSPropertyOp2
 70
     1
102
RTVSPropertyOp3
 70
     1
102
RTVSPropertyOp4
 70
     1
102
RTVSPropertyOp5
 70
     1
102
RTVSPropertyOp6
 70
     1
102
RTVSPropertyOp7
 70
     1
102
RTVSPropertyOp8
 70
     1
102
RTVSPropertyOp9
 70
     1
102
RTVSPropertyOp10
 70
     1
102
RTVSPropertyOp11
 70
     1
102
RTVSPropertyOp12
 70
     1
102
RTVSPropertyOp13
 70
     1
102
RTVSPropertyOp14
 70
     1
102
RTVSPropertyOp15
 70
     1
102
RTVSPropertyOp16
 70
     1
102
RTVSPropertyOp17
 70
     1
102
RTVSPropertyOp18
 70
     1
102
RTVSPropertyOp19
 70
     1
102
RTVSPropertyOp20
 70
     1
102
RTVSPropertyOp21
 70
     1
102
RTVSPropertyOp22
 70
     1
102
RTVSPropertyOp23
 70
     1
102
RTVSPropertyOp24
 70
     1
102
RTVSPropertyOp25
 70
     1
102
RTVSPropertyOp26
 70
     1
102
RTVSPropertyOp27
 70
     1
  0
XRECORD
  5
10F
102
{ACAD_REACTORS
330
10E
102
}
330
10E
100
AcDbXrecord
280
     1
102
RTVSPropertyOp0
 70
     1
102
RTVSPropertyOp1
 70
     1
102
RTVSPropertyOp2
 70
     1
102
RTVSPropertyOp3
 70
     1
102
RTVSPropertyOp4
 70
     1
102
RTVSPropertyOp5
 70
     1
102
RTVSPropertyOp6
 70
     1
102
RTVSPropertyOp7
 70
     1
102
RTVSPropertyOp8
 70
     1
102
RTVSPropertyOp9
 70
     1
102
RTVSPropertyOp10
 70
     1
102
RTVSPropertyOp11
 70
     1
102
RTVSPropertyOp12
 70
     1
102
RTVSPropertyOp13
 70
     1
102
RTVSPropertyOp14
 70
     1
102
RTVSPropertyOp15
 70
     1
102
RTVSPropertyOp16
 70
     1
102
RTVSPropertyOp17
 70
     1
102
RTVSPropertyOp18
 70
     1
102
RTVSPropertyOp19
 70
     1
102
RTVSPropertyOp20
 70
     1
102
RTVSPropertyOp21
 70
     1
102
RTVSPropertyOp22
 70
     1
102
RTVSPropertyOp23
 70
     1
102
RTVSPropertyOp24
 70
     1
102
RTVSPropertyOp25
 70
     1
102
RTVSPropertyOp26
 70
     1
102
RTVSPropertyOp27
 70
     1
  0
XRECORD
  5
10D
102
{ACAD_REACTORS
330
10C
102
}
330
10C
100
AcDbXrecord
280
     1
102
RTVSPropertyOp0
 70
     1
102
RTVSPropertyOp1
 70
     1
102
RTVSPropertyOp2
 70
     1
102
RTVSPropertyOp3
 70
     1
102
RTVSPropertyOp4
 70
     1
102
RTVSPropertyOp5
 70
     1
102
RTVSPropertyOp6
 70
     1
102
RTVSPropertyOp7
 70
     1
102
RTVSPropertyOp8
 70
     1
102
RTVSPropertyOp9
 70
     1
102
RTVSPropertyOp10
 70
     1
102
RTVSPropertyOp11
 70
     1
102
RTVSPropertyOp12
 70
     1
102
RTVSPropertyOp13
 70
     1
102
RTVSPropertyOp14
 70
     1
102
RTVSPropertyOp15
 70
     1
102
RTVSPropertyOp16
 70
     1
102
RTVSPropertyOp17
 70
     1
102
RTVSPropertyOp18
 70
     1
102
RTVSPropertyOp19
 70
     1
102
RTVSPropertyOp20
 70
     1
102
RTVSPropertyOp21
 70
     1
102
RTVSPropertyOp22
 70
     1
102
RTVSPropertyOp23
 70
     1
102
RTVSPropertyOp24
 70
     1
102
RTVSPropertyOp25
 70
     1
102
RTVSPropertyOp26
 70
     1
102
RTVSPropertyOp27
 70
     1
  0
XRECORD
  5
111
102
{ACAD_REACTORS
330
110
102
}
330
110
100
AcDbXrecord
280
     1
102
RTVSPropertyOp0
 70
     1
102
RTVSPropertyOp1
 70
     1
102
RTVSPropertyOp2
 70
     1
102
RTVSPropertyOp3
 70
     1
102
RTVSPropertyOp4
 70
     1
102
RTVSPropertyOp5
 70
     1
102
RTVSPropertyOp6
 70
     1
102
RTVSPropertyOp7
 70
     1
102
RTVSPropertyOp8
 70
     1
102
RTVSPropertyOp9
 70
     1
102
RTVSPropertyOp10
 70
     1
102
RTVSPropertyOp11
 70
     1
102
RTVSPropertyOp12
 70
     1
102
RTVSPropertyOp13
 70
     1
102
RTVSPropertyOp14
 70
     1
102
RTVSPropertyOp15
 70
     1
102
RTVSPropertyOp16
 70
     1
102
RTVSPropertyOp17
 70
     1
102
RTVSPropertyOp18
 70
     1
102
RTVSPropertyOp19
 70
     1
102
RTVSPropertyOp20
 70
     1
102
RTVSPropertyOp21
 70
     1
102
RTVSPropertyOp22
 70
     1
102
RTVSPropertyOp23
 70
     1
102
RTVSPropertyOp24
 70
     1
102
RTVSPropertyOp25
 70
     1
102
RTVSPropertyOp26
 70
     1
102
RTVSPropertyOp27
 70
     1
  0
XRECORD
  5
119
102
{ACAD_REACTORS
330
118
102
}
330
118
100
AcDbXrecord
280
     1
102
RTVSPropertyOp0
 70
     1
102
RTVSPropertyOp1
 70
     1
102
RTVSPropertyOp2
 70
     1
102
RTVSPropertyOp3
 70
     1
102
RTVSPropertyOp4
 70
     1
102
RTVSPropertyOp5
 70
     1
102
RTVSPropertyOp6
 70
     1
102
RTVSPropertyOp7
 70
     1
102
RTVSPropertyOp8
 70
     1
102
RTVSPropertyOp9
 70
     1
102
RTVSPropertyOp10
 70
     1
102
RTVSPropertyOp11
 70
     1
102
RTVSPropertyOp12
 70
     1
102
RTVSPropertyOp13
 70
     1
102
RTVSPropertyOp14
 70
     1
102
RTVSPropertyOp15
 70
     1
102
RTVSPropertyOp16
 70
     1
102
RTVSPropertyOp17
 70
     1
102
RTVSPropertyOp18
 70
     1
102
RTVSPropertyOp19
 70
     1
102
RTVSPropertyOp20
 70
     1
102
RTVSPropertyOp21
 70
     1
102
RTVSPropertyOp22
 70
     1
102
RTVSPropertyOp23
 70
     1
102
RTVSPropertyOp24
 70
     1
102
RTVSPropertyOp25
 70
     1
102
RTVSPropertyOp26
 70
     1
102
RTVSPropertyOp27
 70
     1
  0
XRECORD
  5
121
102
{ACAD_REACTORS
330
120
102
}
330
120
100
AcDbXrecord
280
     1
102
RTVSPropertyOp0
 70
     1
102
RTVSPropertyOp1
 70
     1
102
RTVSPropertyOp2
 70
     1
102
RTVSPropertyOp3
 70
     1
102
RTVSPropertyOp4
 70
     1
102
RTVSPropertyOp5
 70
     1
102
RTVSPropertyOp6
 70
     1
102
RTVSPropertyOp7
 70
     1
102
RTVSPropertyOp8
 70
     1
102
RTVSPropertyOp9
 70
     1
102
RTVSPropertyOp10
 70
     1
102
RTVSPropertyOp11
 70
     1
102
RTVSPropertyOp12
 70
     1
102
RTVSPropertyOp13
 70
     1
102
RTVSPropertyOp14
 70
     1
102
RTVSPropertyOp15
 70
     1
102
RTVSPropertyOp16
 70
     1
102
RTVSPropertyOp17
 70
     1
102
RTVSPropertyOp18
 70
     1
102
RTVSPropertyOp19
 70
     1
102
RTVSPropertyOp20
 70
     1
102
RTVSPropertyOp21
 70
     1
102
RTVSPropertyOp22
 70
     1
102
RTVSPropertyOp23
 70
     1
102
RTVSPropertyOp24
 70
     1
102
RTVSPropertyOp25
 70
     1
102
RTVSPropertyOp26
 70
     1
102
RTVSPropertyOp27
 70
     1
  0
XRECORD
  5
115
102
{ACAD_REACTORS
330
114
102
}
330
114
100
AcDbXrecord
280
     1
102
RTVSPropertyOp0
 70
     1
102
RTVSPropertyOp1
 70
     1
102
RTVSPropertyOp2
 70
     1
102
RTVSPropertyOp3
 70
     1
102
RTVSPropertyOp4
 70
     1
102
RTVSPropertyOp5
 70
     1
102
RTVSPropertyOp6
 70
     1
102
RTVSPropertyOp7
 70
     1
102
RTVSPropertyOp8
 70
     1
102
RTVSPropertyOp9
 70
     1
102
RTVSPropertyOp10
 70
     1
102
RTVSPropertyOp11
 70
     1
102
RTVSPropertyOp12
 70
     1
102
RTVSPropertyOp13
 70
     1
102
RTVSPropertyOp14
 70
     1
102
RTVSPropertyOp15
 70
     1
102
RTVSPropertyOp16
 70
     1
102
RTVSPropertyOp17
 70
     1
102
RTVSPropertyOp18
 70
     1
102
RTVSPropertyOp19
 70
     1
102
RTVSPropertyOp20
 70
     1
102
RTVSPropertyOp21
 70
     1
102
RTVSPropertyOp22
 70
     1
102
RTVSPropertyOp23
 70
     1
102
RTVSPropertyOp24
 70
     1
102
RTVSPropertyOp25
 70
     1
102
RTVSPropertyOp26
 70
     1
102
RTVSPropertyOp27
 70
     1
  0
XRECORD
  5
117
102
{ACAD_REACTORS
330
116
102
}
330
116
100
AcDbXrecord
280
     1
102
RTVSPropertyOp0
 70
     1
102
RTVSPropertyOp1
 70
     1
102
RTVSPropertyOp2
 70
     1
102
RTVSPropertyOp3
 70
     1
102
RTVSPropertyOp4
 70
     1
102
RTVSPropertyOp5
 70
     1
102
RTVSPropertyOp6
 70
     1
102
RTVSPropertyOp7
 70
     1
102
RTVSPropertyOp8
 70
     1
102
RTVSPropertyOp9
 70
     1
102
RTVSPropertyOp10
 70
     1
102
RTVSPropertyOp11
 70
     1
102
RTVSPropertyOp12
 70
     1
102
RTVSPropertyOp13
 70
     1
102
RTVSPropertyOp14
 70
     1
102
RTVSPropertyOp15
 70
     1
102
RTVSPropertyOp16
 70
     1
102
RTVSPropertyOp17
 70
     1
102
RTVSPropertyOp18
 70
     1
102
RTVSPropertyOp19
 70
     1
102
RTVSPropertyOp20
 70
     1
102
RTVSPropertyOp21
 70
     1
102
RTVSPropertyOp22
 70
     1
102
RTVSPropertyOp23
 70
     1
102
RTVSPropertyOp24
 70
     1
102
RTVSPropertyOp25
 70
     1
102
RTVSPropertyOp26
 70
     1
102
RTVSPropertyOp27
 70
     1
  0
XRECORD
  5
11F
102
{ACAD_REACTORS
330
11E
102
}
330
11E
100
AcDbXrecord
280
     1
102
RTVSPropertyOp0
 70
     1
102
RTVSPropertyOp1
 70
     1
102
RTVSPropertyOp2
 70
     1
102
RTVSPropertyOp3
 70
     1
102
RTVSPropertyOp4
 70
     1
102
RTVSPropertyOp5
 70
     1
102
RTVSPropertyOp6
 70
     1
102
RTVSPropertyOp7
 70
     1
102
RTVSPropertyOp8
 70
     1
102
RTVSPropertyOp9
 70
     1
102
RTVSPropertyOp10
 70
     1
102
RTVSPropertyOp11
 70
     1
102
RTVSPropertyOp12
 70
     1
102
RTVSPropertyOp13
 70
     1
102
RTVSPropertyOp14
 70
     1
102
RTVSPropertyOp15
 70
     1
102
RTVSPropertyOp16
 70
     1
102
RTVSPropertyOp17
 70
     1
102
RTVSPropertyOp18
 70
     1
102
RTVSPropertyOp19
 70
     1
102
RTVSPropertyOp20
 70
     1
102
RTVSPropertyOp21
 70
     1
102
RTVSPropertyOp22
 70
     1
102
RTVSPropertyOp23
 70
     1
102
RTVSPropertyOp24
 70
     1
102
RTVSPropertyOp25
 70
     1
102
RTVSPropertyOp26
 70
     1
102
RTVSPropertyOp27
 70
     1
  0
XRECORD
  5
103
102
{ACAD_REACTORS
330
102
102
}
330
102
100
AcDbXrecord
280
     1
102
RTVSPropertyOp0
 70
     1
102
RTVSPropertyOp1
 70
     1
102
RTVSPropertyOp2
 70
     1
102
RTVSPropertyOp3
 70
     1
102
RTVSPropertyOp4
 70
     1
102
RTVSPropertyOp5
 70
     1
102
RTVSPropertyOp6
 70
     1
102
RTVSPropertyOp7
 70
     1
102
RTVSPropertyOp8
 70
     1
102
RTVSPropertyOp9
 70
     1
102
RTVSPropertyOp10
 70
     1
102
RTVSPropertyOp11
 70
     1
102
RTVSPropertyOp12
 70
     1
102
RTVSPropertyOp13
 70
     1
102
RTVSPropertyOp14
 70
     1
102
RTVSPropertyOp15
 70
     1
102
RTVSPropertyOp16
 70
     1
102
RTVSPropertyOp17
 70
     1
102
RTVSPropertyOp18
 70
     1
102
RTVSPropertyOp19
 70
     1
102
RTVSPropertyOp20
 70
     1
102
RTVSPropertyOp21
 70
     1
102
RTVSPropertyOp22
 70
     1
102
RTVSPropertyOp23
 70
     1
102
RTVSPropertyOp24
 70
     1
102
RTVSPropertyOp25
 70
     1
102
RTVSPropertyOp26
 70
     1
102
RTVSPropertyOp27
 70
     1
  0
XRECORD
  5
105
102
{ACAD_REACTORS
330
104
102
}
330
104
100
AcDbXrecord
280
     1
102
RTVSPropertyOp0
 70
     1
102
RTVSPropertyOp1
 70
     1
102
RTVSPropertyOp2
 70
     1
102
RTVSPropertyOp3
 70
     1
102
RTVSPropertyOp4
 70
     1
102
RTVSPropertyOp5
 70
     1
102
RTVSPropertyOp6
 70
     1
102
RTVSPropertyOp7
 70
     1
102
RTVSPropertyOp8
 70
     1
102
RTVSPropertyOp9
 70
     1
102
RTVSPropertyOp10
 70
     1
102
RTVSPropertyOp11
 70
     1
102
RTVSPropertyOp12
 70
     1
102
RTVSPropertyOp13
 70
     1
102
RTVSPropertyOp14
 70
     1
102
RTVSPropertyOp15
 70
     1
102
RTVSPropertyOp16
 70
     1
102
RTVSPropertyOp17
 70
     1
102
RTVSPropertyOp18
 70
     1
102
RTVSPropertyOp19
 70
     1
102
RTVSPropertyOp20
 70
     1
102
RTVSPropertyOp21
 70
     1
102
RTVSPropertyOp22
 70
     1
102
RTVSPropertyOp23
 70
     1
102
RTVSPropertyOp24
 70
     1
102
RTVSPropertyOp25
 70
     1
102
RTVSPropertyOp26
 70
     1
102
RTVSPropertyOp27
 70
     1
  0
XRECORD
  5
107
102
{ACAD_REACTORS
330
106
102
}
330
106
100
AcDbXrecord
280
     1
102
RTVSPropertyOp0
 70
     1
102
RTVSPropertyOp1
 70
     1
102
RTVSPropertyOp2
 70
     1
102
RTVSPropertyOp3
 70
     1
102
RTVSPropertyOp4
 70
     1
102
RTVSPropertyOp5
 70
     1
102
RTVSPropertyOp6
 70
     1
102
RTVSPropertyOp7
 70
     1
102
RTVSPropertyOp8
 70
     1
102
RTVSPropertyOp9
 70
     1
102
RTVSPropertyOp10
 70
     1
102
RTVSPropertyOp11
 70
     1
102
RTVSPropertyOp12
 70
     1
102
RTVSPropertyOp13
 70
     1
102
RTVSPropertyOp14
 70
     1
102
RTVSPropertyOp15
 70
     1
102
RTVSPropertyOp16
 70
     1
102
RTVSPropertyOp17
 70
     1
102
RTVSPropertyOp18
 70
     1
102
RTVSPropertyOp19
 70
     1
102
RTVSPropertyOp20
 70
     1
102
RTVSPropertyOp21
 70
     1
102
RTVSPropertyOp22
 70
     1
102
RTVSPropertyOp23
 70
     1
102
RTVSPropertyOp24
 70
     1
102
RTVSPropertyOp25
 70
     1
102
RTVSPropertyOp26
 70
     1
102
RTVSPropertyOp27
 70
     1
  0
XRECORD
  5
109
102
{ACAD_REACTORS
330
108
102
}
330
108
100
AcDbXrecord
280
     1
102
RTVSPropertyOp0
 70
     1
102
RTVSPropertyOp1
 70
     1
102
RTVSPropertyOp2
 70
     1
102
RTVSPropertyOp3
 70
     1
102
RTVSPropertyOp4
 70
     1
102
RTVSPropertyOp5
 70
     1
102
RTVSPropertyOp6
 70
     1
102
RTVSPropertyOp7
 70
     1
102
RTVSPropertyOp8
 70
     1
102
RTVSPropertyOp9
 70
     1
102
RTVSPropertyOp10
 70
     1
102
RTVSPropertyOp11
 70
     1
102
RTVSPropertyOp12
 70
     1
102
RTVSPropertyOp13
 70
     1
102
RTVSPropertyOp14
 70
     1
102
RTVSPropertyOp15
 70
     1
102
RTVSPropertyOp16
 70
     1
102
RTVSPropertyOp17
 70
     1
102
RTVSPropertyOp18
 70
     1
102
RTVSPropertyOp19
 70
     1
102
RTVSPropertyOp20
 70
     1
102
RTVSPropertyOp21
 70
     1
102
RTVSPropertyOp22
 70
     1
102
RTVSPropertyOp23
 70
     1
102
RTVSPropertyOp24
 70
     1
102
RTVSPropertyOp25
 70
     1
102
RTVSPropertyOp26
 70
     1
102
RTVSPropertyOp27
 70
     1
  0
XRECORD
  5
11D
102
{ACAD_REACTORS
330
11C
102
}
330
11C
100
AcDbXrecord
280
     1
102
RTVSPropertyOp0
 70
     1
102
RTVSPropertyOp1
 70
     1
102
RTVSPropertyOp2
 70
     1
102
RTVSPropertyOp3
 70
     1
102
RTVSPropertyOp4
 70
     1
102
RTVSPropertyOp5
 70
     1
102
RTVSPropertyOp6
 70
     1
102
RTVSPropertyOp7
 70
     1
102
RTVSPropertyOp8
 70
     1
102
RTVSPropertyOp9
 70
     1
102
RTVSPropertyOp10
 70
     1
102
RTVSPropertyOp11
 70
     1
102
RTVSPropertyOp12
 70
     1
102
RTVSPropertyOp13
 70
     1
102
RTVSPropertyOp14
 70
     1
102
RTVSPropertyOp15
 70
     1
102
RTVSPropertyOp16
 70
     1
102
RTVSPropertyOp17
 70
     1
102
RTVSPropertyOp18
 70
     1
102
RTVSPropertyOp19
 70
     1
102
RTVSPropertyOp20
 70
     1
102
RTVSPropertyOp21
 70
     1
102
RTVSPropertyOp22
 70
     1
102
RTVSPropertyOp23
 70
     1
102
RTVSPropertyOp24
 70
     1
102
RTVSPropertyOp25
 70
     1
102
RTVSPropertyOp26
 70
     1
102
RTVSPropertyOp27
 70
     1
  0
XRECORD
  5
113
102
{ACAD_REACTORS
330
112
102
}
330
112
100
AcDbXrecord
280
     1
102
RTVSPropertyOp0
 70
     1
102
RTVSPropertyOp1
 70
     1
102
RTVSPropertyOp2
 70
     1
102
RTVSPropertyOp3
 70
     1
102
RTVSPropertyOp4
 70
     1
102
RTVSPropertyOp5
 70
     1
102
RTVSPropertyOp6
 70
     1
102
RTVSPropertyOp7
 70
     1
102
RTVSPropertyOp8
 70
     1
102
RTVSPropertyOp9
 70
     1
102
RTVSPropertyOp10
 70
     1
102
RTVSPropertyOp11
 70
     1
102
RTVSPropertyOp12
 70
     1
102
RTVSPropertyOp13
 70
     1
102
RTVSPropertyOp14
 70
     1
102
RTVSPropertyOp15
 70
     1
102
RTVSPropertyOp16
 70
     1
102
RTVSPropertyOp17
 70
     1
102
RTVSPropertyOp18
 70
     1
102
RTVSPropertyOp19
 70
     1
102
RTVSPropertyOp20
 70
     1
102
RTVSPropertyOp21
 70
     1
102
RTVSPropertyOp22
 70
     1
102
RTVSPropertyOp23
 70
     1
102
RTVSPropertyOp24
 70
     1
102
RTVSPropertyOp25
 70
     1
102
RTVSPropertyOp26
 70
     1
102
RTVSPropertyOp27
 70
     1
  0
XRECORD
  5
11B
102
{ACAD_REACTORS
330
11A
102
}
330
11A
100
AcDbXrecord
280
     1
102
RTVSPropertyOp0
 70
     1
102
RTVSPropertyOp1
 70
     1
102
RTVSPropertyOp2
 70
     1
102
RTVSPropertyOp3
 70
     1
102
RTVSPropertyOp4
 70
     1
102
RTVSPropertyOp5
 70
     1
102
RTVSPropertyOp6
 70
     1
102
RTVSPropertyOp7
 70
     1
102
RTVSPropertyOp8
 70
     1
102
RTVSPropertyOp9
 70
     1
102
RTVSPropertyOp10
 70
     1
102
RTVSPropertyOp11
 70
     1
102
RTVSPropertyOp12
 70
     1
102
RTVSPropertyOp13
 70
     1
102
RTVSPropertyOp14
 70
     1
102
RTVSPropertyOp15
 70
     1
102
RTVSPropertyOp16
 70
     1
102
RTVSPropertyOp17
 70
     1
102
RTVSPropertyOp18
 70
     1
102
RTVSPropertyOp19
 70
     1
102
RTVSPropertyOp20
 70
     1
102
RTVSPropertyOp21
 70
     1
102
RTVSPropertyOp22
 70
     1
102
RTVSPropertyOp23
 70
     1
102
RTVSPropertyOp24
 70
     1
102
RTVSPropertyOp25
 70
     1
102
RTVSPropertyOp26
 70
     1
102
RTVSPropertyOp27
 70
     1
  0
ENDSEC
  0
EOF
