  0
SECTION
  2
HEADER
  9
$ACADVER
  1
AC1021
  9
$ACADMAINTVER
 70
    25
  9
$DWGCODEPAGE
  3
ANSI_1252
  9
$INSBASE
 10
0.0
 20
0.0
 30
0.0
  9
$EXTMIN
 10
-8.94475
 20
-1.47914
 30
0.0
  9
$EXTMAX
 10
9.60012
 20
14.11643
 30
0.0
  9
$LIMMIN
 10
0.0
 20
0.0
  9
$LIMMAX
 10
12.0
 20
9.0
  9
$ORTHOMODE
 70
     0
  9
$REGENMODE
 70
     1
  9
$FILLMODE
 70
     1
  9
$QTEXTMODE
 70
     0
  9
$MIRRTEXT
 70
     1
  9
$LTSCALE
 40
1.0
  9
$ATTMODE
 70
     1
  9
$TEXTSIZE
 40
0.2
  9
$TRACEWID
 40
0.05
  9
$TEXTSTYLE
  7
Standard
  9
$CLAYER
  8
0
  9
$CELTYPE
  6
ByLayer
  9
$CECOLOR
 62
   256
  9
$CELTSCALE
 40
1.0
  9
$DISPSILH
 70
     0
  9
$DIMSCALE
 40
1.0
  9
$DIMASZ
 40
0.18
  9
$DIMEXO
 40
0.0625
  9
$DIMDLI
 40
0.38
  9
$DIMRND
 40
0.0
  9
$DIMDLE
 40
0.0
  9
$DIMEXE
 40
0.18
  9
$DIMTP
 40
0.0
  9
$DIMTM
 40
0.0
  9
$DIMTXT
 40
0.18
  9
$DIMCEN
 40
0.09
  9
$DIMTSZ
 40
0.0
  9
$DIMTOL
 70
     0
  9
$DIMLIM
 70
     0
  9
$DIMTIH
 70
     1
  9
$DIMTOH
 70
     1
  9
$DIMSE1
 70
     0
  9
$DIMSE2
 70
     0
  9
$DIMTAD
 70
     0
  9
$DIMZIN
 70
     0
  9
$DIMBLK
  1

  9
$DIMASO
 70
     1
  9
$DIMSHO
 70
     1
  9
$DIMPOST
  1

  9
$DIMAPOST
  1

  9
$DIMALT
 70
     0
  9
$DIMALTD
 70
     2
  9
$DIMALTF
 40
25.4
  9
$DIMLFAC
 40
1.0
  9
$DIMTOFL
 70
     0
  9
$DIMTVP
 40
0.0
  9
$DIMTIX
 70
     0
  9
$DIMSOXD
 70
     0
  9
$DIMSAH
 70
     0
  9
$DIMBLK1
  1

  9
$DIMBLK2
  1

  9
$DIMSTYLE
  2
Standard
  9
$DIMCLRD
 70
     0
  9
$DIMCLRE
 70
     0
  9
$DIMCLRT
 70
     0
  9
$DIMTFAC
 40
1.0
  9
$DIMGAP
 40
0.09
  9
$DIMJUST
 70
     0
  9
$DIMSD1
 70
     0
  9
$DIMSD2
 70
     0
  9
$DIMTOLJ
 70
     1
  9
$DIMTZIN
 70
     0
  9
$DIMALTZ
 70
     0
  9
$DIMALTTZ
 70
     0
  9
$DIMUPT
 70
     0
  9
$DIMDEC
 70
     4
  9
$DIMTDEC
 70
     4
  9
$DIMALTU
 70
     2
  9
$DIMALTTD
 70
     2
  9
$DIMTXSTY
  7
Standard
  9
$DIMAUNIT
 70
     0
  9
$DIMADEC
 70
     0
  9
$DIMALTRND
 40
0.0
  9
$DIMAZIN
 70
     0
  9
$DIMDSEP
 70
    46
  9
$DIMATFIT
 70
     3
  9
$DIMFRAC
 70
     0
  9
$DIMLDRBLK
  1

  9
$DIMLUNIT
 70
     2
  9
$DIMLWD
 70
    -2
  9
$DIMLWE
 70
    -2
  9
$DIMTMOVE
 70
     0
  9
$DIMFXL
 40
1.0
  9
$DIMFXLON
 70
     0
  9
$DIMJOGANG
 40
0.7853981633974483
  9
$DIMTFILL
 70
     0
  9
$DIMTFILLCLR
 70
     0
  9
$DIMARCSYM
 70
     0
  9
$DIMLTYPE
  6

  9
$DIMLTEX1
  6

  9
$DIMLTEX2
  6

  9
$LUNITS
 70
     2
  9
$LUPREC
 70
     4
  9
$SKETCHINC
 40
0.1
  9
$FILLETRAD
 40
0.5
  9
$AUNITS
 70
     0
  9
$AUPREC
 70
     0
  9
$MENU
  1
.
  9
$ELEVATION
 40
0.0
  9
$PELEVATION
 40
0.0
  9
$THICKNESS
 40
0.0
  9
$LIMCHECK
 70
     0
  9
$CHAMFERA
 40
0.5
  9
$CHAMFERB
 40
0.5
  9
$CHAMFERC
 40
1.0
  9
$CHAMFERD
 40
0.0
  9
$SKPOLY
 70
     0
  9
$TDCREATE
 40
2456615.367198449
  9
$TDUCREATE
 40
2456615.325531783
  9
$TDUPDATE
 40
2456615.367198461
  9
$TDUUPDATE
 40
2456615.325531794
  9
$TDINDWG
 40
0.0000000116
  9
$TDUSRTIMER
 40
0.0000000116
  9
$USRTIMER
 70
     1
  9
$ANGBASE
 50
0.0
  9
$ANGDIR
 70
     0
  9
$PDMODE
 70
     0
  9
$PDSIZE
 40
0.0
  9
$PLINEWID
 40
0.0
  9
$SPLFRAME
 70
     0
  9
$SPLINETYPE
 70
     6
  9
$SPLINESEGS
 70
     8
  9
$HANDSEED
  5
1CE
  9
$SURFTAB1
 70
     6
  9
$SURFTAB2
 70
     6
  9
$SURFTYPE
 70
     6
  9
$SURFU
 70
     6
  9
$SURFV
 70
     6
  9
$UCSBASE
  2

  9
$UCSNAME
  2

  9
$UCSORG
 10
0.0
 20
0.0
 30
0.0
  9
$UCSXDIR
 10
1.0
 20
0.0
 30
0.0
  9
$UCSYDIR
 10
0.0
 20
1.0
 30
0.0
  9
$UCSORTHOREF
  2

  9
$UCSORTHOVIEW
 70
     0
  9
$UCSORGTOP
 10
0.0
 20
0.0
 30
0.0
  9
$UCSORGBOTTOM
 10
0.0
 20
0.0
 30
0.0
  9
$UCSORGLEFT
 10
0.0
 20
0.0
 30
0.0
  9
$UCSORGRIGHT
 10
0.0
 20
0.0
 30
0.0
  9
$UCSORGFRONT
 10
0.0
 20
0.0
 30
0.0
  9
$UCSORGBACK
 10
0.0
 20
0.0
 30
0.0
  9
$PUCSBASE
  2

  9
$PUCSNAME
  2

  9
$PUCSORG
 10
0.0
 20
0.0
 30
0.0
  9
$PUCSXDIR
 10
1.0
 20
0.0
 30
0.0
  9
$PUCSYDIR
 10
0.0
 20
1.0
 30
0.0
  9
$PUCSORTHOREF
  2

  9
$PUCSORTHOVIEW
 70
     0
  9
$PUCSORGTOP
 10
0.0
 20
0.0
 30
0.0
  9
$PUCSORGBOTTOM
 10
0.0
 20
0.0
 30
0.0
  9
$PUCSORGLEFT
 10
0.0
 20
0.0
 30
0.0
  9
$PUCSORGRIGHT
 10
0.0
 20
0.0
 30
0.0
  9
$PUCSORGFRONT
 10
0.0
 20
0.0
 30
0.0
  9
$PUCSORGBACK
 10
0.0
 20
0.0
 30
0.0
  9
$USERI1
 70
     0
  9
$USERI2
 70
     0
  9
$USERI3
 70
     0
  9
$USERI4
 70
     0
  9
$USERI5
 70
     0
  9
$USERR1
 40
0.0
  9
$USERR2
 40
0.0
  9
$USERR3
 40
0.0
  9
$USERR4
 40
0.0
  9
$USERR5
 40
0.0
  9
$WORLDVIEW
 70
     1
  9
$SHADEDGE
 70
     3
  9
$SHADEDIF
 70
    70
  9
$TILEMODE
 70
     1
  9
$MAXACTVP
 70
    64
  9
$PINSBASE
 10
0.0
 20
0.0
 30
0.0
  9
$PLIMCHECK
 70
     0
  9
$PEXTMIN
 10
1.000000000000000E+20
 20
1.000000000000000E+20
 30
1.000000000000000E+20
  9
$PEXTMAX
 10
-1.000000000000000E+20
 20
-1.000000000000000E+20
 30
-1.000000000000000E+20
  9
$PLIMMIN
 10
0.0
 20
0.0
  9
$PLIMMAX
 10
12.0
 20
9.0
  9
$UNITMODE
 70
     0
  9
$VISRETAIN
 70
     1
  9
$PLINEGEN
 70
     0
  9
$PSLTSCALE
 70
     1
  9
$TREEDEPTH
 70
  3020
  9
$CMLSTYLE
  2
Standard
  9
$CMLJUST
 70
     0
  9
$CMLSCALE
 40
1.0
  9
$PROXYGRAPHICS
 70
     1
  9
$MEASUREMENT
 70
     0
  9
$CELWEIGHT
370
    -1
  9
$ENDCAPS
280
     0
  9
$JOINSTYLE
280
     0
  9
$LWDISPLAY
290
     0
  9
$INSUNITS
 70
     5
  9
$HYPERLINKBASE
  1

  9
$STYLESHEET
  1

  9
$XEDIT
290
     1
  9
$CEPSNTYPE
380
     0
  9
$PSTYLEMODE
290
     1
  9
$FINGERPRINTGUID
  2
{F80FC46E-1658-4FF5-8D2D-19B8385640FD}
  9
$VERSIONGUID
  2
{FAEB1C32-E019-11D5-929B-00C0DF256EC4}
  9
$EXTNAMES
290
     1
  9
$PSVPSCALE
 40
0.0
  9
$OLESTARTUP
290
     0
  9
$SORTENTS
280
   127
  9
$INDEXCTL
280
     0
  9
$HIDETEXT
280
     1
  9
$XCLIPFRAME
290
     0
  9
$HALOGAP
280
     0
  9
$OBSCOLOR
 70
   257
  9
$OBSLTYPE
280
     0
  9
$INTERSECTIONDISPLAY
280
     0
  9
$INTERSECTIONCOLOR
 70
   257
  9
$DIMASSOC
280
     2
  9
$PROJECTNAME
  1

  9
$CAMERADISPLAY
290
     0
  9
$LENSLENGTH
 40
50.0
  9
$CAMERAHEIGHT
 40
0.0
  9
$STEPSPERSEC
 40
2.0
  9
$STEPSIZE
 40
6.0
  9
$3DDWFPREC
 40
2.0
  9
$PSOLWIDTH
 40
0.25
  9
$PSOLHEIGHT
 40
4.0
  9
$LOFTANG1
 40
1.570796326794897
  9
$LOFTANG2
 40
1.570796326794897
  9
$LOFTMAG1
 40
0.0
  9
$LOFTMAG2
 40
0.0
  9
$LOFTPARAM
 70
     7
  9
$LOFTNORMALS
280
     1
  9
$LATITUDE
 40
37.795
  9
$LONGITUDE
 40
-122.394
  9
$NORTHDIRECTION
 40
0.0
  9
$TIMEZONE
 70
 -8000
  9
$LIGHTGLYPHDISPLAY
280
     1
  9
$TILEMODELIGHTSYNCH
280
     1
  9
$SOLIDHIST
280
     1
  9
$SHOWHIST
280
     1
  9
$DWFFRAME
280
     2
  9
$DGNFRAME
280
     2
  9
$REALWORLDSCALE
290
     1
  9
$INTERFERECOLOR
 62
   256
  9
$CSHADOW
280
     0
  9
$SHADOWPLANELOCATION
 40
0.0
  0
ENDSEC
  0
SECTION
  2
CLASSES
  0
CLASS
  1
ACDBDICTIONARYWDFLT
  2
AcDbDictionaryWithDefault
  3
ObjectDBX Classes
 90
        0
 91
        4
280
     0
281
     0
  0
CLASS
  1
VISUALSTYLE
  2
AcDbVisualStyle
  3
ObjectDBX Classes
 90
     4095
 91
        4
280
     0
281
     0
  0
CLASS
  1
MATERIAL
  2
AcDbMaterial
  3
ObjectDBX Classes
 90
     1153
 91
        4
280
     0
281
     0
  0
ENDSEC
  0
SECTION
  2
TABLES
  0
TABLE
  2
VPORT
  5
8
330
0
100
AcDbSymbolTable
 70
     1
  0
VPORT
  5
29
330
8
100
AcDbSymbolTableRecord
100
AcDbViewportTableRecord
  2
*Active
 70
     0
 10
0.0
 20
0.0
 11
1.0
 21
1.0
 12
10.42990654205607
 22
4.5
 13
0.0
 23
0.0
 14
0.5
 24
0.5
 15
0.5
 25
0.5
 16
0.0
 26
0.0
 36
1.0
 17
0.0
 27
0.0
 37
0.0
 40
9.0
 41
1.972972972850329
 42
50.0
 43
0.0
 44
0.0
 50
0.0
 51
0.0
 71
     0
 72
   100
 73
     1
 74
     3
 75
     0
 76
     0
 77
     0
 78
     0
281
     0
 65
     1
110
0.0
120
0.0
130
0.0
111
1.0
121
0.0
131
0.0
112
0.0
122
1.0
132
0.0
 79
     0
146
0.0
 60
     3
 61
     5
292
     1
282
     1
141
0.0
142
0.0
 63
   250
  0
ENDTAB
  0
TABLE
  2
LTYPE
  5
5
330
0
100
AcDbSymbolTable
 70
     1
  0
LTYPE
  5
14
330
5
100
AcDbSymbolTableRecord
100
AcDbLinetypeTableRecord
  2
ByBlock
 70
     0
  3

 72
    65
 73
     0
 40
0.0
  0
LTYPE
  5
15
330
5
100
AcDbSymbolTableRecord
100
AcDbLinetypeTableRecord
  2
ByLayer
 70
     0
  3

 72
    65
 73
     0
 40
0.0
  0
LTYPE
  5
16
330
5
100
AcDbSymbolTableRecord
100
AcDbLinetypeTableRecord
  2
Continuous
 70
     0
  3
Solid line
 72
    65
 73
     0
 40
0.0
  0
ENDTAB
  0
TABLE
  2
LAYER
  5
2
330
0
100
AcDbSymbolTable
 70
     1
  0
LAYER
  5
10
330
2
100
AcDbSymbolTableRecord
100
AcDbLayerTableRecord
  2
0
 70
     0
 62
     7
  6
Continuous
370
    -3
390
F
347
3E
  0
ENDTAB
  0
TABLE
  2
STYLE
  5
3
330
0
100
AcDbSymbolTable
 70
     1
  0
STYLE
  5
11
330
3
100
AcDbSymbolTableRecord
100
AcDbTextStyleTableRecord
  2
Standard
 70
     0
 40
0.0
 41
1.0
 50
0.0
 71
     0
 42
0.2
  3
txt
  4

  0
ENDTAB
  0
TABLE
  2
VIEW
  5
6
330
0
100
AcDbSymbolTable
 70
     0
  0
ENDTAB
  0
TABLE
  2
UCS
  5
7
330
0
100
AcDbSymbolTable
 70
     0
  0
ENDTAB
  0
TABLE
  2
APPID
  5
9
330
0
100
AcDbSymbolTable
 70
     2
  0
APPID
  5
12
330
9
100
AcDbSymbolTableRecord
100
AcDbRegAppTableRecord
  2
ACAD
 70
     0
  0
APPID
  5
3F
330
9
100
AcDbSymbolTableRecord
100
AcDbRegAppTableRecord
  2
ODA
 70
     0
  0
ENDTAB
  0
TABLE
  2
DIMSTYLE
  5
A
330
0
100
AcDbSymbolTable
 70
     1
100
AcDbDimStyleTable
  0
DIMSTYLE
105
27
330
A
100
AcDbSymbolTableRecord
100
AcDbDimStyleTableRecord
  2
Standard
 70
     0
178
     0
340
11
  0
ENDTAB
  0
TABLE
  2
BLOCK_RECORD
  5
1
330
0
100
AcDbSymbolTable
 70
     1
  0
BLOCK_RECORD
  5
1F
330
1
100
AcDbSymbolTableRecord
100
AcDbBlockTableRecord
  2
*Model_Space
340
22
 70
     0
280
     1
281
     0
  0
BLOCK_RECORD
  5
1B
330
1
100
AcDbSymbolTableRecord
100
AcDbBlockTableRecord
  2
*Paper_Space
340
1E
 70
     0
280
     1
281
     0
  0
BLOCK_RECORD
  5
23
330
1
100
AcDbSymbolTableRecord
100
AcDbBlockTableRecord
  2
*Paper_Space0
340
26
 70
     0
280
     1
281
     0
  0
ENDTAB
  0
ENDSEC
  0
SECTION
  2
BLOCKS
  0
BLOCK
  5
20
330
1F
100
AcDbEntity
  8
0
100
AcDbBlockBegin
  2
*Model_Space
 70
     0
 10
0.0
 20
0.0
 30
0.0
  3
*Model_Space
  1

  0
ENDBLK
  5
21
330
1F
100
AcDbEntity
  8
0
100
AcDbBlockEnd
  0
BLOCK
  5
1C
330
1B
100
AcDbEntity
 67
     1
  8
0
100
AcDbBlockBegin
  2
*Paper_Space
 70
     0
 10
0.0
 20
0.0
 30
0.0
  3
*Paper_Space
  1

  0
ENDBLK
  5
1D
330
1B
100
AcDbEntity
 67
     1
  8
0
100
AcDbBlockEnd
  0
BLOCK
  5
24
330
23
100
AcDbEntity
  8
0
100
AcDbBlockBegin
  2
*Paper_Space0
 70
     0
 10
0.0
 20
0.0
 30
0.0
  3
*Paper_Space0
  1

  0
ENDBLK
  5
25
330
23
100
AcDbEntity
  8
0
100
AcDbBlockEnd
  0
ENDSEC
  0
SECTION
  2
ENTITIES
  0
SPLINE
  5
40
330
1F
100
AcDbEntity
  8
0
370
    15
100
AcDbSpline
210
0.0
220
0.0
230
1.0
 70
    24
 71
     3
 72
     8
 73
     4
 74
     0
 42
0.0000000001
 43
0.0000000001
 40
0.0
 40
0.0
 40
0.0
 40
0.0
 40
1.0
 40
1.0
 40
1.0
 40
1.0
 10
-7.87793
 20
11.38432
 30
0.0
 10
-7.87793
 20
11.38432
 30
0.0
 10
-7.87793
 20
10.69682
 30
0.0
 10
-7.87793
 20
10.69682
 30
0.0
  0
SPLINE
  5
41
330
1F
100
AcDbEntity
  8
0
370
    15
100
AcDbSpline
210
0.0
220
0.0
230
1.0
 70
    24
 71
     3
 72
     8
 73
     4
 74
     0
 42
0.0000000001
 43
0.0000000001
 40
0.0
 40
0.0
 40
0.0
 40
0.0
 40
1.0
 40
1.0
 40
1.0
 40
1.0
 10
-6.22793
 20
10.69682
 30
0.0
 10
-6.22793
 20
10.69682
 30
0.0
 10
-6.22793
 20
11.38432
 30
0.0
 10
-6.22793
 20
11.38432
 30
0.0
  0
SPLINE
  5
42
330
1F
100
AcDbEntity
  8
0
370
    15
100
AcDbSpline
210
0.0
220
0.0
230
1.0
 70
     8
 71
     3
 72
    12
 73
     8
 74
     0
 42
0.0000000001
 43
0.0000000001
 40
0.0
 40
0.0
 40
0.0
 40
0.0
 40
0.3333333333333333
 40
0.3333333333333333
 40
0.3333333333333333
 40
0.3333333333333333
 40
1.0
 40
1.0
 40
1.0
 40
1.0
 10
-7.86543
 20
11.39682
 30
0.0
 10
-7.86875
 20
11.39682
 30
0.0
 10
-7.87193
 20
11.3955
 30
0.0
 10
-7.87427
 20
11.39315
 30
0.0
 10
-7.87427
 20
11.39315
 30
0.0
 10
-7.87662
 20
11.39081
 30
0.0
 10
-7.87793
 20
11.38763
 30
0.0
 10
-7.87793
 20
11.38432
 30
0.0
  0
SPLINE
  5
43
330
1F
100
AcDbEntity
  8
0
370
    15
100
AcDbSpline
210
0.0
220
0.0
230
1.0
 70
     8
 71
     3
 72
    12
 73
     8
 74
     0
 42
0.0000000001
 43
0.0000000001
 40
0.0
 40
0.0
 40
0.0
 40
0.0
 40
0.3333333333333333
 40
0.3333333333333333
 40
0.3333333333333333
 40
0.3333333333333333
 40
1.0
 40
1.0
 40
1.0
 40
1.0
 10
-6.22793
 20
11.38432
 30
0.0
 10
-6.22793
 20
11.38763
 30
0.0
 10
-6.22925
 20
11.39081
 30
0.0
 10
-6.23159
 20
11.39315
 30
0.0
 10
-6.23159
 20
11.39315
 30
0.0
 10
-6.23394
 20
11.3955
 30
0.0
 10
-6.23712
 20
11.39682
 30
0.0
 10
-6.24043
 20
11.39682
 30
0.0
  0
SPLINE
  5
44
330
1F
100
AcDbEntity
  8
0
370
    15
100
AcDbSpline
210
0.0
220
0.0
230
1.0
 70
     8
 71
     3
 72
     8
 73
     4
 74
     0
 42
0.0000000001
 43
0.0000000001
 40
0.0
 40
0.0
 40
0.0
 40
0.0
 40
1.0
 40
1.0
 40
1.0
 40
1.0
 10
-7.60293
 20
11.39682
 30
0.0
 10
-7.59603
 20
11.39682
 30
0.0
 10
-7.59043
 20
11.40241
 30
0.0
 10
-7.59043
 20
11.40932
 30
0.0
  0
SPLINE
  5
45
330
1F
100
AcDbEntity
  8
0
370
    15
100
AcDbSpline
210
0.0
220
0.0
230
1.0
 70
     8
 71
     3
 72
    12
 73
     8
 74
     0
 42
0.0000000001
 43
0.0000000001
 40
0.0
 40
0.0
 40
0.0
 40
0.0
 40
0.3333333333333333
 40
0.3333333333333333
 40
0.3333333333333333
 40
0.3333333333333333
 40
1.0
 40
1.0
 40
1.0
 40
1.0
 10
-6.51543
 20
11.40932
 30
0.0
 10
-6.51543
 20
11.406
 30
0.0
 10
-6.51412
 20
11.40282
 30
0.0
 10
-6.51177
 20
11.40048
 30
0.0
 10
-6.51177
 20
11.40048
 30
0.0
 10
-6.50943
 20
11.39813
 30
0.0
 10
-6.50625
 20
11.39682
 30
0.0
 10
-6.50293
 20
11.39682
 30
0.0
  0
SPLINE
  5
46
330
1F
100
AcDbEntity
  8
0
370
    15
100
AcDbSpline
210
0.0
220
0.0
230
1.0
 70
    24
 71
     3
 72
     8
 73
     4
 74
     0
 42
0.0000000001
 43
0.0000000001
 40
0.0
 40
0.0
 40
0.0
 40
0.0
 40
1.0
 40
1.0
 40
1.0
 40
1.0
 10
-7.59043
 20
11.97182
 30
0.0
 10
-7.59043
 20
11.97182
 30
0.0
 10
-7.59043
 20
11.40932
 30
0.0
 10
-7.59043
 20
11.40932
 30
0.0
  0
SPLINE
  5
47
330
1F
100
AcDbEntity
  8
0
370
    15
100
AcDbSpline
210
0.0
220
0.0
230
1.0
 70
    24
 71
     3
 72
     8
 73
     4
 74
     0
 42
0.0000000001
 43
0.0000000001
 40
0.0
 40
0.0
 40
0.0
 40
0.0
 40
1.0
 40
1.0
 40
1.0
 40
1.0
 10
-6.51543
 20
11.40932
 30
0.0
 10
-6.51543
 20
11.40932
 30
0.0
 10
-6.51543
 20
11.97182
 30
0.0
 10
-6.51543
 20
11.97182
 30
0.0
  0
SPLINE
  5
48
330
1F
100
AcDbEntity
  8
0
370
    15
100
AcDbSpline
210
0.0
220
0.0
230
1.0
 70
    24
 71
     3
 72
     8
 73
     4
 74
     0
 42
0.0000000001
 43
0.0000000001
 40
0.0
 40
0.0
 40
0.0
 40
0.0
 40
1.0
 40
1.0
 40
1.0
 40
1.0
 10
-7.67793
 20
13.22182
 30
0.0
 10
-7.67793
 20
13.22182
 30
0.0
 10
-7.67793
 20
11.97182
 30
0.0
 10
-7.67793
 20
11.97182
 30
0.0
  0
SPLINE
  5
49
330
1F
100
AcDbEntity
  8
0
370
    15
100
AcDbSpline
210
0.0
220
0.0
230
1.0
 70
    24
 71
     3
 72
     8
 73
     4
 74
     0
 42
0.0000000001
 43
0.0000000001
 40
0.0
 40
0.0
 40
0.0
 40
0.0
 40
1.0
 40
1.0
 40
1.0
 40
1.0
 10
-6.42793
 20
11.97182
 30
0.0
 10
-6.42793
 20
11.97182
 30
0.0
 10
-6.42793
 20
13.22182
 30
0.0
 10
-6.42793
 20
13.22182
 30
0.0
  0
SPLINE
  5
4A
330
1F
100
AcDbEntity
  8
0
370
    15
100
AcDbSpline
210
0.0
220
0.0
230
1.0
 70
    24
 71
     3
 72
     8
 73
     4
 74
     0
 42
0.0000000001
 43
0.0000000001
 40
0.0
 40
0.0
 40
0.0
 40
0.0
 40
1.0
 40
1.0
 40
1.0
 40
1.0
 10
-5.39043
 20
10.42182
 30
0.0
 10
-5.39043
 20
10.42182
 30
0.0
 10
-5.39043
 20
10.47182
 30
0.0
 10
-5.39043
 20
10.47182
 30
0.0
  0
SPLINE
  5
4B
330
1F
100
AcDbEntity
  8
0
370
    15
100
AcDbSpline
210
0.0
220
0.0
230
1.0
 70
    24
 71
     3
 72
     8
 73
     4
 74
     0
 42
0.0000000001
 43
0.0000000001
 40
0.0
 40
0.0
 40
0.0
 40
0.0
 40
1.0
 40
1.0
 40
1.0
 40
1.0
 10
-8.71543
 20
10.47182
 30
0.0
 10
-8.71543
 20
10.47182
 30
0.0
 10
-8.71543
 20
10.42182
 30
0.0
 10
-8.71543
 20
10.42182
 30
0.0
  0
SPLINE
  5
4C
330
1F
100
AcDbEntity
  8
0
370
    15
100
AcDbSpline
210
0.0
220
0.0
230
1.0
 70
     8
 71
     3
 72
     8
 73
     4
 74
     0
 42
0.0000000001
 43
0.0000000001
 40
0.0
 40
0.0
 40
0.0
 40
0.0
 40
1.0
 40
1.0
 40
1.0
 40
1.0
 10
-7.90293
 20
10.65423
 30
0.0
 10
-8.17782
 20
10.61314
 30
0.0
 10
-8.44936
 20
10.55218
 30
0.0
 10
-8.71543
 20
10.47182
 30
0.0
  0
SPLINE
  5
4D
330
1F
100
AcDbEntity
  8
0
370
    15
100
AcDbSpline
210
0.0
220
0.0
230
1.0
 70
     8
 71
     3
 72
     8
 73
     4
 74
     0
 42
0.0000000001
 43
0.0000000001
 40
0.0
 40
0.0
 40
0.0
 40
0.0
 40
1.0
 40
1.0
 40
1.0
 40
1.0
 10
-5.39043
 20
10.47182
 30
0.0
 10
-5.6565
 20
10.55218
 30
0.0
 10
-5.92805
 20
10.61314
 30
0.0
 10
-6.20293
 20
10.65423
 30
0.0
  0
SPLINE
  5
4E
330
1F
100
AcDbEntity
  8
0
370
    15
100
AcDbSpline
210
0.0
220
0.0
230
1.0
 70
     8
 71
     3
 72
    12
 73
     8
 74
     0
 42
0.0000000001
 43
0.0000000001
 40
0.0
 40
0.0
 40
0.0
 40
0.0
 40
0.3333333333333333
 40
0.3333333333333333
 40
0.3333333333333333
 40
0.3333333333333333
 40
1.0
 40
1.0
 40
1.0
 40
1.0
 10
-6.20293
 20
10.67182
 30
0.0
 10
-6.20293
 20
10.67845
 30
0.0
 10
-6.20557
 20
10.6848
 30
0.0
 10
-6.21026
 20
10.68949
 30
0.0
 10
-6.21026
 20
10.68949
 30
0.0
 10
-6.21494
 20
10.69418
 30
0.0
 10
-6.2213
 20
10.69682
 30
0.0
 10
-6.22793
 20
10.69682
 30
0.0
  0
SPLINE
  5
4F
330
1F
100
AcDbEntity
  8
0
370
    15
100
AcDbSpline
210
0.0
220
0.0
230
1.0
 70
     8
 71
     3
 72
    12
 73
     8
 74
     0
 42
0.0000000001
 43
0.0000000001
 40
0.0
 40
0.0
 40
0.0
 40
0.0
 40
0.3333333333333333
 40
0.3333333333333333
 40
0.3333333333333333
 40
0.3333333333333333
 40
1.0
 40
1.0
 40
1.0
 40
1.0
 10
-7.87793
 20
10.69682
 30
0.0
 10
-7.88456
 20
10.69682
 30
0.0
 10
-7.89092
 20
10.69418
 30
0.0
 10
-7.89561
 20
10.68949
 30
0.0
 10
-7.89561
 20
10.68949
 30
0.0
 10
-7.9003
 20
10.6848
 30
0.0
 10
-7.90293
 20
10.67845
 30
0.0
 10
-7.90293
 20
10.67182
 30
0.0
  0
SPLINE
  5
50
330
1F
100
AcDbEntity
  8
0
370
    15
100
AcDbSpline
210
0.0
220
0.0
230
1.0
 70
    24
 71
     3
 72
     8
 73
     4
 74
     0
 42
0.0000000001
 43
0.0000000001
 40
0.0
 40
0.0
 40
0.0
 40
0.0
 40
1.0
 40
1.0
 40
1.0
 40
1.0
 10
-6.20293
 20
10.65423
 30
0.0
 10
-6.20293
 20
10.65423
 30
0.0
 10
-6.20293
 20
10.67182
 30
0.0
 10
-6.20293
 20
10.67182
 30
0.0
  0
SPLINE
  5
51
330
1F
100
AcDbEntity
  8
0
370
    15
100
AcDbSpline
210
0.0
220
0.0
230
1.0
 70
    24
 71
     3
 72
     8
 73
     4
 74
     0
 42
0.0000000001
 43
0.0000000001
 40
0.0
 40
0.0
 40
0.0
 40
0.0
 40
1.0
 40
1.0
 40
1.0
 40
1.0
 10
-7.90293
 20
10.67182
 30
0.0
 10
-7.90293
 20
10.67182
 30
0.0
 10
-7.90293
 20
10.65423
 30
0.0
 10
-7.90293
 20
10.65423
 30
0.0
  0
SPLINE
  5
52
330
1F
100
AcDbEntity
  8
0
370
    15
100
AcDbSpline
210
0.0
220
0.0
230
1.0
 70
     8
 71
     3
 72
    12
 73
     8
 74
     0
 42
0.0000000001
 43
0.0000000001
 40
0.0
 40
0.0
 40
0.0
 40
0.0
 40
0.3333333333333333
 40
0.3333333333333333
 40
0.3333333333333333
 40
0.3333333333333333
 40
1.0
 40
1.0
 40
1.0
 40
1.0
 10
-5.35293
 20
10.39682
 30
0.0
 10
-5.35293
 20
10.40345
 30
0.0
 10
-5.35557
 20
10.4098
 30
0.0
 10
-5.36026
 20
10.41449
 30
0.0
 10
-5.36026
 20
10.41449
 30
0.0
 10
-5.36494
 20
10.41918
 30
0.0
 10
-5.3713
 20
10.42182
 30
0.0
 10
-5.37793
 20
10.42182
 30
0.0
  0
SPLINE
  5
53
330
1F
100
AcDbEntity
  8
0
370
    15
100
AcDbSpline
210
0.0
220
0.0
230
1.0
 70
     8
 71
     3
 72
    12
 73
     8
 74
     0
 42
0.0000000001
 43
0.0000000001
 40
0.0
 40
0.0
 40
0.0
 40
0.0
 40
0.3333333333333333
 40
0.3333333333333333
 40
0.3333333333333333
 40
0.3333333333333333
 40
1.0
 40
1.0
 40
1.0
 40
1.0
 10
-8.72793
 20
10.42182
 30
0.0
 10
-8.73456
 20
10.42182
 30
0.0
 10
-8.74092
 20
10.41918
 30
0.0
 10
-8.74561
 20
10.41449
 30
0.0
 10
-8.74561
 20
10.41449
 30
0.0
 10
-8.7503
 20
10.4098
 30
0.0
 10
-8.75293
 20
10.40345
 30
0.0
 10
-8.75293
 20
10.39682
 30
0.0
  0
SPLINE
  5
54
330
1F
100
AcDbEntity
  8
0
370
    15
100
AcDbSpline
210
0.0
220
0.0
230
1.0
 70
     8
 71
     3
 72
     8
 73
     4
 74
     0
 42
0.0000000001
 43
0.0000000001
 40
0.0
 40
0.0
 40
0.0
 40
0.0
 40
1.0
 40
1.0
 40
1.0
 40
1.0
 10
-8.75293
 20
9.01936
 30
0.0
 10
-8.75293
 20
8.94883
 30
0.0
 10
-8.72808
 20
8.88055
 30
0.0
 10
-8.68275
 20
8.82652
 30
0.0
  0
SPLINE
  5
55
330
1F
100
AcDbEntity
  8
0
370
    15
100
AcDbSpline
210
0.0
220
0.0
230
1.0
 70
     8
 71
     3
 72
     8
 73
     4
 74
     0
 42
0.0000000001
 43
0.0000000001
 40
0.0
 40
0.0
 40
0.0
 40
0.0
 40
1.0
 40
1.0
 40
1.0
 40
1.0
 10
-5.42312
 20
8.82652
 30
0.0
 10
-5.37778
 20
8.88055
 30
0.0
 10
-5.35293
 20
8.94883
 30
0.0
 10
-5.35293
 20
9.01936
 30
0.0
  0
SPLINE
  5
56
330
1F
100
AcDbEntity
  8
0
370
    15
100
AcDbSpline
210
0.0
220
0.0
230
1.0
 70
    24
 71
     3
 72
     8
 73
     4
 74
     0
 42
0.0000000001
 43
0.0000000001
 40
0.0
 40
0.0
 40
0.0
 40
0.0
 40
1.0
 40
1.0
 40
1.0
 40
1.0
 10
-5.35293
 20
9.01936
 30
0.0
 10
-5.35293
 20
9.01936
 30
0.0
 10
-5.35293
 20
10.39682
 30
0.0
 10
-5.35293
 20
10.39682
 30
0.0
  0
SPLINE
  5
57
330
1F
100
AcDbEntity
  8
0
370
    15
100
AcDbSpline
210
0.0
220
0.0
230
1.0
 70
    24
 71
     3
 72
     8
 73
     4
 74
     0
 42
0.0000000001
 43
0.0000000001
 40
0.0
 40
0.0
 40
0.0
 40
0.0
 40
1.0
 40
1.0
 40
1.0
 40
1.0
 10
-8.75293
 20
10.39682
 30
0.0
 10
-8.75293
 20
10.39682
 30
0.0
 10
-8.75293
 20
9.01936
 30
0.0
 10
-8.75293
 20
9.01936
 30
0.0
  0
SPLINE
  5
58
330
1F
100
AcDbEntity
  8
0
370
    15
100
AcDbSpline
210
0.0
220
0.0
230
1.0
 70
     8
 71
     3
 72
    12
 73
     8
 74
     0
 42
0.0000000001
 43
0.0000000001
 40
0.0
 40
0.0
 40
0.0
 40
0.0
 40
0.3333333333333333
 40
0.3333333333333333
 40
0.3333333333333333
 40
0.3333333333333333
 40
1.0
 40
1.0
 40
1.0
 40
1.0
 10
-8.55293
 20
5.82182
 30
0.0
 10
-8.55293
 20
5.78203
 30
0.0
 10
-8.53713
 20
5.74388
 30
0.0
 10
-8.509
 20
5.71575
 30
0.0
 10
-8.509
 20
5.71575
 30
0.0
 10
-8.48087
 20
5.68762
 30
0.0
 10
-8.44272
 20
5.67182
 30
0.0
 10
-8.40293
 20
5.67182
 30
0.0
  0
SPLINE
  5
59
330
1F
100
AcDbEntity
  8
0
370
    15
100
AcDbSpline
210
0.0
220
0.0
230
1.0
 70
     8
 71
     3
 72
     8
 73
     4
 74
     0
 42
0.0000000001
 43
0.0000000001
 40
0.0
 40
0.0
 40
0.0
 40
0.0
 40
1.0
 40
1.0
 40
1.0
 40
1.0
 10
-5.70293
 20
5.67182
 30
0.0
 10
-5.62009
 20
5.67182
 30
0.0
 10
-5.55293
 20
5.73897
 30
0.0
 10
-5.55293
 20
5.82181
 30
0.0
  0
SPLINE
  5
5A
330
1F
100
AcDbEntity
  8
0
370
    15
100
AcDbSpline
210
0.0
220
0.0
230
1.0
 70
    24
 71
     3
 72
     8
 73
     4
 74
     0
 42
0.0000000001
 43
0.0000000001
 40
0.0
 40
0.0
 40
0.0
 40
0.0
 40
1.0
 40
1.0
 40
1.0
 40
1.0
 10
-5.55293
 20
5.82182
 30
0.0
 10
-5.55293
 20
5.82182
 30
0.0
 10
-5.55293
 20
8.27652
 30
0.0
 10
-5.55293
 20
8.27652
 30
0.0
  0
SPLINE
  5
5B
330
1F
100
AcDbEntity
  8
0
370
    15
100
AcDbSpline
210
0.0
220
0.0
230
1.0
 70
    24
 71
     3
 72
     8
 73
     4
 74
     0
 42
0.0000000001
 43
0.0000000001
 40
0.0
 40
0.0
 40
0.0
 40
0.0
 40
1.0
 40
1.0
 40
1.0
 40
1.0
 10
-8.55293
 20
8.27652
 30
0.0
 10
-8.55293
 20
8.27652
 30
0.0
 10
-8.55293
 20
5.82182
 30
0.0
 10
-8.55293
 20
5.82182
 30
0.0
  0
SPLINE
  5
5C
330
1F
100
AcDbEntity
  8
0
370
    15
100
AcDbSpline
210
0.0
220
0.0
230
1.0
 70
    24
 71
     3
 72
     8
 73
     4
 74
     0
 42
0.0000000001
 43
0.0000000001
 40
0.0
 40
0.0
 40
0.0
 40
0.0
 40
1.0
 40
1.0
 40
1.0
 40
1.0
 10
-8.74313
 20
8.42652
 30
0.0
 10
-8.74313
 20
8.42652
 30
0.0
 10
-8.70293
 20
8.27652
 30
0.0
 10
-8.70293
 20
8.27652
 30
0.0
  0
SPLINE
  5
5D
330
1F
100
AcDbEntity
  8
0
370
    15
100
AcDbSpline
210
0.0
220
0.0
230
1.0
 70
    24
 71
     3
 72
     8
 73
     4
 74
     0
 42
0.0000000001
 43
0.0000000001
 40
0.0
 40
0.0
 40
0.0
 40
0.0
 40
1.0
 40
1.0
 40
1.0
 40
1.0
 10
-5.40293
 20
8.27652
 30
0.0
 10
-5.40293
 20
8.27652
 30
0.0
 10
-5.36274
 20
8.42652
 30
0.0
 10
-5.36274
 20
8.42652
 30
0.0
  0
SPLINE
  5
5E
330
1F
100
AcDbEntity
  8
0
370
    15
100
AcDbSpline
210
0.0
220
0.0
230
1.0
 70
     8
 71
     3
 72
     8
 73
     4
 74
     0
 42
0.0000000001
 43
0.0000000001
 40
0.0
 40
0.0
 40
0.0
 40
0.0
 40
1.0
 40
1.0
 40
1.0
 40
1.0
 10
-5.19708
 20
8.44391
 30
0.0
 10
-5.15913
 20
8.56269
 30
0.0
 10
-5.15913
 20
8.69035
 30
0.0
 10
-5.19708
 20
8.80913
 30
0.0
  0
SPLINE
  5
5F
330
1F
100
AcDbEntity
  8
0
370
    15
100
AcDbSpline
210
0.0
220
0.0
230
1.0
 70
     8
 71
     3
 72
     8
 73
     4
 74
     0
 42
0.0000000001
 43
0.0000000001
 40
0.0
 40
0.0
 40
0.0
 40
0.0
 40
1.0
 40
1.0
 40
1.0
 40
1.0
 10
-8.90878
 20
8.80913
 30
0.0
 10
-8.94674
 20
8.69035
 30
0.0
 10
-8.94674
 20
8.56269
 30
0.0
 10
-8.90878
 20
8.44391
 30
0.0
  0
SPLINE
  5
60
330
1F
100
AcDbEntity
  8
0
370
    15
100
AcDbSpline
210
0.0
220
0.0
230
1.0
 70
     8
 71
     3
 72
     8
 73
     4
 74
     0
 42
0.0000000001
 43
0.0000000001
 40
0.0
 40
0.0
 40
0.0
 40
0.0
 40
1.0
 40
1.0
 40
1.0
 40
1.0
 10
-8.90878
 20
8.44391
 30
0.0
 10
-8.90547
 20
8.43355
 30
0.0
 10
-8.89585
 20
8.42652
 30
0.0
 10
-8.88497
 20
8.42652
 30
0.0
  0
SPLINE
  5
61
330
1F
100
AcDbEntity
  8
0
370
    15
100
AcDbSpline
210
0.0
220
0.0
230
1.0
 70
     8
 71
     3
 72
     8
 73
     4
 74
     0
 42
0.0000000001
 43
0.0000000001
 40
0.0
 40
0.0
 40
0.0
 40
0.0
 40
1.0
 40
1.0
 40
1.0
 40
1.0
 10
-5.2209
 20
8.42652
 30
0.0
 10
-5.21002
 20
8.42652
 30
0.0
 10
-5.20039
 20
8.43355
 30
0.0
 10
-5.19708
 20
8.44391
 30
0.0
  0
SPLINE
  5
62
330
1F
100
AcDbEntity
  8
0
370
    15
100
AcDbSpline
210
0.0
220
0.0
230
1.0
 70
     8
 71
     3
 72
     8
 73
     4
 74
     0
 42
0.0000000001
 43
0.0000000001
 40
0.0
 40
0.0
 40
0.0
 40
0.0
 40
1.0
 40
1.0
 40
1.0
 40
1.0
 10
-5.19708
 20
8.80913
 30
0.0
 10
-5.20039
 20
8.81949
 30
0.0
 10
-5.21002
 20
8.82652
 30
0.0
 10
-5.2209
 20
8.82652
 30
0.0
  0
SPLINE
  5
63
330
1F
100
AcDbEntity
  8
0
370
    15
100
AcDbSpline
210
0.0
220
0.0
230
1.0
 70
     8
 71
     3
 72
     8
 73
     4
 74
     0
 42
0.0000000001
 43
0.0000000001
 40
0.0
 40
0.0
 40
0.0
 40
0.0
 40
1.0
 40
1.0
 40
1.0
 40
1.0
 10
-8.88497
 20
8.82652
 30
0.0
 10
-8.89585
 20
8.82652
 30
0.0
 10
-8.90547
 20
8.81949
 30
0.0
 10
-8.90878
 20
8.80913
 30
0.0
  0
SPLINE
  5
64
330
1F
100
AcDbEntity
  8
0
370
    15
100
AcDbSpline
210
0.0
220
0.0
230
1.0
 70
    24
 71
     3
 72
     8
 73
     4
 74
     0
 42
0.0000000001
 43
0.0000000001
 40
0.0
 40
0.0
 40
0.0
 40
0.0
 40
1.0
 40
1.0
 40
1.0
 40
1.0
 10
-5.36862
 20
8.27652
 30
0.0
 10
-5.36862
 20
8.27652
 30
0.0
 10
-5.36862
 20
8.40458
 30
0.0
 10
-5.36862
 20
8.40458
 30
0.0
  0
SPLINE
  5
65
330
1F
100
AcDbEntity
  8
0
370
    15
100
AcDbSpline
210
0.0
220
0.0
230
1.0
 70
    24
 71
     3
 72
     8
 73
     4
 74
     0
 42
0.0000000001
 43
0.0000000001
 40
0.0
 40
0.0
 40
0.0
 40
0.0
 40
1.0
 40
1.0
 40
1.0
 40
1.0
 10
-8.73725
 20
8.40458
 30
0.0
 10
-8.73725
 20
8.40458
 30
0.0
 10
-8.73725
 20
8.27652
 30
0.0
 10
-8.73725
 20
8.27652
 30
0.0
  0
SPLINE
  5
66
330
1F
100
AcDbEntity
  8
0
370
    15
100
AcDbSpline
210
0.0
220
0.0
230
1.0
 70
    24
 71
     3
 72
     8
 73
     4
 74
     0
 42
0.0000000001
 43
0.0000000001
 40
0.0
 40
0.0
 40
0.0
 40
0.0
 40
1.0
 40
1.0
 40
1.0
 40
1.0
 10
-8.73725
 20
8.27652
 30
0.0
 10
-8.73725
 20
8.27652
 30
0.0
 10
-8.73725
 20
6.77652
 30
0.0
 10
-8.73725
 20
6.77652
 30
0.0
  0
SPLINE
  5
67
330
1F
100
AcDbEntity
  8
0
370
    15
100
AcDbSpline
210
0.0
220
0.0
230
1.0
 70
    24
 71
     3
 72
     8
 73
     4
 74
     0
 42
0.0000000001
 43
0.0000000001
 40
0.0
 40
0.0
 40
0.0
 40
0.0
 40
1.0
 40
1.0
 40
1.0
 40
1.0
 10
-5.36862
 20
6.77652
 30
0.0
 10
-5.36862
 20
6.77652
 30
0.0
 10
-5.36862
 20
8.27652
 30
0.0
 10
-5.36862
 20
8.27652
 30
0.0
  0
SPLINE
  5
68
330
1F
100
AcDbEntity
  8
0
370
    15
100
AcDbSpline
210
0.0
220
0.0
230
1.0
 70
    24
 71
     3
 72
     8
 73
     4
 74
     0
 42
0.0000000001
 43
0.0000000001
 40
0.0
 40
0.0
 40
0.0
 40
0.0
 40
1.0
 40
1.0
 40
1.0
 40
1.0
 10
-7.00457
 20
10.69682
 30
0.0
 10
-7.00457
 20
10.69682
 30
0.0
 10
-6.22793
 20
10.69682
 30
0.0
 10
-6.22793
 20
10.69682
 30
0.0
  0
SPLINE
  5
69
330
1F
100
AcDbEntity
  8
0
370
    15
100
AcDbSpline
210
0.0
220
0.0
230
1.0
 70
    24
 71
     3
 72
     8
 73
     4
 74
     0
 42
0.0000000001
 43
0.0000000001
 40
0.0
 40
0.0
 40
0.0
 40
0.0
 40
1.0
 40
1.0
 40
1.0
 40
1.0
 10
-7.87793
 20
10.69682
 30
0.0
 10
-7.87793
 20
10.69682
 30
0.0
 10
-7.00457
 20
10.69682
 30
0.0
 10
-7.00457
 20
10.69682
 30
0.0
  0
SPLINE
  5
6A
330
1F
100
AcDbEntity
  8
0
370
    15
100
AcDbSpline
210
0.0
220
0.0
230
1.0
 70
    24
 71
     3
 72
     8
 73
     4
 74
     0
 42
0.0000000001
 43
0.0000000001
 40
0.0
 40
0.0
 40
0.0
 40
0.0
 40
1.0
 40
1.0
 40
1.0
 40
1.0
 10
-7.0053
 20
11.39682
 30
0.0
 10
-7.0053
 20
11.39682
 30
0.0
 10
-6.24043
 20
11.39682
 30
0.0
 10
-6.24043
 20
11.39682
 30
0.0
  0
SPLINE
  5
6B
330
1F
100
AcDbEntity
  8
0
370
    15
100
AcDbSpline
210
0.0
220
0.0
230
1.0
 70
    24
 71
     3
 72
     8
 73
     4
 74
     0
 42
0.0000000001
 43
0.0000000001
 40
0.0
 40
0.0
 40
0.0
 40
0.0
 40
1.0
 40
1.0
 40
1.0
 40
1.0
 10
-7.86543
 20
11.39682
 30
0.0
 10
-7.86543
 20
11.39682
 30
0.0
 10
-7.0053
 20
11.39682
 30
0.0
 10
-7.0053
 20
11.39682
 30
0.0
  0
SPLINE
  5
6C
330
1F
100
AcDbEntity
  8
0
370
    15
100
AcDbSpline
210
0.0
220
0.0
230
1.0
 70
     8
 71
     3
 72
    20
 73
    16
 74
     0
 42
0.0000000001
 43
0.0000000001
 40
0.0
 40
0.0
 40
0.0
 40
0.0
 40
0.2
 40
0.2
 40
0.2
 40
0.2
 40
0.4
 40
0.4
 40
0.4
 40
0.4
 40
0.6
 40
0.6
 40
0.6
 40
0.6
 40
1.0
 40
1.0
 40
1.0
 40
1.0
 10
-6.90293
 20
12.92182
 30
0.0
 10
-6.90293
 20
13.00466
 30
0.0
 10
-6.97009
 20
13.07182
 30
0.0
 10
-7.05293
 20
13.07182
 30
0.0
 10
-7.05293
 20
13.07182
 30
0.0
 10
-7.13578
 20
13.07182
 30
0.0
 10
-7.20293
 20
13.00466
 30
0.0
 10
-7.20293
 20
12.92182
 30
0.0
 10
-7.20293
 20
12.92182
 30
0.0
 10
-7.20293
 20
12.83897
 30
0.0
 10
-7.13578
 20
12.77182
 30
0.0
 10
-7.05293
 20
12.77182
 30
0.0
 10
-7.05293
 20
12.77182
 30
0.0
 10
-6.97009
 20
12.77181
 30
0.0
 10
-6.90293
 20
12.83897
 30
0.0
 10
-6.90293
 20
12.92181
 30
0.0
  0
SPLINE
  5
6D
330
1F
100
AcDbEntity
  8
0
370
    15
100
AcDbSpline
210
0.0
220
0.0
230
1.0
 70
    24
 71
     3
 72
     8
 73
     4
 74
     0
 42
0.0000000001
 43
0.0000000001
 40
0.0
 40
0.0
 40
0.0
 40
0.0
 40
1.0
 40
1.0
 40
1.0
 40
1.0
 10
-7.67793
 20
11.97182
 30
0.0
 10
-7.67793
 20
11.97182
 30
0.0
 10
-6.42793
 20
11.97182
 30
0.0
 10
-6.42793
 20
11.97182
 30
0.0
  0
SPLINE
  5
6E
330
1F
100
AcDbEntity
  8
0
370
    15
100
AcDbSpline
210
0.0
220
0.0
230
1.0
 70
    24
 71
     3
 72
     8
 73
     4
 74
     0
 42
0.0000000001
 43
0.0000000001
 40
0.0
 40
0.0
 40
0.0
 40
0.0
 40
1.0
 40
1.0
 40
1.0
 40
1.0
 10
-7.67793
 20
13.22182
 30
0.0
 10
-7.67793
 20
13.22182
 30
0.0
 10
-6.42793
 20
13.22182
 30
0.0
 10
-6.42793
 20
13.22182
 30
0.0
  0
SPLINE
  5
6F
330
1F
100
AcDbEntity
  8
0
370
    15
100
AcDbSpline
210
0.0
220
0.0
230
1.0
 70
    24
 71
     3
 72
     8
 73
     4
 74
     0
 42
0.0000000001
 43
0.0000000001
 40
0.0
 40
0.0
 40
0.0
 40
0.0
 40
1.0
 40
1.0
 40
1.0
 40
1.0
 10
-5.39043
 20
10.47182
 30
0.0
 10
-5.39043
 20
10.47182
 30
0.0
 10
-8.71543
 20
10.47182
 30
0.0
 10
-8.71543
 20
10.47182
 30
0.0
  0
SPLINE
  5
70
330
1F
100
AcDbEntity
  8
0
370
    15
100
AcDbSpline
210
0.0
220
0.0
230
1.0
 70
    24
 71
     3
 72
     8
 73
     4
 74
     0
 42
0.0000000001
 43
0.0000000001
 40
0.0
 40
0.0
 40
0.0
 40
0.0
 40
1.0
 40
1.0
 40
1.0
 40
1.0
 10
-6.20293
 20
10.65423
 30
0.0
 10
-6.20293
 20
10.65423
 30
0.0
 10
-7.90293
 20
10.65423
 30
0.0
 10
-7.90293
 20
10.65423
 30
0.0
  0
SPLINE
  5
71
330
1F
100
AcDbEntity
  8
0
370
    15
100
AcDbSpline
210
0.0
220
0.0
230
1.0
 70
    24
 71
     3
 72
     8
 73
     4
 74
     0
 42
0.0000000001
 43
0.0000000001
 40
0.0
 40
0.0
 40
0.0
 40
0.0
 40
1.0
 40
1.0
 40
1.0
 40
1.0
 10
-7.87793
 20
10.69682
 30
0.0
 10
-7.87793
 20
10.69682
 30
0.0
 10
-6.22793
 20
10.69682
 30
0.0
 10
-6.22793
 20
10.69682
 30
0.0
  0
SPLINE
  5
72
330
1F
100
AcDbEntity
  8
0
370
    15
100
AcDbSpline
210
0.0
220
0.0
230
1.0
 70
    24
 71
     3
 72
     8
 73
     4
 74
     0
 42
0.0000000001
 43
0.0000000001
 40
0.0
 40
0.0
 40
0.0
 40
0.0
 40
1.0
 40
1.0
 40
1.0
 40
1.0
 10
-8.72793
 20
10.42182
 30
0.0
 10
-8.72793
 20
10.42182
 30
0.0
 10
-5.37793
 20
10.42182
 30
0.0
 10
-5.37793
 20
10.42182
 30
0.0
  0
SPLINE
  5
73
330
1F
100
AcDbEntity
  8
0
370
    15
100
AcDbSpline
210
0.0
220
0.0
230
1.0
 70
    24
 71
     3
 72
     8
 73
     4
 74
     0
 42
0.0000000001
 43
0.0000000001
 40
0.0
 40
0.0
 40
0.0
 40
0.0
 40
1.0
 40
1.0
 40
1.0
 40
1.0
 10
-5.70293
 20
5.67182
 30
0.0
 10
-5.70293
 20
5.67182
 30
0.0
 10
-8.40293
 20
5.67182
 30
0.0
 10
-8.40293
 20
5.67182
 30
0.0
  0
SPLINE
  5
74
330
1F
100
AcDbEntity
  8
0
370
    15
100
AcDbSpline
210
0.0
220
0.0
230
1.0
 70
    24
 71
     3
 72
     8
 73
     4
 74
     0
 42
0.0000000001
 43
0.0000000001
 40
0.0
 40
0.0
 40
0.0
 40
0.0
 40
1.0
 40
1.0
 40
1.0
 40
1.0
 10
-5.40293
 20
8.27652
 30
0.0
 10
-5.40293
 20
8.27652
 30
0.0
 10
-8.70293
 20
8.27652
 30
0.0
 10
-8.70293
 20
8.27652
 30
0.0
  0
SPLINE
  5
75
330
1F
100
AcDbEntity
  8
0
370
    15
100
AcDbSpline
210
0.0
220
0.0
230
1.0
 70
    24
 71
     3
 72
     8
 73
     4
 74
     0
 42
0.0000000001
 43
0.0000000001
 40
0.0
 40
0.0
 40
0.0
 40
0.0
 40
1.0
 40
1.0
 40
1.0
 40
1.0
 10
-5.2209
 20
8.42652
 30
0.0
 10
-5.2209
 20
8.42652
 30
0.0
 10
-8.88497
 20
8.42652
 30
0.0
 10
-8.88497
 20
8.42652
 30
0.0
  0
SPLINE
  5
76
330
1F
100
AcDbEntity
  8
0
370
    15
100
AcDbSpline
210
0.0
220
0.0
230
1.0
 70
    24
 71
     3
 72
     8
 73
     4
 74
     0
 42
0.0000000001
 43
0.0000000001
 40
0.0
 40
0.0
 40
0.0
 40
0.0
 40
1.0
 40
1.0
 40
1.0
 40
1.0
 10
-8.88497
 20
8.82652
 30
0.0
 10
-8.88497
 20
8.82652
 30
0.0
 10
-5.2209
 20
8.82652
 30
0.0
 10
-5.2209
 20
8.82652
 30
0.0
  0
SPLINE
  5
77
330
1F
100
AcDbEntity
  8
0
370
    15
100
AcDbSpline
210
0.0
220
0.0
230
1.0
 70
     8
 71
     3
 72
    16
 73
    12
 74
     0
 42
0.0000000001
 43
0.0000000001
 40
0.0
 40
0.0
 40
0.0
 40
0.0
 40
0.25
 40
0.25
 40
0.25
 40
0.25
 40
0.5
 40
0.5
 40
0.5
 40
0.5
 40
1.0
 40
1.0
 40
1.0
 40
1.0
 10
-5.40006
 20
8.28724
 30
0.0
 10
-5.3996
 20
8.28687
 30
0.0
 10
-5.39914
 20
8.28649
 30
0.0
 10
-5.39877
 20
8.28597
 30
0.0
 10
-5.39877
 20
8.28597
 30
0.0
 10
-5.3983
 20
8.28529
 30
0.0
 10
-5.39799
 20
8.28437
 30
0.0
 10
-5.39778
 20
8.28333
 30
0.0
 10
-5.39778
 20
8.28333
 30
0.0
 10
-5.39756
 20
8.28229
 30
0.0
 10
-5.39744
 20
8.28115
 30
0.0
 10
-5.39732
 20
8.28
 30
0.0
  0
SPLINE
  5
78
330
1F
100
AcDbEntity
  8
0
370
    15
100
AcDbSpline
210
0.0
220
0.0
230
1.0
 70
     8
 71
     3
 72
    12
 73
     8
 74
     0
 42
0.0000000001
 43
0.0000000001
 40
0.0
 40
0.0
 40
0.0
 40
0.0
 40
0.3333333333333333
 40
0.3333333333333333
 40
0.3333333333333333
 40
0.3333333333333333
 40
1.0
 40
1.0
 40
1.0
 40
1.0
 10
-5.39708
 20
8.27652
 30
0.0
 10
-5.3971
 20
8.27677
 30
0.0
 10
-5.39711
 20
8.27701
 30
0.0
 10
-5.39713
 20
8.27726
 30
0.0
 10
-5.39713
 20
8.27726
 30
0.0
 10
-5.39719
 20
8.27817
 30
0.0
 10
-5.39726
 20
8.27909
 30
0.0
 10
-5.39732
 20
8.28
 30
0.0
  0
SPLINE
  5
79
330
1F
100
AcDbEntity
  8
0
370
    15
100
AcDbSpline
210
0.0
220
0.0
230
1.0
 70
     8
 71
     3
 72
    12
 73
     8
 74
     0
 42
0.0000000001
 43
0.0000000001
 40
0.0
 40
0.0
 40
0.0
 40
0.0
 40
0.3333333333333333
 40
0.3333333333333333
 40
0.3333333333333333
 40
0.3333333333333333
 40
1.0
 40
1.0
 40
1.0
 40
1.0
 10
-8.70694
 20
8.29149
 30
0.0
 10
-8.70754
 20
8.29154
 30
0.0
 10
-8.70813
 20
8.29158
 30
0.0
 10
-8.70856
 20
8.29163
 30
0.0
 10
-8.70856
 20
8.29163
 30
0.0
 10
-8.70864
 20
8.29164
 30
0.0
 10
-8.70871
 20
8.29165
 30
0.0
 10
-8.70878
 20
8.29165
 30
0.0
  0
SPLINE
  5
7A
330
1F
100
AcDbEntity
  8
0
370
    15
100
AcDbSpline
210
0.0
220
0.0
230
1.0
 70
    24
 71
     3
 72
     8
 73
     4
 74
     0
 42
0.0000000001
 43
0.0000000001
 40
0.0
 40
0.0
 40
0.0
 40
0.0
 40
1.0
 40
1.0
 40
1.0
 40
1.0
 10
-8.70854
 20
8.27652
 30
0.0
 10
-8.70854
 20
8.27652
 30
0.0
 10
-8.70878
 20
8.29165
 30
0.0
 10
-8.70878
 20
8.29165
 30
0.0
  0
SPLINE
  5
7B
330
1F
100
AcDbEntity
  8
0
370
    15
100
AcDbSpline
210
0.0
220
0.0
230
1.0
 70
    24
 71
     3
 72
     8
 73
     4
 74
     0
 42
0.0000000001
 43
0.0000000001
 40
0.0
 40
0.0
 40
0.0
 40
0.0
 40
1.0
 40
1.0
 40
1.0
 40
1.0
 10
-5.42011
 20
6.77652
 30
0.0
 10
-5.42011
 20
6.77652
 30
0.0
 10
-5.55293
 20
6.77652
 30
0.0
 10
-5.55293
 20
6.77652
 30
0.0
  0
SPLINE
  5
7C
330
1F
100
AcDbEntity
  8
0
370
    15
100
AcDbSpline
210
0.0
220
0.0
230
1.0
 70
    24
 71
     3
 72
     8
 73
     4
 74
     0
 42
0.0000000001
 43
0.0000000001
 40
0.0
 40
0.0
 40
0.0
 40
0.0
 40
1.0
 40
1.0
 40
1.0
 40
1.0
 10
-8.55293
 20
6.77652
 30
0.0
 10
-8.55293
 20
6.77652
 30
0.0
 10
-8.68576
 20
6.77652
 30
0.0
 10
-8.68576
 20
6.77652
 30
0.0
  0
SPLINE
  5
7D
330
1F
100
AcDbEntity
  8
0
370
    15
100
AcDbSpline
210
0.0
220
0.0
230
1.0
 70
    24
 71
     3
 72
     8
 73
     4
 74
     0
 42
0.0000000001
 43
0.0000000001
 40
0.0
 40
0.0
 40
0.0
 40
0.0
 40
1.0
 40
1.0
 40
1.0
 40
1.0
 10
-8.68576
 20
8.27652
 30
0.0
 10
-8.68576
 20
8.27652
 30
0.0
 10
-8.68576
 20
6.77652
 30
0.0
 10
-8.68576
 20
6.77652
 30
0.0
  0
SPLINE
  5
7E
330
1F
100
AcDbEntity
  8
0
370
    15
100
AcDbSpline
210
0.0
220
0.0
230
1.0
 70
    24
 71
     3
 72
    20
 73
    16
 74
     0
 42
0.0000000001
 43
0.0000000001
 40
0.0
 40
0.0
 40
0.0
 40
0.0
 40
0.2
 40
0.2
 40
0.2
 40
0.2
 40
0.4
 40
0.4
 40
0.4
 40
0.4
 40
0.6
 40
0.6
 40
0.6
 40
0.6
 40
1.0
 40
1.0
 40
1.0
 40
1.0
 10
-8.70854
 20
8.27652
 30
0.0
 10
-8.70755
 20
8.27652
 30
0.0
 10
-8.70656
 20
8.27652
 30
0.0
 10
-8.70515
 20
8.27652
 30
0.0
 10
-8.70515
 20
8.27652
 30
0.0
 10
-8.70374
 20
8.27652
 30
0.0
 10
-8.70191
 20
8.27652
 30
0.0
 10
-8.69988
 20
8.27652
 30
0.0
 10
-8.69988
 20
8.27652
 30
0.0
 10
-8.69784
 20
8.27652
 30
0.0
 10
-8.6956
 20
8.27652
 30
0.0
 10
-8.69321
 20
8.27652
 30
0.0
 10
-8.69321
 20
8.27652
 30
0.0
 10
-8.69082
 20
8.27652
 30
0.0
 10
-8.68829
 20
8.27652
 30
0.0
 10
-8.68576
 20
8.27652
 30
0.0
  0
SPLINE
  5
7F
330
1F
100
AcDbEntity
  8
0
370
    15
100
AcDbSpline
210
0.0
220
0.0
230
1.0
 70
    24
 71
     3
 72
     8
 73
     4
 74
     0
 42
0.0000000001
 43
0.0000000001
 40
0.0
 40
0.0
 40
0.0
 40
0.0
 40
1.0
 40
1.0
 40
1.0
 40
1.0
 10
-8.70854
 20
6.77652
 30
0.0
 10
-8.70854
 20
6.77652
 30
0.0
 10
-8.70854
 20
8.27652
 30
0.0
 10
-8.70854
 20
8.27652
 30
0.0
  0
SPLINE
  5
80
330
1F
100
AcDbEntity
  8
0
370
    15
100
AcDbSpline
210
0.0
220
0.0
230
1.0
 70
    24
 71
     3
 72
     8
 73
     4
 74
     0
 42
0.0000000001
 43
0.0000000001
 40
0.0
 40
0.0
 40
0.0
 40
0.0
 40
1.0
 40
1.0
 40
1.0
 40
1.0
 10
-8.68576
 20
6.77652
 30
0.0
 10
-8.68576
 20
6.77652
 30
0.0
 10
-8.70854
 20
6.77652
 30
0.0
 10
-8.70854
 20
6.77652
 30
0.0
  0
SPLINE
  5
81
330
1F
100
AcDbEntity
  8
0
370
    15
100
AcDbSpline
210
0.0
220
0.0
230
1.0
 70
    24
 71
     3
 72
     8
 73
     4
 74
     0
 42
0.0000000001
 43
0.0000000001
 40
0.0
 40
0.0
 40
0.0
 40
0.0
 40
1.0
 40
1.0
 40
1.0
 40
1.0
 10
-5.39732
 20
8.28
 30
0.0
 10
-5.39732
 20
8.28
 30
0.0
 10
-5.39732
 20
6.77652
 30
0.0
 10
-5.39732
 20
6.77652
 30
0.0
  0
SPLINE
  5
82
330
1F
100
AcDbEntity
  8
0
370
    15
100
AcDbSpline
210
0.0
220
0.0
230
1.0
 70
    24
 71
     3
 72
     8
 73
     4
 74
     0
 42
0.0000000001
 43
0.0000000001
 40
0.0
 40
0.0
 40
0.0
 40
0.0
 40
1.0
 40
1.0
 40
1.0
 40
1.0
 10
-5.39732
 20
6.77652
 30
0.0
 10
-5.39732
 20
6.77652
 30
0.0
 10
-5.42011
 20
6.77652
 30
0.0
 10
-5.42011
 20
6.77652
 30
0.0
  0
SPLINE
  5
83
330
1F
100
AcDbEntity
  8
0
370
    15
100
AcDbSpline
210
0.0
220
0.0
230
1.0
 70
    24
 71
     3
 72
     8
 73
     4
 74
     0
 42
0.0000000001
 43
0.0000000001
 40
0.0
 40
0.0
 40
0.0
 40
0.0
 40
1.0
 40
1.0
 40
1.0
 40
1.0
 10
-8.73725
 20
6.77652
 30
0.0
 10
-8.73725
 20
6.77652
 30
0.0
 10
-8.70854
 20
6.77652
 30
0.0
 10
-8.70854
 20
6.77652
 30
0.0
  0
SPLINE
  5
84
330
1F
100
AcDbEntity
  8
0
370
    15
100
AcDbSpline
210
0.0
220
0.0
230
1.0
 70
    24
 71
     3
 72
     8
 73
     4
 74
     0
 42
0.0000000001
 43
0.0000000001
 40
0.0
 40
0.0
 40
0.0
 40
0.0
 40
1.0
 40
1.0
 40
1.0
 40
1.0
 10
-5.36862
 20
6.77652
 30
0.0
 10
-5.36862
 20
6.77652
 30
0.0
 10
-5.39732
 20
6.77652
 30
0.0
 10
-5.39732
 20
6.77652
 30
0.0
  0
SPLINE
  5
85
330
1F
100
AcDbEntity
  8
0
 62
     8
370
    15
100
AcDbSpline
210
0.0
220
0.0
230
1.0
 70
    24
 71
     3
 72
     8
 73
     4
 74
     0
 42
0.0000000001
 43
0.0000000001
 40
0.0
 40
0.0
 40
0.0
 40
0.0
 40
1.0
 40
1.0
 40
1.0
 40
1.0
 10
-7.00457
 20
11.38432
 30
0.0
 10
-7.00457
 20
11.38432
 30
0.0
 10
-6.22793
 20
11.38432
 30
0.0
 10
-6.22793
 20
11.38432
 30
0.0
  0
SPLINE
  5
86
330
1F
100
AcDbEntity
  8
0
 62
     8
370
    15
100
AcDbSpline
210
0.0
220
0.0
230
1.0
 70
    24
 71
     3
 72
     8
 73
     4
 74
     0
 42
0.0000000001
 43
0.0000000001
 40
0.0
 40
0.0
 40
0.0
 40
0.0
 40
1.0
 40
1.0
 40
1.0
 40
1.0
 10
-7.87793
 20
11.38432
 30
0.0
 10
-7.87793
 20
11.38432
 30
0.0
 10
-7.00457
 20
11.38432
 30
0.0
 10
-7.00457
 20
11.38432
 30
0.0
  0
SPLINE
  5
87
330
1F
100
AcDbEntity
  8
0
 62
     8
370
    15
100
AcDbSpline
210
0.0
220
0.0
230
1.0
 70
    24
 71
     3
 72
     8
 73
     4
 74
     0
 42
0.0000000001
 43
0.0000000001
 40
0.0
 40
0.0
 40
0.0
 40
0.0
 40
1.0
 40
1.0
 40
1.0
 40
1.0
 10
-7.02142
 20
11.40932
 30
0.0
 10
-7.02142
 20
11.40932
 30
0.0
 10
-6.51543
 20
11.40932
 30
0.0
 10
-6.51543
 20
11.40932
 30
0.0
  0
SPLINE
  5
88
330
1F
100
AcDbEntity
  8
0
 62
     8
370
    15
100
AcDbSpline
210
0.0
220
0.0
230
1.0
 70
    24
 71
     3
 72
     8
 73
     4
 74
     0
 42
0.0000000001
 43
0.0000000001
 40
0.0
 40
0.0
 40
0.0
 40
0.0
 40
1.0
 40
1.0
 40
1.0
 40
1.0
 10
-7.59043
 20
11.40932
 30
0.0
 10
-7.59043
 20
11.40932
 30
0.0
 10
-7.02142
 20
11.40932
 30
0.0
 10
-7.02142
 20
11.40932
 30
0.0
  0
SPLINE
  5
89
330
1F
100
AcDbEntity
  8
0
 62
     8
370
    15
100
AcDbSpline
210
0.0
220
0.0
230
1.0
 70
    24
 71
     3
 72
     8
 73
     4
 74
     0
 42
0.0000000001
 43
0.0000000001
 40
0.0
 40
0.0
 40
0.0
 40
0.0
 40
1.0
 40
1.0
 40
1.0
 40
1.0
 10
-6.20293
 20
10.67182
 30
0.0
 10
-6.20293
 20
10.67182
 30
0.0
 10
-7.90293
 20
10.67182
 30
0.0
 10
-7.90293
 20
10.67182
 30
0.0
  0
SPLINE
  5
8A
330
1F
100
AcDbEntity
  8
0
 62
     8
370
    15
100
AcDbSpline
210
0.0
220
0.0
230
1.0
 70
    24
 71
     3
 72
     8
 73
     4
 74
     0
 42
0.0000000001
 43
0.0000000001
 40
0.0
 40
0.0
 40
0.0
 40
0.0
 40
1.0
 40
1.0
 40
1.0
 40
1.0
 10
-8.75291
 20
10.39682
 30
0.0
 10
-8.75291
 20
10.39682
 30
0.0
 10
-8.75293
 20
10.39682
 30
0.0
 10
-8.75293
 20
10.39682
 30
0.0
  0
SPLINE
  5
8B
330
1F
100
AcDbEntity
  8
0
 62
     8
370
    15
100
AcDbSpline
210
0.0
220
0.0
230
1.0
 70
    24
 71
     3
 72
     8
 73
     4
 74
     0
 42
0.0000000001
 43
0.0000000001
 40
0.0
 40
0.0
 40
0.0
 40
0.0
 40
1.0
 40
1.0
 40
1.0
 40
1.0
 10
-5.35293
 20
10.39682
 30
0.0
 10
-5.35293
 20
10.39682
 30
0.0
 10
-8.75291
 20
10.39682
 30
0.0
 10
-8.75291
 20
10.39682
 30
0.0
  0
SPLINE
  5
8C
330
1F
100
AcDbEntity
  8
0
 62
     8
370
    15
100
AcDbSpline
210
0.0
220
0.0
230
1.0
 70
    24
 71
     3
 72
     8
 73
     4
 74
     0
 42
0.0000000001
 43
0.0000000001
 40
0.0
 40
0.0
 40
0.0
 40
0.0
 40
1.0
 40
1.0
 40
1.0
 40
1.0
 10
-8.75293
 20
9.01936
 30
0.0
 10
-8.75293
 20
9.01936
 30
0.0
 10
-5.35293
 20
9.01936
 30
0.0
 10
-5.35293
 20
9.01936
 30
0.0
  0
SPLINE
  5
8D
330
1F
100
AcDbEntity
  8
0
 62
     8
370
    15
100
AcDbSpline
210
0.0
220
0.0
230
1.0
 70
    24
 71
     3
 72
     8
 73
     4
 74
     0
 42
0.0000000001
 43
0.0000000001
 40
0.0
 40
0.0
 40
0.0
 40
0.0
 40
1.0
 40
1.0
 40
1.0
 40
1.0
 10
-8.55293
 20
5.82182
 30
0.0
 10
-8.55293
 20
5.82182
 30
0.0
 10
-5.55293
 20
5.82182
 30
0.0
 10
-5.55293
 20
5.82182
 30
0.0
  0
SPLINE
  5
8E
330
1F
100
AcDbEntity
  8
0
 62
     8
370
    15
100
AcDbSpline
210
0.0
220
0.0
230
1.0
 70
    24
 71
     3
 72
     8
 73
     4
 74
     0
 42
0.0000000001
 43
0.0000000001
 40
0.0
 40
0.0
 40
0.0
 40
0.0
 40
1.0
 40
1.0
 40
1.0
 40
1.0
 10
-8.90878
 20
8.44391
 30
0.0
 10
-8.90878
 20
8.44391
 30
0.0
 10
-5.19708
 20
8.44391
 30
0.0
 10
-5.19708
 20
8.44391
 30
0.0
  0
SPLINE
  5
8F
330
1F
100
AcDbEntity
  8
0
 62
     8
370
    15
100
AcDbSpline
210
0.0
220
0.0
230
1.0
 70
    24
 71
     3
 72
     8
 73
     4
 74
     0
 42
0.0000000001
 43
0.0000000001
 40
0.0
 40
0.0
 40
0.0
 40
0.0
 40
1.0
 40
1.0
 40
1.0
 40
1.0
 10
-5.19708
 20
8.80913
 30
0.0
 10
-5.19708
 20
8.80913
 30
0.0
 10
-8.90878
 20
8.80913
 30
0.0
 10
-8.90878
 20
8.80913
 30
0.0
  0
SPLINE
  5
90
330
1F
100
AcDbEntity
  8
0
 62
     8
370
    15
100
AcDbSpline
210
0.0
220
0.0
230
1.0
 70
    24
 71
     3
 72
     8
 73
     4
 74
     0
 42
0.0000000001
 43
0.0000000001
 40
0.0
 40
0.0
 40
0.0
 40
0.0
 40
1.0
 40
1.0
 40
1.0
 40
1.0
 10
-5.39708
 20
8.29836
 30
0.0
 10
-5.39708
 20
8.29836
 30
0.0
 10
-5.39708
 20
8.27652
 30
0.0
 10
-5.39708
 20
8.27652
 30
0.0
  0
SPLINE
  5
91
330
1F
100
AcDbEntity
  8
0
 62
     8
370
    15
100
AcDbSpline
210
0.0
220
0.0
230
1.0
 70
    24
 71
     3
 72
     8
 73
     4
 74
     0
 42
0.0000000001
 43
0.0000000001
 40
0.0
 40
0.0
 40
0.0
 40
0.0
 40
1.0
 40
1.0
 40
1.0
 40
1.0
 10
-5.36862
 20
8.27652
 30
0.0
 10
-5.36862
 20
8.27652
 30
0.0
 10
-5.39708
 20
8.27652
 30
0.0
 10
-5.39708
 20
8.27652
 30
0.0
  0
SPLINE
  5
92
330
1F
100
AcDbEntity
  8
0
 62
     8
370
    15
100
AcDbSpline
210
0.0
220
0.0
230
1.0
 70
    24
 71
     3
 72
     8
 73
     4
 74
     0
 42
0.0000000001
 43
0.0000000001
 40
0.0
 40
0.0
 40
0.0
 40
0.0
 40
1.0
 40
1.0
 40
1.0
 40
1.0
 10
-8.70878
 20
8.29165
 30
0.0
 10
-8.70878
 20
8.29165
 30
0.0
 10
-8.70878
 20
8.29836
 30
0.0
 10
-8.70878
 20
8.29836
 30
0.0
  0
SPLINE
  5
93
330
1F
100
AcDbEntity
  8
0
 62
     8
370
    15
100
AcDbSpline
210
0.0
220
0.0
230
1.0
 70
    24
 71
     3
 72
     8
 73
     4
 74
     0
 42
0.0000000001
 43
0.0000000001
 40
0.0
 40
0.0
 40
0.0
 40
0.0
 40
1.0
 40
1.0
 40
1.0
 40
1.0
 10
-8.73725
 20
8.27652
 30
0.0
 10
-8.73725
 20
8.27652
 30
0.0
 10
-8.70854
 20
8.27652
 30
0.0
 10
-8.70854
 20
8.27652
 30
0.0
  0
SPLINE
  5
94
330
1F
100
AcDbEntity
  8
0
 62
     8
370
    15
100
AcDbSpline
210
0.0
220
0.0
230
1.0
 70
    24
 71
     3
 72
     8
 73
     4
 74
     0
 42
0.0000000001
 43
0.0000000001
 40
0.0
 40
0.0
 40
0.0
 40
0.0
 40
1.0
 40
1.0
 40
1.0
 40
1.0
 10
-5.42011
 20
6.77652
 30
0.0
 10
-5.42011
 20
6.77652
 30
0.0
 10
-5.42011
 20
8.27652
 30
0.0
 10
-5.42011
 20
8.27652
 30
0.0
  0
SPLINE
  5
95
330
1F
100
AcDbEntity
  8
0
100
AcDbSpline
210
0.0
220
0.0
230
1.0
 70
    27
 71
     3
 72
    12
 73
     8
 74
     0
 42
0.0000000001
 43
0.0000000001
 40
0.0
 40
0.0
 40
0.0
 40
0.0
 40
0.3333333333333333
 40
0.3333333333333333
 40
0.3333333333333333
 40
0.3333333333333333
 40
1.0
 40
1.0
 40
1.0
 40
1.0
 10
-8.93725
 20
13.65991
 30
0.0
 10
-8.93725
 20
13.65991
 30
0.0
 10
-8.60705
 20
13.71071
 30
0.0
 10
-8.60705
 20
13.71071
 30
0.0
 10
-8.60705
 20
13.71071
 30
0.0
 10
-8.60705
 20
13.71071
 30
0.0
 10
-8.93725
 20
13.65991
 30
0.0
 10
-8.93725
 20
13.65991
 30
0.0
  0
SPLINE
  5
96
330
1F
100
AcDbEntity
  8
0
100
AcDbSpline
210
0.0
220
0.0
230
1.0
 70
     8
 71
     3
 72
    12
 73
     8
 74
     0
 42
0.0000000001
 43
0.0000000001
 40
0.0
 40
0.0
 40
0.0
 40
0.0
 40
0.3333333333333333
 40
0.3333333333333333
 40
0.3333333333333333
 40
0.3333333333333333
 40
1.0
 40
1.0
 40
1.0
 40
1.0
 10
-8.60705
 20
13.71071
 30
0.0
 10
-8.60705
 20
13.71071
 30
0.0
 10
-8.60705
 20
13.60911
 30
0.0
 10
-8.60705
 20
13.60911
 30
0.0
 10
-8.60705
 20
13.60911
 30
0.0
 10
-8.60705
 20
13.60911
 30
0.0
 10
-8.93725
 20
13.65991
 30
0.0
 10
-8.93725
 20
13.65991
 30
0.0
  0
SPLINE
  5
97
330
1F
100
AcDbEntity
  8
0
370
     9
100
AcDbSpline
210
0.0
220
0.0
230
1.0
 70
    24
 71
     3
 72
     8
 73
     4
 74
     0
 42
0.0000000001
 43
0.0000000001
 40
0.0
 40
0.0
 40
0.0
 40
0.0
 40
1.0
 40
1.0
 40
1.0
 40
1.0
 10
-8.93725
 20
13.65991
 30
0.0
 10
-8.93725
 20
13.65991
 30
0.0
 10
-8.60705
 20
13.71071
 30
0.0
 10
-8.60705
 20
13.71071
 30
0.0
  0
SPLINE
  5
98
330
1F
100
AcDbEntity
  8
0
370
     9
100
AcDbSpline
210
0.0
220
0.0
230
1.0
 70
     8
 71
     3
 72
    12
 73
     8
 74
     0
 42
0.0000000001
 43
0.0000000001
 40
0.0
 40
0.0
 40
0.0
 40
0.0
 40
0.3333333333333333
 40
0.3333333333333333
 40
0.3333333333333333
 40
0.3333333333333333
 40
1.0
 40
1.0
 40
1.0
 40
1.0
 10
-8.60705
 20
13.71071
 30
0.0
 10
-8.60705
 20
13.71071
 30
0.0
 10
-8.60705
 20
13.60911
 30
0.0
 10
-8.60705
 20
13.60911
 30
0.0
 10
-8.60705
 20
13.60911
 30
0.0
 10
-8.60705
 20
13.60911
 30
0.0
 10
-8.93725
 20
13.65991
 30
0.0
 10
-8.93725
 20
13.65991
 30
0.0
  0
SPLINE
  5
99
330
1F
100
AcDbEntity
  8
0
100
AcDbSpline
210
0.0
220
0.0
230
1.0
 70
    27
 71
     3
 72
    12
 73
     8
 74
     0
 42
0.0000000001
 43
0.0000000001
 40
0.0
 40
0.0
 40
0.0
 40
0.0
 40
0.3333333333333333
 40
0.3333333333333333
 40
0.3333333333333333
 40
0.3333333333333333
 40
1.0
 40
1.0
 40
1.0
 40
1.0
 10
-5.16862
 20
13.65991
 30
0.0
 10
-5.16862
 20
13.65991
 30
0.0
 10
-5.49882
 20
13.60911
 30
0.0
 10
-5.49882
 20
13.60911
 30
0.0
 10
-5.49882
 20
13.60911
 30
0.0
 10
-5.49882
 20
13.60911
 30
0.0
 10
-5.16862
 20
13.65991
 30
0.0
 10
-5.16862
 20
13.65991
 30
0.0
  0
SPLINE
  5
9A
330
1F
100
AcDbEntity
  8
0
100
AcDbSpline
210
0.0
220
0.0
230
1.0
 70
     8
 71
     3
 72
    12
 73
     8
 74
     0
 42
0.0000000001
 43
0.0000000001
 40
0.0
 40
0.0
 40
0.0
 40
0.0
 40
0.3333333333333333
 40
0.3333333333333333
 40
0.3333333333333333
 40
0.3333333333333333
 40
1.0
 40
1.0
 40
1.0
 40
1.0
 10
-5.49882
 20
13.60911
 30
0.0
 10
-5.49882
 20
13.60911
 30
0.0
 10
-5.49882
 20
13.71071
 30
0.0
 10
-5.49882
 20
13.71071
 30
0.0
 10
-5.49882
 20
13.71071
 30
0.0
 10
-5.49882
 20
13.71071
 30
0.0
 10
-5.16862
 20
13.65991
 30
0.0
 10
-5.16862
 20
13.65991
 30
0.0
  0
SPLINE
  5
9B
330
1F
100
AcDbEntity
  8
0
370
     9
100
AcDbSpline
210
0.0
220
0.0
230
1.0
 70
    24
 71
     3
 72
     8
 73
     4
 74
     0
 42
0.0000000001
 43
0.0000000001
 40
0.0
 40
0.0
 40
0.0
 40
0.0
 40
1.0
 40
1.0
 40
1.0
 40
1.0
 10
-5.16862
 20
13.65991
 30
0.0
 10
-5.16862
 20
13.65991
 30
0.0
 10
-5.49882
 20
13.60911
 30
0.0
 10
-5.49882
 20
13.60911
 30
0.0
  0
SPLINE
  5
9C
330
1F
100
AcDbEntity
  8
0
370
     9
100
AcDbSpline
210
0.0
220
0.0
230
1.0
 70
     8
 71
     3
 72
    12
 73
     8
 74
     0
 42
0.0000000001
 43
0.0000000001
 40
0.0
 40
0.0
 40
0.0
 40
0.0
 40
0.3333333333333333
 40
0.3333333333333333
 40
0.3333333333333333
 40
0.3333333333333333
 40
1.0
 40
1.0
 40
1.0
 40
1.0
 10
-5.49882
 20
13.60911
 30
0.0
 10
-5.49882
 20
13.60911
 30
0.0
 10
-5.49882
 20
13.71071
 30
0.0
 10
-5.49882
 20
13.71071
 30
0.0
 10
-5.49882
 20
13.71071
 30
0.0
 10
-5.49882
 20
13.71071
 30
0.0
 10
-5.16862
 20
13.65991
 30
0.0
 10
-5.16862
 20
13.65991
 30
0.0
  0
SPLINE
  5
9D
330
1F
100
AcDbEntity
  8
0
370
     9
100
AcDbSpline
210
0.0
220
0.0
230
1.0
 70
    24
 71
     3
 72
     8
 73
     4
 74
     0
 42
0.0000000001
 43
0.0000000001
 40
0.0
 40
0.0
 40
0.0
 40
0.0
 40
1.0
 40
1.0
 40
1.0
 40
1.0
 10
-8.93725
 20
8.72652
 30
0.0
 10
-8.93725
 20
8.72652
 30
0.0
 10
-8.93725
 20
13.75991
 30
0.0
 10
-8.93725
 20
13.75991
 30
0.0
  0
SPLINE
  5
9E
330
1F
100
AcDbEntity
  8
0
370
     9
100
AcDbSpline
210
0.0
220
0.0
230
1.0
 70
    24
 71
     3
 72
     8
 73
     4
 74
     0
 42
0.0000000001
 43
0.0000000001
 40
0.0
 40
0.0
 40
0.0
 40
0.0
 40
1.0
 40
1.0
 40
1.0
 40
1.0
 10
-5.16862
 20
8.72652
 30
0.0
 10
-5.16862
 20
8.72652
 30
0.0
 10
-5.16862
 20
13.75991
 30
0.0
 10
-5.16862
 20
13.75991
 30
0.0
  0
SPLINE
  5
9F
330
1F
100
AcDbEntity
  8
0
370
     9
100
AcDbSpline
210
0.0
220
0.0
230
1.0
 70
    24
 71
     3
 72
     8
 73
     4
 74
     0
 42
0.0000000001
 43
0.0000000001
 40
0.0
 40
0.0
 40
0.0
 40
0.0
 40
1.0
 40
1.0
 40
1.0
 40
1.0
 10
-8.93725
 20
13.65991
 30
0.0
 10
-8.93725
 20
13.65991
 30
0.0
 10
-5.16862
 20
13.65991
 30
0.0
 10
-5.16862
 20
13.65991
 30
0.0
  0
SPLINE
  5
A0
330
1F
100
AcDbEntity
  8
0
100
AcDbSpline
210
0.0
220
0.0
230
1.0
 70
    11
 71
     3
 72
    84
 73
    80
 74
     0
 42
0.0000000001
 43
0.0000000001
 40
0.0
 40
0.0
 40
0.0
 40
0.0
 40
0.0476190476190476
 40
0.0476190476190476
 40
0.0476190476190476
 40
0.0476190476190476
 40
0.0952380952380952
 40
0.0952380952380952
 40
0.0952380952380952
 40
0.0952380952380952
 40
0.1428571428571428
 40
0.1428571428571428
 40
0.1428571428571428
 40
0.1428571428571428
 40
0.1904761904761905
 40
0.1904761904761905
 40
0.1904761904761905
 40
0.1904761904761905
 40
0.2380952380952381
 40
0.2380952380952381
 40
0.2380952380952381
 40
0.2380952380952381
 40
0.2857142857142857
 40
0.2857142857142857
 40
0.2857142857142857
 40
0.2857142857142857
 40
0.3333333333333333
 40
0.3333333333333333
 40
0.3333333333333333
 40
0.3333333333333333
 40
0.3809523809523809
 40
0.3809523809523809
 40
0.3809523809523809
 40
0.3809523809523809
 40
0.4285714285714285
 40
0.4285714285714285
 40
0.4285714285714285
 40
0.4285714285714285
 40
0.4761904761904762
 40
0.4761904761904762
 40
0.4761904761904762
 40
0.4761904761904762
 40
0.5238095238095238
 40
0.5238095238095238
 40
0.5238095238095238
 40
0.5238095238095238
 40
0.5714285714285714
 40
0.5714285714285714
 40
0.5714285714285714
 40
0.5714285714285714
 40
0.6190476190476191
 40
0.6190476190476191
 40
0.6190476190476191
 40
0.6190476190476191
 40
0.6666666666666666
 40
0.6666666666666666
 40
0.6666666666666666
 40
0.6666666666666666
 40
0.7142857142857143
 40
0.7142857142857143
 40
0.7142857142857143
 40
0.7142857142857143
 40
0.7619047619047619
 40
0.7619047619047619
 40
0.7619047619047619
 40
0.7619047619047619
 40
0.8095238095238095
 40
0.8095238095238095
 40
0.8095238095238095
 40
0.8095238095238095
 40
0.8571428571428571
 40
0.8571428571428571
 40
0.8571428571428571
 40
0.8571428571428571
 40
0.9047619047619048
 40
0.9047619047619048
 40
0.9047619047619048
 40
0.9047619047619048
 40
1.0
 40
1.0
 40
1.0
 40
1.0
 10
-7.57679
 20
14.02184
 30
0.0
 10
-7.57679
 20
14.02184
 30
0.0
 10
-7.54809
 20
14.05398
 30
0.0
 10
-7.54809
 20
14.05398
 30
0.0
 10
-7.54809
 20
14.05398
 30
0.0
 10
-7.54809
 20
14.05398
 30
0.0
 10
-7.53118
 20
14.03963
 30
0.0
 10
-7.53118
 20
14.03963
 30
0.0
 10
-7.53118
 20
14.03963
 30
0.0
 10
-7.53118
 20
14.03963
 30
0.0
 10
-7.56122
 20
14.00579
 30
0.0
 10
-7.56122
 20
14.00579
 30
0.0
 10
-7.56122
 20
14.00579
 30
0.0
 10
-7.55142
 20
13.99121
 30
0.0
 10
-7.54483
 20
13.97844
 30
0.0
 10
-7.54139
 20
13.96753
 30
0.0
 10
-7.54139
 20
13.96753
 30
0.0
 10
-7.53684
 20
13.95318
 30
0.0
 10
-7.53456
 20
13.93708
 30
0.0
 10
-7.53456
 20
13.91934
 30
0.0
 10
-7.53456
 20
13.91934
 30
0.0
 10
-7.53456
 20
13.89368
 30
0.0
 10
-7.53975
 20
13.87081
 30
0.0
 10
-7.55014
 20
13.8508
 30
0.0
 10
-7.55014
 20
13.8508
 30
0.0
 10
-7.56052
 20
13.83074
 30
0.0
 10
-7.57504
 20
13.81557
 30
0.0
 10
-7.59377
 20
13.8053
 30
0.0
 10
-7.59377
 20
13.8053
 30
0.0
 10
-7.61255
 20
13.79509
 30
0.0
 10
-7.63244
 20
13.78996
 30
0.0
 10
-7.6535
 20
13.78996
 30
0.0
 10
-7.6535
 20
13.78996
 30
0.0
 10
-7.66925
 20
13.78996
 30
0.0
 10
-7.68349
 20
13.79218
 30
0.0
 10
-7.69626
 20
13.79661
 30
0.0
 10
-7.69626
 20
13.79661
 30
0.0
 10
-7.70606
 20
13.80005
 30
0.0
 10
-7.71749
 20
13.80659
 30
0.0
 10
-7.73062
 20
13.81627
 30
0.0
 10
-7.73062
 20
13.81627
 30
0.0
 10
-7.73062
 20
13.81627
 30
0.0
 10
-7.75932
 20
13.78413
 30
0.0
 10
-7.75932
 20
13.78413
 30
0.0
 10
-7.75932
 20
13.78413
 30
0.0
 10
-7.75932
 20
13.78413
 30
0.0
 10
-7.77624
 20
13.79848
 30
0.0
 10
-7.77624
 20
13.79848
 30
0.0
 10
-7.77624
 20
13.79848
 30
0.0
 10
-7.77624
 20
13.79848
 30
0.0
 10
-7.74614
 20
13.83214
 30
0.0
 10
-7.74614
 20
13.83214
 30
0.0
 10
-7.74614
 20
13.83214
 30
0.0
 10
-7.75734
 20
13.84911
 30
0.0
 10
-7.7648
 20
13.86364
 30
0.0
 10
-7.76854
 20
13.87565
 30
0.0
 10
-7.76854
 20
13.87565
 30
0.0
 10
-7.77227
 20
13.88767
 30
0.0
 10
-7.77419
 20
13.90214
 30
0.0
 10
-7.77419
 20
13.91899
 30
0.0
 10
-7.77419
 20
13.91899
 30
0.0
 10
-7.77419
 20
13.94472
 30
0.0
 10
-7.76906
 20
13.96764
 30
0.0
 10
-7.75879
 20
13.98777
 30
0.0
 10
-7.75879
 20
13.98777
 30
0.0
 10
-7.74853
 20
14.00789
 30
0.0
 10
-7.73418
 20
14.02312
 30
0.0
 10
-7.71563
 20
14.0335
 30
0.0
 10
-7.71563
 20
14.0335
 30
0.0
 10
-7.69714
 20
14.04383
 30
0.0
 10
-7.67654
 20
14.04902
 30
0.0
 10
-7.65385
 20
14.04902
 30
0.0
 10
-7.65385
 20
14.04902
 30
0.0
 10
-7.63857
 20
14.04902
 30
0.0
 10
-7.62521
 20
14.04704
 30
0.0
 10
-7.61378
 20
14.04295
 30
0.0
 10
-7.61378
 20
14.04295
 30
0.0
 10
-7.60234
 20
14.03893
 30
0.0
 10
-7.58998
 20
14.03187
 30
0.0
 10
-7.57679
 20
14.02184
 30
0.0
  0
SPLINE
  5
A1
330
1F
100
AcDbEntity
  8
0
100
AcDbSpline
210
0.0
220
0.0
230
1.0
 70
    11
 71
     3
 72
    32
 73
    28
 74
     0
 42
0.0000000001
 43
0.0000000001
 40
0.0
 40
0.0
 40
0.0
 40
0.0
 40
0.125
 40
0.125
 40
0.125
 40
0.125
 40
0.25
 40
0.25
 40
0.25
 40
0.25
 40
0.375
 40
0.375
 40
0.375
 40
0.375
 40
0.5
 40
0.5
 40
0.5
 40
0.5
 40
0.625
 40
0.625
 40
0.625
 40
0.625
 40
0.75
 40
0.75
 40
0.75
 40
0.75
 40
1.0
 40
1.0
 40
1.0
 40
1.0
 10
-7.59727
 20
13.99879
 30
0.0
 10
-7.608
 20
14.00719
 30
0.0
 10
-7.61739
 20
14.01297
 30
0.0
 10
-7.62539
 20
14.01606
 30
0.0
 10
-7.62539
 20
14.01606
 30
0.0
 10
-7.63344
 20
14.01909
 30
0.0
 10
-7.64289
 20
14.02067
 30
0.0
 10
-7.65368
 20
14.02067
 30
0.0
 10
-7.65368
 20
14.02067
 30
0.0
 10
-7.67864
 20
14.02067
 30
0.0
 10
-7.69924
 20
14.01221
 30
0.0
 10
-7.71557
 20
13.99529
 30
0.0
 10
-7.71557
 20
13.99529
 30
0.0
 10
-7.73184
 20
13.97838
 30
0.0
 10
-7.74001
 20
13.95312
 30
0.0
 10
-7.74001
 20
13.91946
 30
0.0
 10
-7.74001
 20
13.91946
 30
0.0
 10
-7.74001
 20
13.90628
 30
0.0
 10
-7.73873
 20
13.89455
 30
0.0
 10
-7.73622
 20
13.88429
 30
0.0
 10
-7.73622
 20
13.88429
 30
0.0
 10
-7.73441
 20
13.87664
 30
0.0
 10
-7.73062
 20
13.86725
 30
0.0
 10
-7.72479
 20
13.85611
 30
0.0
 10
-7.72479
 20
13.85611
 30
0.0
 10
-7.72479
 20
13.85611
 30
0.0
 10
-7.59727
 20
13.99879
 30
0.0
 10
-7.59727
 20
13.99879
 30
0.0
  0
SPLINE
  5
A2
330
1F
100
AcDbEntity
  8
0
100
AcDbSpline
210
0.0
220
0.0
230
1.0
 70
    11
 71
     3
 72
    28
 73
    24
 74
     0
 42
0.0000000001
 43
0.0000000001
 40
0.0
 40
0.0
 40
0.0
 40
0.0
 40
0.1428571428571428
 40
0.1428571428571428
 40
0.1428571428571428
 40
0.1428571428571428
 40
0.2857142857142857
 40
0.2857142857142857
 40
0.2857142857142857
 40
0.2857142857142857
 40
0.4285714285714285
 40
0.4285714285714285
 40
0.4285714285714285
 40
0.4285714285714285
 40
0.5714285714285714
 40
0.5714285714285714
 40
0.5714285714285714
 40
0.5714285714285714
 40
0.7142857142857143
 40
0.7142857142857143
 40
0.7142857142857143
 40
0.7142857142857143
 40
1.0
 40
1.0
 40
1.0
 40
1.0
 10
-7.58327
 20
13.98118
 30
0.0
 10
-7.58327
 20
13.98118
 30
0.0
 10
-7.71026
 20
13.83902
 30
0.0
 10
-7.71026
 20
13.83902
 30
0.0
 10
-7.71026
 20
13.83902
 30
0.0
 10
-7.70151
 20
13.83184
 30
0.0
 10
-7.6934
 20
13.82683
 30
0.0
 10
-7.68599
 20
13.82397
 30
0.0
 10
-7.68599
 20
13.82397
 30
0.0
 10
-7.67631
 20
13.82018
 30
0.0
 10
-7.66581
 20
13.81831
 30
0.0
 10
-7.65455
 20
13.81831
 30
0.0
 10
-7.65455
 20
13.81831
 30
0.0
 10
-7.6297
 20
13.81831
 30
0.0
 10
-7.60923
 20
13.82706
 30
0.0
 10
-7.59301
 20
13.84462
 30
0.0
 10
-7.59301
 20
13.84462
 30
0.0
 10
-7.57685
 20
13.86218
 30
0.0
 10
-7.56874
 20
13.88679
 30
0.0
 10
-7.56874
 20
13.91847
 30
0.0
 10
-7.56874
 20
13.91847
 30
0.0
 10
-7.56874
 20
13.94215
 30
0.0
 10
-7.57359
 20
13.96309
 30
0.0
 10
-7.58327
 20
13.98118
 30
0.0
  0
SPLINE
  5
A3
330
1F
100
AcDbEntity
  8
0
100
AcDbSpline
210
0.0
220
0.0
230
1.0
 70
    11
 71
     3
 72
    48
 73
    44
 74
     0
 42
0.0000000001
 43
0.0000000001
 40
0.0
 40
0.0
 40
0.0
 40
0.0
 40
0.0833333333333333
 40
0.0833333333333333
 40
0.0833333333333333
 40
0.0833333333333333
 40
0.1666666666666667
 40
0.1666666666666667
 40
0.1666666666666667
 40
0.1666666666666667
 40
0.25
 40
0.25
 40
0.25
 40
0.25
 40
0.3333333333333333
 40
0.3333333333333333
 40
0.3333333333333333
 40
0.3333333333333333
 40
0.4166666666666667
 40
0.4166666666666667
 40
0.4166666666666667
 40
0.4166666666666667
 40
0.5
 40
0.5
 40
0.5
 40
0.5
 40
0.5833333333333334
 40
0.5833333333333334
 40
0.5833333333333334
 40
0.5833333333333334
 40
0.6666666666666666
 40
0.6666666666666666
 40
0.6666666666666666
 40
0.6666666666666666
 40
0.75
 40
0.75
 40
0.75
 40
0.75
 40
0.8333333333333334
 40
0.8333333333333334
 40
0.8333333333333334
 40
0.8333333333333334
 40
1.0
 40
1.0
 40
1.0
 40
1.0
 10
-7.246
 20
14.01726
 30
0.0
 10
-7.246
 20
14.01726
 30
0.0
 10
-7.246
 20
14.04683
 30
0.0
 10
-7.246
 20
14.04683
 30
0.0
 10
-7.246
 20
14.04683
 30
0.0
 10
-7.246
 20
14.04683
 30
0.0
 10
-7.08384
 20
14.04683
 30
0.0
 10
-7.08384
 20
14.04683
 30
0.0
 10
-7.08384
 20
14.04683
 30
0.0
 10
-7.08384
 20
14.04683
 30
0.0
 10
-7.08384
 20
14.02292
 30
0.0
 10
-7.08384
 20
14.02292
 30
0.0
 10
-7.08384
 20
14.02292
 30
0.0
 10
-7.09976
 20
14.00594
 30
0.0
 10
-7.11557
 20
13.98337
 30
0.0
 10
-7.13126
 20
13.95525
 30
0.0
 10
-7.13126
 20
13.95525
 30
0.0
 10
-7.1469
 20
13.92713
 30
0.0
 10
-7.15903
 20
13.89814
 30
0.0
 10
-7.16755
 20
13.86845
 30
0.0
 10
-7.16755
 20
13.86845
 30
0.0
 10
-7.17373
 20
13.84745
 30
0.0
 10
-7.17764
 20
13.82453
 30
0.0
 10
-7.17933
 20
13.79956
 30
0.0
 10
-7.17933
 20
13.79956
 30
0.0
 10
-7.17933
 20
13.79956
 30
0.0
 10
-7.21095
 20
13.79956
 30
0.0
 10
-7.21095
 20
13.79956
 30
0.0
 10
-7.21095
 20
13.79956
 30
0.0
 10
-7.2106
 20
13.81928
 30
0.0
 10
-7.20675
 20
13.84308
 30
0.0
 10
-7.19934
 20
13.87102
 30
0.0
 10
-7.19934
 20
13.87102
 30
0.0
 10
-7.19193
 20
13.8989
 30
0.0
 10
-7.18131
 20
13.92585
 30
0.0
 10
-7.16749
 20
13.95175
 30
0.0
 10
-7.16749
 20
13.95175
 30
0.0
 10
-7.1536
 20
13.97765
 30
0.0
 10
-7.1389
 20
13.99953
 30
0.0
 10
-7.12327
 20
14.01726
 30
0.0
 10
-7.12327
 20
14.01726
 30
0.0
 10
-7.12327
 20
14.01726
 30
0.0
 10
-7.246
 20
14.01726
 30
0.0
 10
-7.246
 20
14.01726
 30
0.0
  0
SPLINE
  5
A4
330
1F
100
AcDbEntity
  8
0
100
AcDbSpline
210
0.0
220
0.0
230
1.0
 70
    11
 71
     3
 72
    92
 73
    88
 74
     0
 42
0.0000000001
 43
0.0000000001
 40
0.0
 40
0.0
 40
0.0
 40
0.0
 40
0.0434782608695652
 40
0.0434782608695652
 40
0.0434782608695652
 40
0.0434782608695652
 40
0.0869565217391304
 40
0.0869565217391304
 40
0.0869565217391304
 40
0.0869565217391304
 40
0.1304347826086956
 40
0.1304347826086956
 40
0.1304347826086956
 40
0.1304347826086956
 40
0.1739130434782609
 40
0.1739130434782609
 40
0.1739130434782609
 40
0.1739130434782609
 40
0.2173913043478261
 40
0.2173913043478261
 40
0.2173913043478261
 40
0.2173913043478261
 40
0.2608695652173913
 40
0.2608695652173913
 40
0.2608695652173913
 40
0.2608695652173913
 40
0.3043478260869565
 40
0.3043478260869565
 40
0.3043478260869565
 40
0.3043478260869565
 40
0.3478260869565217
 40
0.3478260869565217
 40
0.3478260869565217
 40
0.3478260869565217
 40
0.391304347826087
 40
0.391304347826087
 40
0.391304347826087
 40
0.391304347826087
 40
0.4347826086956522
 40
0.4347826086956522
 40
0.4347826086956522
 40
0.4347826086956522
 40
0.4782608695652174
 40
0.4782608695652174
 40
0.4782608695652174
 40
0.4782608695652174
 40
0.5217391304347826
 40
0.5217391304347826
 40
0.5217391304347826
 40
0.5217391304347826
 40
0.5652173913043478
 40
0.5652173913043478
 40
0.5652173913043478
 40
0.5652173913043478
 40
0.6086956521739131
 40
0.6086956521739131
 40
0.6086956521739131
 40
0.6086956521739131
 40
0.6521739130434783
 40
0.6521739130434783
 40
0.6521739130434783
 40
0.6521739130434783
 40
0.6956521739130435
 40
0.6956521739130435
 40
0.6956521739130435
 40
0.6956521739130435
 40
0.7391304347826086
 40
0.7391304347826086
 40
0.7391304347826086
 40
0.7391304347826086
 40
0.782608695652174
 40
0.782608695652174
 40
0.782608695652174
 40
0.782608695652174
 40
0.8260869565217391
 40
0.8260869565217391
 40
0.8260869565217391
 40
0.8260869565217391
 40
0.8695652173913043
 40
0.8695652173913043
 40
0.8695652173913043
 40
0.8695652173913043
 40
0.9130434782608695
 40
0.9130434782608695
 40
0.9130434782608695
 40
0.9130434782608695
 40
1.0
 40
1.0
 40
1.0
 40
1.0
 10
-7.05339
 20
13.86518
 30
0.0
 10
-7.05339
 20
13.86518
 30
0.0
 10
-7.02107
 20
13.86793
 30
0.0
 10
-7.02107
 20
13.86793
 30
0.0
 10
-7.02107
 20
13.86793
 30
0.0
 10
-7.01868
 20
13.85218
 30
0.0
 10
-7.01314
 20
13.84039
 30
0.0
 10
-7.00444
 20
13.83246
 30
0.0
 10
-7.00444
 20
13.83246
 30
0.0
 10
-6.99569
 20
13.82453
 30
0.0
 10
-6.98519
 20
13.82056
 30
0.0
 10
-6.97289
 20
13.82056
 30
0.0
 10
-6.97289
 20
13.82056
 30
0.0
 10
-6.95807
 20
13.82056
 30
0.0
 10
-6.94553
 20
13.82616
 30
0.0
 10
-6.93532
 20
13.8373
 30
0.0
 10
-6.93532
 20
13.8373
 30
0.0
 10
-6.92505
 20
13.8485
 30
0.0
 10
-6.91992
 20
13.86332
 30
0.0
 10
-6.91992
 20
13.88175
 30
0.0
 10
-6.91992
 20
13.88175
 30
0.0
 10
-6.91992
 20
13.89931
 30
0.0
 10
-6.92482
 20
13.91313
 30
0.0
 10
-6.93468
 20
13.92328
 30
0.0
 10
-6.93468
 20
13.92328
 30
0.0
 10
-6.94454
 20
13.93343
 30
0.0
 10
-6.95743
 20
13.93851
 30
0.0
 10
-6.97341
 20
13.93851
 30
0.0
 10
-6.97341
 20
13.93851
 30
0.0
 10
-6.98333
 20
13.93851
 30
0.0
 10
-6.99225
 20
13.93623
 30
0.0
 10
-7.00024
 20
13.93174
 30
0.0
 10
-7.00024
 20
13.93174
 30
0.0
 10
-7.00824
 20
13.92725
 30
0.0
 10
-7.01448
 20
13.92142
 30
0.0
 10
-7.01903
 20
13.91424
 30
0.0
 10
-7.01903
 20
13.91424
 30
0.0
 10
-7.01903
 20
13.91424
 30
0.0
 10
-7.0479
 20
13.91798
 30
0.0
 10
-7.0479
 20
13.91798
 30
0.0
 10
-7.0479
 20
13.91798
 30
0.0
 10
-7.0479
 20
13.91798
 30
0.0
 10
-7.02364
 20
14.04666
 30
0.0
 10
-7.02364
 20
14.04666
 30
0.0
 10
-7.02364
 20
14.04666
 30
0.0
 10
-7.02364
 20
14.04666
 30
0.0
 10
-6.89904
 20
14.04666
 30
0.0
 10
-6.89904
 20
14.04666
 30
0.0
 10
-6.89904
 20
14.04666
 30
0.0
 10
-6.89904
 20
14.04666
 30
0.0
 10
-6.89904
 20
14.01726
 30
0.0
 10
-6.89904
 20
14.01726
 30
0.0
 10
-6.89904
 20
14.01726
 30
0.0
 10
-6.89904
 20
14.01726
 30
0.0
 10
-6.99902
 20
14.01726
 30
0.0
 10
-6.99902
 20
14.01726
 30
0.0
 10
-6.99902
 20
14.01726
 30
0.0
 10
-6.99902
 20
14.01726
 30
0.0
 10
-7.01255
 20
13.94994
 30
0.0
 10
-7.01255
 20
13.94994
 30
0.0
 10
-7.01255
 20
13.94994
 30
0.0
 10
-6.9975
 20
13.96044
 30
0.0
 10
-6.98169
 20
13.96569
 30
0.0
 10
-6.96519
 20
13.96569
 30
0.0
 10
-6.96519
 20
13.96569
 30
0.0
 10
-6.94331
 20
13.96569
 30
0.0
 10
-6.92488
 20
13.95811
 30
0.0
 10
-6.90983
 20
13.94294
 30
0.0
 10
-6.90983
 20
13.94294
 30
0.0
 10
-6.89478
 20
13.92778
 30
0.0
 10
-6.88725
 20
13.90829
 30
0.0
 10
-6.88725
 20
13.88449
 30
0.0
 10
-6.88725
 20
13.88449
 30
0.0
 10
-6.88725
 20
13.8618
 30
0.0
 10
-6.8939
 20
13.8422
 30
0.0
 10
-6.90709
 20
13.82569
 30
0.0
 10
-6.90709
 20
13.82569
 30
0.0
 10
-6.92319
 20
13.80545
 30
0.0
 10
-6.94512
 20
13.7953
 30
0.0
 10
-6.97289
 20
13.7953
 30
0.0
 10
-6.97289
 20
13.7953
 30
0.0
 10
-6.99569
 20
13.7953
 30
0.0
 10
-7.0143
 20
13.80166
 30
0.0
 10
-7.02871
 20
13.81443
 30
0.0
 10
-7.02871
 20
13.81443
 30
0.0
 10
-7.04312
 20
13.82721
 30
0.0
 10
-7.05134
 20
13.84413
 30
0.0
 10
-7.05339
 20
13.86518
 30
0.0
  0
SPLINE
  5
A5
330
1F
100
AcDbEntity
  8
0
100
AcDbSpline
210
0.0
220
0.0
230
1.0
 70
    27
 71
     3
 72
    12
 73
     8
 74
     0
 42
0.0000000001
 43
0.0000000001
 40
0.0
 40
0.0
 40
0.0
 40
0.0
 40
0.3333333333333333
 40
0.3333333333333333
 40
0.3333333333333333
 40
0.3333333333333333
 40
1.0
 40
1.0
 40
1.0
 40
1.0
 10
-4.12654
 20
13.22182
 30
0.0
 10
-4.12654
 20
13.22182
 30
0.0
 10
-4.07574
 20
12.89162
 30
0.0
 10
-4.07574
 20
12.89162
 30
0.0
 10
-4.07574
 20
12.89162
 30
0.0
 10
-4.07574
 20
12.89162
 30
0.0
 10
-4.12654
 20
13.22182
 30
0.0
 10
-4.12654
 20
13.22182
 30
0.0
  0
SPLINE
  5
A6
330
1F
100
AcDbEntity
  8
0
100
AcDbSpline
210
0.0
220
0.0
230
1.0
 70
     8
 71
     3
 72
    12
 73
     8
 74
     0
 42
0.0000000001
 43
0.0000000001
 40
0.0
 40
0.0
 40
0.0
 40
0.0
 40
0.3333333333333333
 40
0.3333333333333333
 40
0.3333333333333333
 40
0.3333333333333333
 40
1.0
 40
1.0
 40
1.0
 40
1.0
 10
-4.07574
 20
12.89162
 30
0.0
 10
-4.07574
 20
12.89162
 30
0.0
 10
-4.17734
 20
12.89162
 30
0.0
 10
-4.17734
 20
12.89162
 30
0.0
 10
-4.17734
 20
12.89162
 30
0.0
 10
-4.17734
 20
12.89162
 30
0.0
 10
-4.12654
 20
13.22182
 30
0.0
 10
-4.12654
 20
13.22182
 30
0.0
  0
SPLINE
  5
A7
330
1F
100
AcDbEntity
  8
0
370
     9
100
AcDbSpline
210
0.0
220
0.0
230
1.0
 70
    24
 71
     3
 72
     8
 73
     4
 74
     0
 42
0.0000000001
 43
0.0000000001
 40
0.0
 40
0.0
 40
0.0
 40
0.0
 40
1.0
 40
1.0
 40
1.0
 40
1.0
 10
-4.12654
 20
13.22182
 30
0.0
 10
-4.12654
 20
13.22182
 30
0.0
 10
-4.07574
 20
12.89162
 30
0.0
 10
-4.07574
 20
12.89162
 30
0.0
  0
SPLINE
  5
A8
330
1F
100
AcDbEntity
  8
0
370
     9
100
AcDbSpline
210
0.0
220
0.0
230
1.0
 70
     8
 71
     3
 72
    12
 73
     8
 74
     0
 42
0.0000000001
 43
0.0000000001
 40
0.0
 40
0.0
 40
0.0
 40
0.0
 40
0.3333333333333333
 40
0.3333333333333333
 40
0.3333333333333333
 40
0.3333333333333333
 40
1.0
 40
1.0
 40
1.0
 40
1.0
 10
-4.07574
 20
12.89162
 30
0.0
 10
-4.07574
 20
12.89162
 30
0.0
 10
-4.17734
 20
12.89162
 30
0.0
 10
-4.17734
 20
12.89162
 30
0.0
 10
-4.17734
 20
12.89162
 30
0.0
 10
-4.17734
 20
12.89162
 30
0.0
 10
-4.12654
 20
13.22182
 30
0.0
 10
-4.12654
 20
13.22182
 30
0.0
  0
SPLINE
  5
A9
330
1F
100
AcDbEntity
  8
0
100
AcDbSpline
210
0.0
220
0.0
230
1.0
 70
    27
 71
     3
 72
    12
 73
     8
 74
     0
 42
0.0000000001
 43
0.0000000001
 40
0.0
 40
0.0
 40
0.0
 40
0.0
 40
0.3333333333333333
 40
0.3333333333333333
 40
0.3333333333333333
 40
0.3333333333333333
 40
1.0
 40
1.0
 40
1.0
 40
1.0
 10
-4.12654
 20
5.67182
 30
0.0
 10
-4.12654
 20
5.67182
 30
0.0
 10
-4.17734
 20
6.00202
 30
0.0
 10
-4.17734
 20
6.00202
 30
0.0
 10
-4.17734
 20
6.00202
 30
0.0
 10
-4.17734
 20
6.00202
 30
0.0
 10
-4.12654
 20
5.67182
 30
0.0
 10
-4.12654
 20
5.67182
 30
0.0
  0
SPLINE
  5
AA
330
1F
100
AcDbEntity
  8
0
100
AcDbSpline
210
0.0
220
0.0
230
1.0
 70
     8
 71
     3
 72
    12
 73
     8
 74
     0
 42
0.0000000001
 43
0.0000000001
 40
0.0
 40
0.0
 40
0.0
 40
0.0
 40
0.3333333333333333
 40
0.3333333333333333
 40
0.3333333333333333
 40
0.3333333333333333
 40
1.0
 40
1.0
 40
1.0
 40
1.0
 10
-4.17734
 20
6.00202
 30
0.0
 10
-4.17734
 20
6.00202
 30
0.0
 10
-4.07574
 20
6.00202
 30
0.0
 10
-4.07574
 20
6.00202
 30
0.0
 10
-4.07574
 20
6.00202
 30
0.0
 10
-4.07574
 20
6.00202
 30
0.0
 10
-4.12654
 20
5.67182
 30
0.0
 10
-4.12654
 20
5.67182
 30
0.0
  0
SPLINE
  5
AB
330
1F
100
AcDbEntity
  8
0
370
     9
100
AcDbSpline
210
0.0
220
0.0
230
1.0
 70
    24
 71
     3
 72
     8
 73
     4
 74
     0
 42
0.0000000001
 43
0.0000000001
 40
0.0
 40
0.0
 40
0.0
 40
0.0
 40
1.0
 40
1.0
 40
1.0
 40
1.0
 10
-4.12654
 20
5.67182
 30
0.0
 10
-4.12654
 20
5.67182
 30
0.0
 10
-4.17734
 20
6.00202
 30
0.0
 10
-4.17734
 20
6.00202
 30
0.0
  0
SPLINE
  5
AC
330
1F
100
AcDbEntity
  8
0
370
     9
100
AcDbSpline
210
0.0
220
0.0
230
1.0
 70
     8
 71
     3
 72
    12
 73
     8
 74
     0
 42
0.0000000001
 43
0.0000000001
 40
0.0
 40
0.0
 40
0.0
 40
0.0
 40
0.3333333333333333
 40
0.3333333333333333
 40
0.3333333333333333
 40
0.3333333333333333
 40
1.0
 40
1.0
 40
1.0
 40
1.0
 10
-4.17734
 20
6.00202
 30
0.0
 10
-4.17734
 20
6.00202
 30
0.0
 10
-4.07574
 20
6.00202
 30
0.0
 10
-4.07574
 20
6.00202
 30
0.0
 10
-4.07574
 20
6.00202
 30
0.0
 10
-4.07574
 20
6.00202
 30
0.0
 10
-4.12654
 20
5.67182
 30
0.0
 10
-4.12654
 20
5.67182
 30
0.0
  0
SPLINE
  5
AD
330
1F
100
AcDbEntity
  8
0
370
     9
100
AcDbSpline
210
0.0
220
0.0
230
1.0
 70
    24
 71
     3
 72
     8
 73
     4
 74
     0
 42
0.0000000001
 43
0.0000000001
 40
0.0
 40
0.0
 40
0.0
 40
0.0
 40
1.0
 40
1.0
 40
1.0
 40
1.0
 10
-6.32793
 20
13.22182
 30
0.0
 10
-6.32793
 20
13.22182
 30
0.0
 10
-4.02654
 20
13.22182
 30
0.0
 10
-4.02654
 20
13.22182
 30
0.0
  0
SPLINE
  5
AE
330
1F
100
AcDbEntity
  8
0
370
     9
100
AcDbSpline
210
0.0
220
0.0
230
1.0
 70
    24
 71
     3
 72
     8
 73
     4
 74
     0
 42
0.0000000001
 43
0.0000000001
 40
0.0
 40
0.0
 40
0.0
 40
0.0
 40
1.0
 40
1.0
 40
1.0
 40
1.0
 10
-5.60293
 20
5.67182
 30
0.0
 10
-5.60293
 20
5.67182
 30
0.0
 10
-4.02654
 20
5.67182
 30
0.0
 10
-4.02654
 20
5.67182
 30
0.0
  0
SPLINE
  5
AF
330
1F
100
AcDbEntity
  8
0
370
     9
100
AcDbSpline
210
0.0
220
0.0
230
1.0
 70
    24
 71
     3
 72
     8
 73
     4
 74
     0
 42
0.0000000001
 43
0.0000000001
 40
0.0
 40
0.0
 40
0.0
 40
0.0
 40
1.0
 40
1.0
 40
1.0
 40
1.0
 10
-4.12654
 20
13.22182
 30
0.0
 10
-4.12654
 20
13.22182
 30
0.0
 10
-4.12654
 20
5.67182
 30
0.0
 10
-4.12654
 20
5.67182
 30
0.0
  0
SPLINE
  5
B0
330
1F
100
AcDbEntity
  8
0
370
    15
100
AcDbSpline
210
0.0
220
0.0
230
1.0
 70
    24
 71
     3
 72
     8
 73
     4
 74
     0
 42
0.0000000001
 43
0.0000000001
 40
0.0
 40
0.0
 40
0.0
 40
0.0
 40
1.0
 40
1.0
 40
1.0
 40
1.0
 10
3.81644
 20
11.38432
 30
0.0
 10
3.81644
 20
11.38432
 30
0.0
 10
3.81644
 20
10.69682
 30
0.0
 10
3.81644
 20
10.69682
 30
0.0
  0
SPLINE
  5
B1
330
1F
100
AcDbEntity
  8
0
370
    15
100
AcDbSpline
210
0.0
220
0.0
230
1.0
 70
    24
 71
     3
 72
     8
 73
     4
 74
     0
 42
0.0000000001
 43
0.0000000001
 40
0.0
 40
0.0
 40
0.0
 40
0.0
 40
1.0
 40
1.0
 40
1.0
 40
1.0
 10
5.46644
 20
10.69682
 30
0.0
 10
5.46644
 20
10.69682
 30
0.0
 10
5.46644
 20
11.38432
 30
0.0
 10
5.46644
 20
11.38432
 30
0.0
  0
SPLINE
  5
B2
330
1F
100
AcDbEntity
  8
0
370
    15
100
AcDbSpline
210
0.0
220
0.0
230
1.0
 70
     8
 71
     3
 72
    12
 73
     8
 74
     0
 42
0.0000000001
 43
0.0000000001
 40
0.0
 40
0.0
 40
0.0
 40
0.0
 40
0.3333333333333333
 40
0.3333333333333333
 40
0.3333333333333333
 40
0.3333333333333333
 40
1.0
 40
1.0
 40
1.0
 40
1.0
 10
3.82894
 20
11.39682
 30
0.0
 10
3.82562
 20
11.39682
 30
0.0
 10
3.82244
 20
11.3955
 30
0.0
 10
3.8201
 20
11.39315
 30
0.0
 10
3.8201
 20
11.39315
 30
0.0
 10
3.81775
 20
11.39081
 30
0.0
 10
3.81644
 20
11.38763
 30
0.0
 10
3.81644
 20
11.38432
 30
0.0
  0
SPLINE
  5
B3
330
1F
100
AcDbEntity
  8
0
370
    15
100
AcDbSpline
210
0.0
220
0.0
230
1.0
 70
     8
 71
     3
 72
    12
 73
     8
 74
     0
 42
0.0000000001
 43
0.0000000001
 40
0.0
 40
0.0
 40
0.0
 40
0.0
 40
0.3333333333333333
 40
0.3333333333333333
 40
0.3333333333333333
 40
0.3333333333333333
 40
1.0
 40
1.0
 40
1.0
 40
1.0
 10
5.46644
 20
11.38432
 30
0.0
 10
5.46644
 20
11.38763
 30
0.0
 10
5.46512
 20
11.39081
 30
0.0
 10
5.46277
 20
11.39315
 30
0.0
 10
5.46277
 20
11.39315
 30
0.0
 10
5.46043
 20
11.3955
 30
0.0
 10
5.45725
 20
11.39682
 30
0.0
 10
5.45394
 20
11.39682
 30
0.0
  0
SPLINE
  5
B4
330
1F
100
AcDbEntity
  8
0
370
    15
100
AcDbSpline
210
0.0
220
0.0
230
1.0
 70
     8
 71
     3
 72
     8
 73
     4
 74
     0
 42
0.0000000001
 43
0.0000000001
 40
0.0
 40
0.0
 40
0.0
 40
0.0
 40
1.0
 40
1.0
 40
1.0
 40
1.0
 10
4.09144
 20
11.39682
 30
0.0
 10
4.09834
 20
11.39682
 30
0.0
 10
4.10394
 20
11.40241
 30
0.0
 10
4.10394
 20
11.40932
 30
0.0
  0
SPLINE
  5
B5
330
1F
100
AcDbEntity
  8
0
370
    15
100
AcDbSpline
210
0.0
220
0.0
230
1.0
 70
     8
 71
     3
 72
    12
 73
     8
 74
     0
 42
0.0000000001
 43
0.0000000001
 40
0.0
 40
0.0
 40
0.0
 40
0.0
 40
0.3333333333333333
 40
0.3333333333333333
 40
0.3333333333333333
 40
0.3333333333333333
 40
1.0
 40
1.0
 40
1.0
 40
1.0
 10
5.17894
 20
11.40932
 30
0.0
 10
5.17894
 20
11.406
 30
0.0
 10
5.18025
 20
11.40282
 30
0.0
 10
5.1826
 20
11.40048
 30
0.0
 10
5.1826
 20
11.40048
 30
0.0
 10
5.18494
 20
11.39813
 30
0.0
 10
5.18812
 20
11.39682
 30
0.0
 10
5.19144
 20
11.39682
 30
0.0
  0
SPLINE
  5
B6
330
1F
100
AcDbEntity
  8
0
370
    15
100
AcDbSpline
210
0.0
220
0.0
230
1.0
 70
    24
 71
     3
 72
     8
 73
     4
 74
     0
 42
0.0000000001
 43
0.0000000001
 40
0.0
 40
0.0
 40
0.0
 40
0.0
 40
1.0
 40
1.0
 40
1.0
 40
1.0
 10
4.10394
 20
11.97182
 30
0.0
 10
4.10394
 20
11.97182
 30
0.0
 10
4.10394
 20
11.40932
 30
0.0
 10
4.10394
 20
11.40932
 30
0.0
  0
SPLINE
  5
B7
330
1F
100
AcDbEntity
  8
0
370
    15
100
AcDbSpline
210
0.0
220
0.0
230
1.0
 70
    24
 71
     3
 72
     8
 73
     4
 74
     0
 42
0.0000000001
 43
0.0000000001
 40
0.0
 40
0.0
 40
0.0
 40
0.0
 40
1.0
 40
1.0
 40
1.0
 40
1.0
 10
5.17894
 20
11.40932
 30
0.0
 10
5.17894
 20
11.40932
 30
0.0
 10
5.17894
 20
11.97182
 30
0.0
 10
5.17894
 20
11.97182
 30
0.0
  0
SPLINE
  5
B8
330
1F
100
AcDbEntity
  8
0
370
    15
100
AcDbSpline
210
0.0
220
0.0
230
1.0
 70
    24
 71
     3
 72
     8
 73
     4
 74
     0
 42
0.0000000001
 43
0.0000000001
 40
0.0
 40
0.0
 40
0.0
 40
0.0
 40
1.0
 40
1.0
 40
1.0
 40
1.0
 10
7.2403
 20
12.77182
 30
0.0
 10
7.2403
 20
12.77182
 30
0.0
 10
7.39144
 20
12.77182
 30
0.0
 10
7.39144
 20
12.77182
 30
0.0
  0
SPLINE
  5
B9
330
1F
100
AcDbEntity
  8
0
370
    15
100
AcDbSpline
210
0.0
220
0.0
230
1.0
 70
    24
 71
     3
 72
     8
 73
     4
 74
     0
 42
0.0000000001
 43
0.0000000001
 40
0.0
 40
0.0
 40
0.0
 40
0.0
 40
1.0
 40
1.0
 40
1.0
 40
1.0
 10
5.26644
 20
12.77182
 30
0.0
 10
5.26644
 20
12.77182
 30
0.0
 10
7.04174
 20
12.77182
 30
0.0
 10
7.04174
 20
12.77182
 30
0.0
  0
SPLINE
  5
BA
330
1F
100
AcDbEntity
  8
0
370
    15
100
AcDbSpline
210
0.0
220
0.0
230
1.0
 70
    24
 71
     3
 72
     8
 73
     4
 74
     0
 42
0.0000000001
 43
0.0000000001
 40
0.0
 40
0.0
 40
0.0
 40
0.0
 40
1.0
 40
1.0
 40
1.0
 40
1.0
 10
7.39144
 20
13.07182
 30
0.0
 10
7.39144
 20
13.07182
 30
0.0
 10
5.26644
 20
13.07182
 30
0.0
 10
5.26644
 20
13.07182
 30
0.0
  0
SPLINE
  5
BB
330
1F
100
AcDbEntity
  8
0
370
    15
100
AcDbSpline
210
0.0
220
0.0
230
1.0
 70
    24
 71
     3
 72
     8
 73
     4
 74
     0
 42
0.0000000001
 43
0.0000000001
 40
0.0
 40
0.0
 40
0.0
 40
0.0
 40
1.0
 40
1.0
 40
1.0
 40
1.0
 10
4.01644
 20
13.22182
 30
0.0
 10
4.01644
 20
13.22182
 30
0.0
 10
4.01644
 20
11.97182
 30
0.0
 10
4.01644
 20
11.97182
 30
0.0
  0
SPLINE
  5
BC
330
1F
100
AcDbEntity
  8
0
370
    15
100
AcDbSpline
210
0.0
220
0.0
230
1.0
 70
    24
 71
     3
 72
     8
 73
     4
 74
     0
 42
0.0000000001
 43
0.0000000001
 40
0.0
 40
0.0
 40
0.0
 40
0.0
 40
1.0
 40
1.0
 40
1.0
 40
1.0
 10
5.26644
 20
13.07182
 30
0.0
 10
5.26644
 20
13.07182
 30
0.0
 10
5.26644
 20
13.22182
 30
0.0
 10
5.26644
 20
13.22182
 30
0.0
  0
SPLINE
  5
BD
330
1F
100
AcDbEntity
  8
0
370
    15
100
AcDbSpline
210
0.0
220
0.0
230
1.0
 70
    24
 71
     3
 72
     8
 73
     4
 74
     0
 42
0.0000000001
 43
0.0000000001
 40
0.0
 40
0.0
 40
0.0
 40
0.0
 40
1.0
 40
1.0
 40
1.0
 40
1.0
 10
5.26644
 20
11.97182
 30
0.0
 10
5.26644
 20
11.97182
 30
0.0
 10
5.26644
 20
12.77182
 30
0.0
 10
5.26644
 20
12.77182
 30
0.0
  0
SPLINE
  5
BE
330
1F
100
AcDbEntity
  8
0
370
    15
100
AcDbSpline
210
0.0
220
0.0
230
1.0
 70
    24
 71
     3
 72
     8
 73
     4
 74
     0
 42
0.0000000001
 43
0.0000000001
 40
0.0
 40
0.0
 40
0.0
 40
0.0
 40
1.0
 40
1.0
 40
1.0
 40
1.0
 10
6.30394
 20
10.42182
 30
0.0
 10
6.30394
 20
10.42182
 30
0.0
 10
6.30394
 20
10.47182
 30
0.0
 10
6.30394
 20
10.47182
 30
0.0
  0
SPLINE
  5
BF
330
1F
100
AcDbEntity
  8
0
370
    15
100
AcDbSpline
210
0.0
220
0.0
230
1.0
 70
    24
 71
     3
 72
     8
 73
     4
 74
     0
 42
0.0000000001
 43
0.0000000001
 40
0.0
 40
0.0
 40
0.0
 40
0.0
 40
1.0
 40
1.0
 40
1.0
 40
1.0
 10
2.97894
 20
10.47182
 30
0.0
 10
2.97894
 20
10.47182
 30
0.0
 10
2.97894
 20
10.42182
 30
0.0
 10
2.97894
 20
10.42182
 30
0.0
  0
SPLINE
  5
C0
330
1F
100
AcDbEntity
  8
0
370
    15
100
AcDbSpline
210
0.0
220
0.0
230
1.0
 70
     8
 71
     3
 72
     8
 73
     4
 74
     0
 42
0.0000000001
 43
0.0000000001
 40
0.0
 40
0.0
 40
0.0
 40
0.0
 40
1.0
 40
1.0
 40
1.0
 40
1.0
 10
3.79144
 20
10.65423
 30
0.0
 10
3.51655
 20
10.61314
 30
0.0
 10
3.245
 20
10.55218
 30
0.0
 10
2.97894
 20
10.47182
 30
0.0
  0
SPLINE
  5
C1
330
1F
100
AcDbEntity
  8
0
370
    15
100
AcDbSpline
210
0.0
220
0.0
230
1.0
 70
     8
 71
     3
 72
     8
 73
     4
 74
     0
 42
0.0000000001
 43
0.0000000001
 40
0.0
 40
0.0
 40
0.0
 40
0.0
 40
1.0
 40
1.0
 40
1.0
 40
1.0
 10
6.30394
 20
10.47182
 30
0.0
 10
6.03787
 20
10.55218
 30
0.0
 10
5.76632
 20
10.61314
 30
0.0
 10
5.49144
 20
10.65423
 30
0.0
  0
SPLINE
  5
C2
330
1F
100
AcDbEntity
  8
0
370
    15
100
AcDbSpline
210
0.0
220
0.0
230
1.0
 70
    24
 71
     3
 72
     8
 73
     4
 74
     0
 42
0.0000000001
 43
0.0000000001
 40
0.0
 40
0.0
 40
0.0
 40
0.0
 40
1.0
 40
1.0
 40
1.0
 40
1.0
 10
5.49144
 20
10.65423
 30
0.0
 10
5.49144
 20
10.65423
 30
0.0
 10
5.49144
 20
10.67182
 30
0.0
 10
5.49144
 20
10.67182
 30
0.0
  0
SPLINE
  5
C3
330
1F
100
AcDbEntity
  8
0
370
    15
100
AcDbSpline
210
0.0
220
0.0
230
1.0
 70
    24
 71
     3
 72
     8
 73
     4
 74
     0
 42
0.0000000001
 43
0.0000000001
 40
0.0
 40
0.0
 40
0.0
 40
0.0
 40
1.0
 40
1.0
 40
1.0
 40
1.0
 10
3.79144
 20
10.67182
 30
0.0
 10
3.79144
 20
10.67182
 30
0.0
 10
3.79144
 20
10.65423
 30
0.0
 10
3.79144
 20
10.65423
 30
0.0
  0
SPLINE
  5
C4
330
1F
100
AcDbEntity
  8
0
370
    15
100
AcDbSpline
210
0.0
220
0.0
230
1.0
 70
     8
 71
     3
 72
    12
 73
     8
 74
     0
 42
0.0000000001
 43
0.0000000001
 40
0.0
 40
0.0
 40
0.0
 40
0.0
 40
0.3333333333333333
 40
0.3333333333333333
 40
0.3333333333333333
 40
0.3333333333333333
 40
1.0
 40
1.0
 40
1.0
 40
1.0
 10
5.49144
 20
10.67182
 30
0.0
 10
5.49144
 20
10.67845
 30
0.0
 10
5.4888
 20
10.6848
 30
0.0
 10
5.48411
 20
10.68949
 30
0.0
 10
5.48411
 20
10.68949
 30
0.0
 10
5.47942
 20
10.69418
 30
0.0
 10
5.47307
 20
10.69682
 30
0.0
 10
5.46644
 20
10.69682
 30
0.0
  0
SPLINE
  5
C5
330
1F
100
AcDbEntity
  8
0
370
    15
100
AcDbSpline
210
0.0
220
0.0
230
1.0
 70
     8
 71
     3
 72
    12
 73
     8
 74
     0
 42
0.0000000001
 43
0.0000000001
 40
0.0
 40
0.0
 40
0.0
 40
0.0
 40
0.3333333333333333
 40
0.3333333333333333
 40
0.3333333333333333
 40
0.3333333333333333
 40
1.0
 40
1.0
 40
1.0
 40
1.0
 10
3.81644
 20
10.69682
 30
0.0
 10
3.8098
 20
10.69682
 30
0.0
 10
3.80345
 20
10.69418
 30
0.0
 10
3.79876
 20
10.68949
 30
0.0
 10
3.79876
 20
10.68949
 30
0.0
 10
3.79407
 20
10.6848
 30
0.0
 10
3.79144
 20
10.67845
 30
0.0
 10
3.79144
 20
10.67182
 30
0.0
  0
SPLINE
  5
C6
330
1F
100
AcDbEntity
  8
0
370
    15
100
AcDbSpline
210
0.0
220
0.0
230
1.0
 70
     8
 71
     3
 72
     8
 73
     4
 74
     0
 42
0.0000000001
 43
0.0000000001
 40
0.0
 40
0.0
 40
0.0
 40
0.0
 40
1.0
 40
1.0
 40
1.0
 40
1.0
 10
2.94144
 20
9.01936
 30
0.0
 10
2.94144
 20
8.94883
 30
0.0
 10
2.96629
 20
8.88055
 30
0.0
 10
3.01162
 20
8.82652
 30
0.0
  0
SPLINE
  5
C7
330
1F
100
AcDbEntity
  8
0
370
    15
100
AcDbSpline
210
0.0
220
0.0
230
1.0
 70
     8
 71
     3
 72
     8
 73
     4
 74
     0
 42
0.0000000001
 43
0.0000000001
 40
0.0
 40
0.0
 40
0.0
 40
0.0
 40
1.0
 40
1.0
 40
1.0
 40
1.0
 10
6.27125
 20
8.82652
 30
0.0
 10
6.31658
 20
8.88055
 30
0.0
 10
6.34143
 20
8.94883
 30
0.0
 10
6.34144
 20
9.01936
 30
0.0
  0
SPLINE
  5
C8
330
1F
100
AcDbEntity
  8
0
370
    15
100
AcDbSpline
210
0.0
220
0.0
230
1.0
 70
     8
 71
     3
 72
    12
 73
     8
 74
     0
 42
0.0000000001
 43
0.0000000001
 40
0.0
 40
0.0
 40
0.0
 40
0.0
 40
0.3333333333333333
 40
0.3333333333333333
 40
0.3333333333333333
 40
0.3333333333333333
 40
1.0
 40
1.0
 40
1.0
 40
1.0
 10
6.34144
 20
10.39682
 30
0.0
 10
6.34144
 20
10.40345
 30
0.0
 10
6.3388
 20
10.4098
 30
0.0
 10
6.33411
 20
10.41449
 30
0.0
 10
6.33411
 20
10.41449
 30
0.0
 10
6.32942
 20
10.41918
 30
0.0
 10
6.32307
 20
10.42182
 30
0.0
 10
6.31644
 20
10.42182
 30
0.0
  0
SPLINE
  5
C9
330
1F
100
AcDbEntity
  8
0
370
    15
100
AcDbSpline
210
0.0
220
0.0
230
1.0
 70
     8
 71
     3
 72
    12
 73
     8
 74
     0
 42
0.0000000001
 43
0.0000000001
 40
0.0
 40
0.0
 40
0.0
 40
0.0
 40
0.3333333333333333
 40
0.3333333333333333
 40
0.3333333333333333
 40
0.3333333333333333
 40
1.0
 40
1.0
 40
1.0
 40
1.0
 10
2.96644
 20
10.42182
 30
0.0
 10
2.9598
 20
10.42182
 30
0.0
 10
2.95345
 20
10.41918
 30
0.0
 10
2.94876
 20
10.41449
 30
0.0
 10
2.94876
 20
10.41449
 30
0.0
 10
2.94407
 20
10.4098
 30
0.0
 10
2.94144
 20
10.40345
 30
0.0
 10
2.94144
 20
10.39682
 30
0.0
  0
SPLINE
  5
CA
330
1F
100
AcDbEntity
  8
0
370
    15
100
AcDbSpline
210
0.0
220
0.0
230
1.0
 70
    24
 71
     3
 72
     8
 73
     4
 74
     0
 42
0.0000000001
 43
0.0000000001
 40
0.0
 40
0.0
 40
0.0
 40
0.0
 40
1.0
 40
1.0
 40
1.0
 40
1.0
 10
6.34144
 20
9.01936
 30
0.0
 10
6.34144
 20
9.01936
 30
0.0
 10
6.34144
 20
10.39682
 30
0.0
 10
6.34144
 20
10.39682
 30
0.0
  0
SPLINE
  5
CB
330
1F
100
AcDbEntity
  8
0
370
    15
100
AcDbSpline
210
0.0
220
0.0
230
1.0
 70
    24
 71
     3
 72
     8
 73
     4
 74
     0
 42
0.0000000001
 43
0.0000000001
 40
0.0
 40
0.0
 40
0.0
 40
0.0
 40
1.0
 40
1.0
 40
1.0
 40
1.0
 10
2.94144
 20
10.39682
 30
0.0
 10
2.94144
 20
10.39682
 30
0.0
 10
2.94144
 20
9.01936
 30
0.0
 10
2.94144
 20
9.01936
 30
0.0
  0
SPLINE
  5
CC
330
1F
100
AcDbEntity
  8
0
370
    15
100
AcDbSpline
210
0.0
220
0.0
230
1.0
 70
     8
 71
     3
 72
    12
 73
     8
 74
     0
 42
0.0000000001
 43
0.0000000001
 40
0.0
 40
0.0
 40
0.0
 40
0.0
 40
0.3333333333333333
 40
0.3333333333333333
 40
0.3333333333333333
 40
0.3333333333333333
 40
1.0
 40
1.0
 40
1.0
 40
1.0
 10
3.14144
 20
5.82182
 30
0.0
 10
3.14144
 20
5.78203
 30
0.0
 10
3.15724
 20
5.74388
 30
0.0
 10
3.18537
 20
5.71575
 30
0.0
 10
3.18537
 20
5.71575
 30
0.0
 10
3.2135
 20
5.68762
 30
0.0
 10
3.25165
 20
5.67182
 30
0.0
 10
3.29144
 20
5.67182
 30
0.0
  0
SPLINE
  5
CD
330
1F
100
AcDbEntity
  8
0
370
    15
100
AcDbSpline
210
0.0
220
0.0
230
1.0
 70
     8
 71
     3
 72
     8
 73
     4
 74
     0
 42
0.0000000001
 43
0.0000000001
 40
0.0
 40
0.0
 40
0.0
 40
0.0
 40
1.0
 40
1.0
 40
1.0
 40
1.0
 10
5.99144
 20
5.67182
 30
0.0
 10
6.07428
 20
5.67182
 30
0.0
 10
6.14143
 20
5.73897
 30
0.0
 10
6.14144
 20
5.82181
 30
0.0
  0
SPLINE
  5
CE
330
1F
100
AcDbEntity
  8
0
370
    15
100
AcDbSpline
210
0.0
220
0.0
230
1.0
 70
    24
 71
     3
 72
     8
 73
     4
 74
     0
 42
0.0000000001
 43
0.0000000001
 40
0.0
 40
0.0
 40
0.0
 40
0.0
 40
1.0
 40
1.0
 40
1.0
 40
1.0
 10
6.14144
 20
5.82182
 30
0.0
 10
6.14144
 20
5.82182
 30
0.0
 10
6.14144
 20
8.27652
 30
0.0
 10
6.14144
 20
8.27652
 30
0.0
  0
SPLINE
  5
CF
330
1F
100
AcDbEntity
  8
0
370
    15
100
AcDbSpline
210
0.0
220
0.0
230
1.0
 70
    24
 71
     3
 72
     8
 73
     4
 74
     0
 42
0.0000000001
 43
0.0000000001
 40
0.0
 40
0.0
 40
0.0
 40
0.0
 40
1.0
 40
1.0
 40
1.0
 40
1.0
 10
3.14144
 20
8.27652
 30
0.0
 10
3.14144
 20
8.27652
 30
0.0
 10
3.14144
 20
5.82182
 30
0.0
 10
3.14144
 20
5.82182
 30
0.0
  0
SPLINE
  5
D0
330
1F
100
AcDbEntity
  8
0
370
    15
100
AcDbSpline
210
0.0
220
0.0
230
1.0
 70
    24
 71
     3
 72
     8
 73
     4
 74
     0
 42
0.0000000001
 43
0.0000000001
 40
0.0
 40
0.0
 40
0.0
 40
0.0
 40
1.0
 40
1.0
 40
1.0
 40
1.0
 10
2.95124
 20
8.42652
 30
0.0
 10
2.95124
 20
8.42652
 30
0.0
 10
2.99144
 20
8.27652
 30
0.0
 10
2.99144
 20
8.27652
 30
0.0
  0
SPLINE
  5
D1
330
1F
100
AcDbEntity
  8
0
370
    15
100
AcDbSpline
210
0.0
220
0.0
230
1.0
 70
    24
 71
     3
 72
     8
 73
     4
 74
     0
 42
0.0000000001
 43
0.0000000001
 40
0.0
 40
0.0
 40
0.0
 40
0.0
 40
1.0
 40
1.0
 40
1.0
 40
1.0
 10
6.29144
 20
8.27652
 30
0.0
 10
6.29144
 20
8.27652
 30
0.0
 10
6.33163
 20
8.42652
 30
0.0
 10
6.33163
 20
8.42652
 30
0.0
  0
SPLINE
  5
D2
330
1F
100
AcDbEntity
  8
0
370
    15
100
AcDbSpline
210
0.0
220
0.0
230
1.0
 70
     8
 71
     3
 72
     8
 73
     4
 74
     0
 42
0.0000000001
 43
0.0000000001
 40
0.0
 40
0.0
 40
0.0
 40
0.0
 40
1.0
 40
1.0
 40
1.0
 40
1.0
 10
6.49729
 20
8.44391
 30
0.0
 10
6.53524
 20
8.56269
 30
0.0
 10
6.53524
 20
8.69035
 30
0.0
 10
6.49729
 20
8.80913
 30
0.0
  0
SPLINE
  5
D3
330
1F
100
AcDbEntity
  8
0
370
    15
100
AcDbSpline
210
0.0
220
0.0
230
1.0
 70
     8
 71
     3
 72
     8
 73
     4
 74
     0
 42
0.0000000001
 43
0.0000000001
 40
0.0
 40
0.0
 40
0.0
 40
0.0
 40
1.0
 40
1.0
 40
1.0
 40
1.0
 10
6.49729
 20
8.80913
 30
0.0
 10
6.49398
 20
8.81949
 30
0.0
 10
6.48435
 20
8.82652
 30
0.0
 10
6.47347
 20
8.82652
 30
0.0
  0
SPLINE
  5
D4
330
1F
100
AcDbEntity
  8
0
370
    15
100
AcDbSpline
210
0.0
220
0.0
230
1.0
 70
     8
 71
     3
 72
     8
 73
     4
 74
     0
 42
0.0000000001
 43
0.0000000001
 40
0.0
 40
0.0
 40
0.0
 40
0.0
 40
1.0
 40
1.0
 40
1.0
 40
1.0
 10
6.47347
 20
8.42652
 30
0.0
 10
6.48435
 20
8.42652
 30
0.0
 10
6.49398
 20
8.43355
 30
0.0
 10
6.49729
 20
8.44391
 30
0.0
  0
SPLINE
  5
D5
330
1F
100
AcDbEntity
  8
0
370
    15
100
AcDbSpline
210
0.0
220
0.0
230
1.0
 70
    24
 71
     3
 72
     8
 73
     4
 74
     0
 42
0.0000000001
 43
0.0000000001
 40
0.0
 40
0.0
 40
0.0
 40
0.0
 40
1.0
 40
1.0
 40
1.0
 40
1.0
 10
2.47548
 20
6.77652
 30
0.0
 10
2.47548
 20
6.77652
 30
0.0
 10
2.47548
 20
8.3693
 30
0.0
 10
2.47548
 20
8.3693
 30
0.0
  0
SPLINE
  5
D6
330
1F
100
AcDbEntity
  8
0
370
    15
100
AcDbSpline
210
0.0
220
0.0
230
1.0
 70
    24
 71
     3
 72
     8
 73
     4
 74
     0
 42
0.0000000001
 43
0.0000000001
 40
0.0
 40
0.0
 40
0.0
 40
0.0
 40
1.0
 40
1.0
 40
1.0
 40
1.0
 10
3.81644
 20
10.69682
 30
0.0
 10
3.81644
 20
10.69682
 30
0.0
 10
5.46644
 20
10.69682
 30
0.0
 10
5.46644
 20
10.69682
 30
0.0
  0
SPLINE
  5
D7
330
1F
100
AcDbEntity
  8
0
370
    15
100
AcDbSpline
210
0.0
220
0.0
230
1.0
 70
    24
 71
     3
 72
     8
 73
     4
 74
     0
 42
0.0000000001
 43
0.0000000001
 40
0.0
 40
0.0
 40
0.0
 40
0.0
 40
1.0
 40
1.0
 40
1.0
 40
1.0
 10
3.82894
 20
11.39682
 30
0.0
 10
3.82894
 20
11.39682
 30
0.0
 10
5.45394
 20
11.39682
 30
0.0
 10
5.45394
 20
11.39682
 30
0.0
  0
SPLINE
  5
D8
330
1F
100
AcDbEntity
  8
0
370
    15
100
AcDbSpline
210
0.0
220
0.0
230
1.0
 70
     8
 71
     3
 72
    24
 73
    20
 74
     0
 42
0.0000000001
 43
0.0000000001
 40
0.0
 40
0.0
 40
0.0
 40
0.0
 40
0.1666666666666667
 40
0.1666666666666667
 40
0.1666666666666667
 40
0.1666666666666667
 40
0.3333333333333333
 40
0.3333333333333333
 40
0.3333333333333333
 40
0.3333333333333333
 40
0.5
 40
0.5
 40
0.5
 40
0.5
 40
0.6666666666666666
 40
0.6666666666666666
 40
0.6666666666666666
 40
0.6666666666666666
 40
1.0
 40
1.0
 40
1.0
 40
1.0
 10
7.14144
 20
12.81001
 30
0.0
 10
7.13168
 20
12.80923
 30
0.0
 10
7.12193
 20
12.80844
 30
0.0
 10
7.11281
 20
12.80641
 30
0.0
 10
7.11281
 20
12.80641
 30
0.0
 10
7.10376
 20
12.80439
 30
0.0
 10
7.09533
 20
12.80114
 30
0.0
 10
7.08769
 20
12.79776
 30
0.0
 10
7.08769
 20
12.79776
 30
0.0
 10
7.07884
 20
12.79386
 30
0.0
 10
7.07103
 20
12.7898
 30
0.0
 10
7.06424
 20
12.78595
 30
0.0
 10
7.06424
 20
12.78595
 30
0.0
 10
7.05648
 20
12.78155
 30
0.0
 10
7.05004
 20
12.77743
 30
0.0
 10
7.04651
 20
12.77515
 30
0.0
 10
7.04651
 20
12.77515
 30
0.0
 10
7.04356
 20
12.77324
 30
0.0
 10
7.04265
 20
12.77263
 30
0.0
 10
7.04174
 20
12.77201
 30
0.0
  0
SPLINE
  5
D9
330
1F
100
AcDbEntity
  8
0
370
    15
100
AcDbSpline
210
0.0
220
0.0
230
1.0
 70
     8
 71
     3
 72
    28
 73
    24
 74
     0
 42
0.0000000001
 43
0.0000000001
 40
0.0
 40
0.0
 40
0.0
 40
0.0
 40
0.1428571428571428
 40
0.1428571428571428
 40
0.1428571428571428
 40
0.1428571428571428
 40
0.2857142857142857
 40
0.2857142857142857
 40
0.2857142857142857
 40
0.2857142857142857
 40
0.4285714285714285
 40
0.4285714285714285
 40
0.4285714285714285
 40
0.4285714285714285
 40
0.5714285714285714
 40
0.5714285714285714
 40
0.5714285714285714
 40
0.5714285714285714
 40
0.7142857142857143
 40
0.7142857142857143
 40
0.7142857142857143
 40
0.7142857142857143
 40
1.0
 40
1.0
 40
1.0
 40
1.0
 10
7.2403
 20
12.77257
 30
0.0
 10
7.24057
 20
12.77239
 30
0.0
 10
7.24084
 20
12.77221
 30
0.0
 10
7.24057
 20
12.77239
 30
0.0
 10
7.24057
 20
12.77239
 30
0.0
 10
7.23999
 20
12.77277
 30
0.0
 10
7.23697
 20
12.77478
 30
0.0
 10
7.23316
 20
12.7772
 30
0.0
 10
7.23316
 20
12.7772
 30
0.0
 10
7.22912
 20
12.77977
 30
0.0
 10
7.22421
 20
12.78281
 30
0.0
 10
7.21827
 20
12.78615
 30
0.0
 10
7.21827
 20
12.78615
 30
0.0
 10
7.2114
 20
12.79003
 30
0.0
 10
7.20317
 20
12.79431
 30
0.0
 10
7.19391
 20
12.79831
 30
0.0
 10
7.19391
 20
12.79831
 30
0.0
 10
7.18536
 20
12.802
 30
0.0
 10
7.17593
 20
12.80546
 30
0.0
 10
7.16583
 20
12.80738
 30
0.0
 10
7.16583
 20
12.80738
 30
0.0
 10
7.15797
 20
12.80888
 30
0.0
 10
7.1497
 20
12.80944
 30
0.0
 10
7.14144
 20
12.81001
 30
0.0
  0
SPLINE
  5
DA
330
1F
100
AcDbEntity
  8
0
370
    15
100
AcDbSpline
210
0.0
220
0.0
230
1.0
 70
    24
 71
     3
 72
     8
 73
     4
 74
     0
 42
0.0000000001
 43
0.0000000001
 40
0.0
 40
0.0
 40
0.0
 40
0.0
 40
1.0
 40
1.0
 40
1.0
 40
1.0
 10
7.39144
 20
12.92182
 30
0.0
 10
7.39144
 20
12.92182
 30
0.0
 10
7.39144
 20
12.77182
 30
0.0
 10
7.39144
 20
12.77182
 30
0.0
  0
SPLINE
  5
DB
330
1F
100
AcDbEntity
  8
0
370
    15
100
AcDbSpline
210
0.0
220
0.0
230
1.0
 70
    24
 71
     3
 72
     8
 73
     4
 74
     0
 42
0.0000000001
 43
0.0000000001
 40
0.0
 40
0.0
 40
0.0
 40
0.0
 40
1.0
 40
1.0
 40
1.0
 40
1.0
 10
7.39144
 20
13.07182
 30
0.0
 10
7.39144
 20
13.07182
 30
0.0
 10
7.39144
 20
12.92182
 30
0.0
 10
7.39144
 20
12.92182
 30
0.0
  0
SPLINE
  5
DC
330
1F
100
AcDbEntity
  8
0
370
    15
100
AcDbSpline
210
0.0
220
0.0
230
1.0
 70
    24
 71
     3
 72
     8
 73
     4
 74
     0
 42
0.0000000001
 43
0.0000000001
 40
0.0
 40
0.0
 40
0.0
 40
0.0
 40
1.0
 40
1.0
 40
1.0
 40
1.0
 10
4.64144
 20
13.22182
 30
0.0
 10
4.64144
 20
13.22182
 30
0.0
 10
5.26644
 20
13.22182
 30
0.0
 10
5.26644
 20
13.22182
 30
0.0
  0
SPLINE
  5
DD
330
1F
100
AcDbEntity
  8
0
370
    15
100
AcDbSpline
210
0.0
220
0.0
230
1.0
 70
    24
 71
     3
 72
     8
 73
     4
 74
     0
 42
0.0000000001
 43
0.0000000001
 40
0.0
 40
0.0
 40
0.0
 40
0.0
 40
1.0
 40
1.0
 40
1.0
 40
1.0
 10
4.01644
 20
13.22182
 30
0.0
 10
4.01644
 20
13.22182
 30
0.0
 10
4.64144
 20
13.22182
 30
0.0
 10
4.64144
 20
13.22182
 30
0.0
  0
SPLINE
  5
DE
330
1F
100
AcDbEntity
  8
0
370
    15
100
AcDbSpline
210
0.0
220
0.0
230
1.0
 70
    24
 71
     3
 72
     8
 73
     4
 74
     0
 42
0.0000000001
 43
0.0000000001
 40
0.0
 40
0.0
 40
0.0
 40
0.0
 40
1.0
 40
1.0
 40
1.0
 40
1.0
 10
4.64144
 20
11.97182
 30
0.0
 10
4.64144
 20
11.97182
 30
0.0
 10
5.26644
 20
11.97182
 30
0.0
 10
5.26644
 20
11.97182
 30
0.0
  0
SPLINE
  5
DF
330
1F
100
AcDbEntity
  8
0
370
    15
100
AcDbSpline
210
0.0
220
0.0
230
1.0
 70
    24
 71
     3
 72
     8
 73
     4
 74
     0
 42
0.0000000001
 43
0.0000000001
 40
0.0
 40
0.0
 40
0.0
 40
0.0
 40
1.0
 40
1.0
 40
1.0
 40
1.0
 10
4.01644
 20
11.97182
 30
0.0
 10
4.01644
 20
11.97182
 30
0.0
 10
4.64144
 20
11.97182
 30
0.0
 10
4.64144
 20
11.97182
 30
0.0
  0
SPLINE
  5
E0
330
1F
100
AcDbEntity
  8
0
370
    15
100
AcDbSpline
210
0.0
220
0.0
230
1.0
 70
     8
 71
     3
 72
    48
 73
    44
 74
     0
 42
0.0000000001
 43
0.0000000001
 40
0.0
 40
0.0
 40
0.0
 40
0.0
 40
0.0833333333333333
 40
0.0833333333333333
 40
0.0833333333333333
 40
0.0833333333333333
 40
0.1666666666666667
 40
0.1666666666666667
 40
0.1666666666666667
 40
0.1666666666666667
 40
0.25
 40
0.25
 40
0.25
 40
0.25
 40
0.3333333333333333
 40
0.3333333333333333
 40
0.3333333333333333
 40
0.3333333333333333
 40
0.4166666666666667
 40
0.4166666666666667
 40
0.4166666666666667
 40
0.4166666666666667
 40
0.5
 40
0.5
 40
0.5
 40
0.5
 40
0.5833333333333334
 40
0.5833333333333334
 40
0.5833333333333334
 40
0.5833333333333334
 40
0.6666666666666666
 40
0.6666666666666666
 40
0.6666666666666666
 40
0.6666666666666666
 40
0.75
 40
0.75
 40
0.75
 40
0.75
 40
0.8333333333333334
 40
0.8333333333333334
 40
0.8333333333333334
 40
0.8333333333333334
 40
1.0
 40
1.0
 40
1.0
 40
1.0
 10
5.26601
 20
13.07003
 30
0.0
 10
5.26613
 20
13.07054
 30
0.0
 10
5.26625
 20
13.07105
 30
0.0
 10
5.26625
 20
13.07103
 30
0.0
 10
5.26625
 20
13.07103
 30
0.0
 10
5.26623
 20
13.07096
 30
0.0
 10
5.26489
 20
13.06539
 30
0.0
 10
5.26329
 20
13.05814
 30
0.0
 10
5.26329
 20
13.05814
 30
0.0
 10
5.26168
 20
13.05082
 30
0.0
 10
5.25981
 20
13.04178
 30
0.0
 10
5.25784
 20
13.03056
 30
0.0
 10
5.25784
 20
13.03056
 30
0.0
 10
5.25582
 20
13.01906
 30
0.0
 10
5.2537
 20
13.00528
 30
0.0
 10
5.25201
 20
12.9902
 30
0.0
 10
5.25201
 20
12.9902
 30
0.0
 10
5.25031
 20
12.97506
 30
0.0
 10
5.24904
 20
12.9586
 30
0.0
 10
5.24849
 20
12.9417
 30
0.0
 10
5.24849
 20
12.9417
 30
0.0
 10
5.24796
 20
12.92522
 30
0.0
 10
5.2481
 20
12.90833
 30
0.0
 10
5.2489
 20
12.89205
 30
0.0
 10
5.2489
 20
12.89205
 30
0.0
 10
5.24968
 20
12.87601
 30
0.0
 10
5.25109
 20
12.86056
 30
0.0
 10
5.25283
 20
12.84643
 30
0.0
 10
5.25283
 20
12.84643
 30
0.0
 10
5.25461
 20
12.83203
 30
0.0
 10
5.25674
 20
12.81899
 30
0.0
 10
5.25869
 20
12.80831
 30
0.0
 10
5.25869
 20
12.80831
 30
0.0
 10
5.26069
 20
12.79739
 30
0.0
 10
5.26251
 20
12.78895
 30
0.0
 10
5.26404
 20
12.78212
 30
0.0
 10
5.26404
 20
12.78212
 30
0.0
 10
5.26557
 20
12.77535
 30
0.0
 10
5.26682
 20
12.77017
 30
0.0
 10
5.26641
 20
12.7719
 30
0.0
 10
5.26641
 20
12.7719
 30
0.0
 10
5.26637
 20
12.77208
 30
0.0
 10
5.26631
 20
12.77233
 30
0.0
 10
5.26626
 20
12.77258
 30
0.0
  0
SPLINE
  5
E1
330
1F
100
AcDbEntity
  8
0
370
    15
100
AcDbSpline
210
0.0
220
0.0
230
1.0
 70
    24
 71
     3
 72
     8
 73
     4
 74
     0
 42
0.0000000001
 43
0.0000000001
 40
0.0
 40
0.0
 40
0.0
 40
0.0
 40
1.0
 40
1.0
 40
1.0
 40
1.0
 10
2.9796
 20
10.47182
 30
0.0
 10
2.9796
 20
10.47182
 30
0.0
 10
2.97894
 20
10.47182
 30
0.0
 10
2.97894
 20
10.47182
 30
0.0
  0
SPLINE
  5
E2
330
1F
100
AcDbEntity
  8
0
370
    15
100
AcDbSpline
210
0.0
220
0.0
230
1.0
 70
    24
 71
     3
 72
     8
 73
     4
 74
     0
 42
0.0000000001
 43
0.0000000001
 40
0.0
 40
0.0
 40
0.0
 40
0.0
 40
1.0
 40
1.0
 40
1.0
 40
1.0
 10
6.30394
 20
10.47182
 30
0.0
 10
6.30394
 20
10.47182
 30
0.0
 10
2.9796
 20
10.47182
 30
0.0
 10
2.9796
 20
10.47182
 30
0.0
  0
SPLINE
  5
E3
330
1F
100
AcDbEntity
  8
0
370
    15
100
AcDbSpline
210
0.0
220
0.0
230
1.0
 70
    24
 71
     3
 72
     8
 73
     4
 74
     0
 42
0.0000000001
 43
0.0000000001
 40
0.0
 40
0.0
 40
0.0
 40
0.0
 40
1.0
 40
1.0
 40
1.0
 40
1.0
 10
3.79178
 20
10.65423
 30
0.0
 10
3.79178
 20
10.65423
 30
0.0
 10
3.79144
 20
10.65423
 30
0.0
 10
3.79144
 20
10.65423
 30
0.0
  0
SPLINE
  5
E4
330
1F
100
AcDbEntity
  8
0
370
    15
100
AcDbSpline
210
0.0
220
0.0
230
1.0
 70
    24
 71
     3
 72
     8
 73
     4
 74
     0
 42
0.0000000001
 43
0.0000000001
 40
0.0
 40
0.0
 40
0.0
 40
0.0
 40
1.0
 40
1.0
 40
1.0
 40
1.0
 10
5.49144
 20
10.65423
 30
0.0
 10
5.49144
 20
10.65423
 30
0.0
 10
3.79178
 20
10.65423
 30
0.0
 10
3.79178
 20
10.65423
 30
0.0
  0
SPLINE
  5
E5
330
1F
100
AcDbEntity
  8
0
370
    15
100
AcDbSpline
210
0.0
220
0.0
230
1.0
 70
    24
 71
     3
 72
     8
 73
     4
 74
     0
 42
0.0000000001
 43
0.0000000001
 40
0.0
 40
0.0
 40
0.0
 40
0.0
 40
1.0
 40
1.0
 40
1.0
 40
1.0
 10
4.64979
 20
10.42182
 30
0.0
 10
4.64979
 20
10.42182
 30
0.0
 10
6.31644
 20
10.42182
 30
0.0
 10
6.31644
 20
10.42182
 30
0.0
  0
SPLINE
  5
E6
330
1F
100
AcDbEntity
  8
0
370
    15
100
AcDbSpline
210
0.0
220
0.0
230
1.0
 70
    24
 71
     3
 72
     8
 73
     4
 74
     0
 42
0.0000000001
 43
0.0000000001
 40
0.0
 40
0.0
 40
0.0
 40
0.0
 40
1.0
 40
1.0
 40
1.0
 40
1.0
 10
2.96644
 20
10.42182
 30
0.0
 10
2.96644
 20
10.42182
 30
0.0
 10
4.64979
 20
10.42182
 30
0.0
 10
4.64979
 20
10.42182
 30
0.0
  0
SPLINE
  5
E7
330
1F
100
AcDbEntity
  8
0
370
    15
100
AcDbSpline
210
0.0
220
0.0
230
1.0
 70
    24
 71
     3
 72
     8
 73
     4
 74
     0
 42
0.0000000001
 43
0.0000000001
 40
0.0
 40
0.0
 40
0.0
 40
0.0
 40
1.0
 40
1.0
 40
1.0
 40
1.0
 10
5.99144
 20
5.67182
 30
0.0
 10
5.99144
 20
5.67182
 30
0.0
 10
3.29144
 20
5.67182
 30
0.0
 10
3.29144
 20
5.67182
 30
0.0
  0
SPLINE
  5
E8
330
1F
100
AcDbEntity
  8
0
370
    15
100
AcDbSpline
210
0.0
220
0.0
230
1.0
 70
    24
 71
     3
 72
     8
 73
     4
 74
     0
 42
0.0000000001
 43
0.0000000001
 40
0.0
 40
0.0
 40
0.0
 40
0.0
 40
1.0
 40
1.0
 40
1.0
 40
1.0
 10
3.25528
 20
8.27652
 30
0.0
 10
3.25528
 20
8.27652
 30
0.0
 10
2.99144
 20
8.27652
 30
0.0
 10
2.99144
 20
8.27652
 30
0.0
  0
SPLINE
  5
E9
330
1F
100
AcDbEntity
  8
0
370
    15
100
AcDbSpline
210
0.0
220
0.0
230
1.0
 70
    24
 71
     3
 72
     8
 73
     4
 74
     0
 42
0.0000000001
 43
0.0000000001
 40
0.0
 40
0.0
 40
0.0
 40
0.0
 40
1.0
 40
1.0
 40
1.0
 40
1.0
 10
6.29144
 20
8.27652
 30
0.0
 10
6.29144
 20
8.27652
 30
0.0
 10
3.25528
 20
8.27652
 30
0.0
 10
3.25528
 20
8.27652
 30
0.0
  0
SPLINE
  5
EA
330
1F
100
AcDbEntity
  8
0
370
    15
100
AcDbSpline
210
0.0
220
0.0
230
1.0
 70
     8
 71
     3
 72
     8
 73
     4
 74
     0
 42
0.0000000001
 43
0.0000000001
 40
0.0
 40
0.0
 40
0.0
 40
0.0
 40
1.0
 40
1.0
 40
1.0
 40
1.0
 10
3.851
 20
8.80913
 30
0.0
 10
3.83478
 20
8.68793
 30
0.0
 10
3.83478
 20
8.56511
 30
0.0
 10
3.851
 20
8.44391
 30
0.0
  0
SPLINE
  5
EB
330
1F
100
AcDbEntity
  8
0
370
    15
100
AcDbSpline
210
0.0
220
0.0
230
1.0
 70
     8
 71
     3
 72
    36
 73
    32
 74
     0
 42
0.0000000001
 43
0.0000000001
 40
0.0
 40
0.0
 40
0.0
 40
0.0
 40
0.1111111111111111
 40
0.1111111111111111
 40
0.1111111111111111
 40
0.1111111111111111
 40
0.2222222222222222
 40
0.2222222222222222
 40
0.2222222222222222
 40
0.2222222222222222
 40
0.3333333333333333
 40
0.3333333333333333
 40
0.3333333333333333
 40
0.3333333333333333
 40
0.4444444444444444
 40
0.4444444444444444
 40
0.4444444444444444
 40
0.4444444444444444
 40
0.5555555555555556
 40
0.5555555555555556
 40
0.5555555555555556
 40
0.5555555555555556
 40
0.6666666666666666
 40
0.6666666666666666
 40
0.6666666666666666
 40
0.6666666666666666
 40
0.7777777777777778
 40
0.7777777777777778
 40
0.7777777777777778
 40
0.7777777777777778
 40
1.0
 40
1.0
 40
1.0
 40
1.0
 10
3.851
 20
8.80913
 30
0.0
 10
3.851
 20
8.80913
 30
0.0
 10
3.85163
 20
8.81277
 30
0.0
 10
3.85163
 20
8.81277
 30
0.0
 10
3.85163
 20
8.81277
 30
0.0
 10
3.85163
 20
8.81277
 30
0.0
 10
3.8525
 20
8.81614
 30
0.0
 10
3.8525
 20
8.81614
 30
0.0
 10
3.8525
 20
8.81614
 30
0.0
 10
3.8525
 20
8.81614
 30
0.0
 10
3.85359
 20
8.81914
 30
0.0
 10
3.85359
 20
8.81914
 30
0.0
 10
3.85359
 20
8.81914
 30
0.0
 10
3.85359
 20
8.81914
 30
0.0
 10
3.85486
 20
8.82171
 30
0.0
 10
3.85486
 20
8.82171
 30
0.0
 10
3.85486
 20
8.82171
 30
0.0
 10
3.85486
 20
8.82171
 30
0.0
 10
3.85629
 20
8.82378
 30
0.0
 10
3.85629
 20
8.82378
 30
0.0
 10
3.85629
 20
8.82378
 30
0.0
 10
3.85629
 20
8.82378
 30
0.0
 10
3.85784
 20
8.82529
 30
0.0
 10
3.85784
 20
8.82529
 30
0.0
 10
3.85784
 20
8.82529
 30
0.0
 10
3.85784
 20
8.82529
 30
0.0
 10
3.85947
 20
8.82621
 30
0.0
 10
3.85947
 20
8.82621
 30
0.0
 10
3.85947
 20
8.82621
 30
0.0
 10
3.85947
 20
8.82621
 30
0.0
 10
3.86114
 20
8.82652
 30
0.0
 10
3.86114
 20
8.82652
 30
0.0
  0
SPLINE
  5
EC
330
1F
100
AcDbEntity
  8
0
370
    15
100
AcDbSpline
210
0.0
220
0.0
230
1.0
 70
    24
 71
     3
 72
     8
 73
     4
 74
     0
 42
0.0000000001
 43
0.0000000001
 40
0.0
 40
0.0
 40
0.0
 40
0.0
 40
1.0
 40
1.0
 40
1.0
 40
1.0
 10
3.86114
 20
8.82652
 30
0.0
 10
3.86114
 20
8.82652
 30
0.0
 10
6.47347
 20
8.82652
 30
0.0
 10
6.47347
 20
8.82652
 30
0.0
  0
SPLINE
  5
ED
330
1F
100
AcDbEntity
  8
0
370
    15
100
AcDbSpline
210
0.0
220
0.0
230
1.0
 70
    24
 71
     3
 72
     8
 73
     4
 74
     0
 42
0.0000000001
 43
0.0000000001
 40
0.0
 40
0.0
 40
0.0
 40
0.0
 40
1.0
 40
1.0
 40
1.0
 40
1.0
 10
6.47347
 20
8.42652
 30
0.0
 10
6.47347
 20
8.42652
 30
0.0
 10
3.86114
 20
8.42652
 30
0.0
 10
3.86114
 20
8.42652
 30
0.0
  0
SPLINE
  5
EE
330
1F
100
AcDbEntity
  8
0
370
    15
100
AcDbSpline
210
0.0
220
0.0
230
1.0
 70
     8
 71
     3
 72
    36
 73
    32
 74
     0
 42
0.0000000001
 43
0.0000000001
 40
0.0
 40
0.0
 40
0.0
 40
0.0
 40
0.1111111111111111
 40
0.1111111111111111
 40
0.1111111111111111
 40
0.1111111111111111
 40
0.2222222222222222
 40
0.2222222222222222
 40
0.2222222222222222
 40
0.2222222222222222
 40
0.3333333333333333
 40
0.3333333333333333
 40
0.3333333333333333
 40
0.3333333333333333
 40
0.4444444444444444
 40
0.4444444444444444
 40
0.4444444444444444
 40
0.4444444444444444
 40
0.5555555555555556
 40
0.5555555555555556
 40
0.5555555555555556
 40
0.5555555555555556
 40
0.6666666666666666
 40
0.6666666666666666
 40
0.6666666666666666
 40
0.6666666666666666
 40
0.7777777777777778
 40
0.7777777777777778
 40
0.7777777777777778
 40
0.7777777777777778
 40
1.0
 40
1.0
 40
1.0
 40
1.0
 10
3.86114
 20
8.42652
 30
0.0
 10
3.86114
 20
8.42652
 30
0.0
 10
3.85947
 20
8.42683
 30
0.0
 10
3.85947
 20
8.42683
 30
0.0
 10
3.85947
 20
8.42683
 30
0.0
 10
3.85947
 20
8.42683
 30
0.0
 10
3.85784
 20
8.42775
 30
0.0
 10
3.85784
 20
8.42775
 30
0.0
 10
3.85784
 20
8.42775
 30
0.0
 10
3.85784
 20
8.42775
 30
0.0
 10
3.85629
 20
8.42927
 30
0.0
 10
3.85629
 20
8.42927
 30
0.0
 10
3.85629
 20
8.42927
 30
0.0
 10
3.85629
 20
8.42927
 30
0.0
 10
3.85486
 20
8.43133
 30
0.0
 10
3.85486
 20
8.43133
 30
0.0
 10
3.85486
 20
8.43133
 30
0.0
 10
3.85486
 20
8.43133
 30
0.0
 10
3.85359
 20
8.4339
 30
0.0
 10
3.85359
 20
8.4339
 30
0.0
 10
3.85359
 20
8.4339
 30
0.0
 10
3.85359
 20
8.4339
 30
0.0
 10
3.8525
 20
8.4369
 30
0.0
 10
3.8525
 20
8.4369
 30
0.0
 10
3.8525
 20
8.4369
 30
0.0
 10
3.8525
 20
8.4369
 30
0.0
 10
3.85163
 20
8.44027
 30
0.0
 10
3.85163
 20
8.44027
 30
0.0
 10
3.85163
 20
8.44027
 30
0.0
 10
3.85163
 20
8.44027
 30
0.0
 10
3.851
 20
8.44391
 30
0.0
 10
3.851
 20
8.44391
 30
0.0
  0
SPLINE
  5
EF
330
1F
100
AcDbEntity
  8
0
370
    15
100
AcDbSpline
210
0.0
220
0.0
230
1.0
 70
    24
 71
     3
 72
     8
 73
     4
 74
     0
 42
0.0000000001
 43
0.0000000001
 40
0.0
 40
0.0
 40
0.0
 40
0.0
 40
1.0
 40
1.0
 40
1.0
 40
1.0
 10
3.74701
 20
8.44391
 30
0.0
 10
3.74701
 20
8.44391
 30
0.0
 10
3.851
 20
8.44391
 30
0.0
 10
3.851
 20
8.44391
 30
0.0
  0
SPLINE
  5
F0
330
1F
100
AcDbEntity
  8
0
370
    15
100
AcDbSpline
210
0.0
220
0.0
230
1.0
 70
    24
 71
     3
 72
     8
 73
     4
 74
     0
 42
0.0000000001
 43
0.0000000001
 40
0.0
 40
0.0
 40
0.0
 40
0.0
 40
1.0
 40
1.0
 40
1.0
 40
1.0
 10
3.74701
 20
8.80913
 30
0.0
 10
3.74701
 20
8.80913
 30
0.0
 10
3.74701
 20
8.44391
 30
0.0
 10
3.74701
 20
8.44391
 30
0.0
  0
SPLINE
  5
F1
330
1F
100
AcDbEntity
  8
0
370
    15
100
AcDbSpline
210
0.0
220
0.0
230
1.0
 70
    24
 71
     3
 72
     8
 73
     4
 74
     0
 42
0.0000000001
 43
0.0000000001
 40
0.0
 40
0.0
 40
0.0
 40
0.0
 40
1.0
 40
1.0
 40
1.0
 40
1.0
 10
3.851
 20
8.80913
 30
0.0
 10
3.851
 20
8.80913
 30
0.0
 10
3.74701
 20
8.80913
 30
0.0
 10
3.74701
 20
8.80913
 30
0.0
  0
SPLINE
  5
F2
330
1F
100
AcDbEntity
  8
0
370
    15
100
AcDbSpline
210
0.0
220
0.0
230
1.0
 70
    24
 71
     3
 72
     8
 73
     4
 74
     0
 42
0.0000000001
 43
0.0000000001
 40
0.0
 40
0.0
 40
0.0
 40
0.0
 40
1.0
 40
1.0
 40
1.0
 40
1.0
 10
2.4248
 20
6.77652
 30
0.0
 10
2.4248
 20
6.77652
 30
0.0
 10
2.4248
 20
8.27652
 30
0.0
 10
2.4248
 20
8.27652
 30
0.0
  0
SPLINE
  5
F3
330
1F
100
AcDbEntity
  8
0
370
    15
100
AcDbSpline
210
0.0
220
0.0
230
1.0
 70
    24
 71
     3
 72
     8
 73
     4
 74
     0
 42
0.0000000001
 43
0.0000000001
 40
0.0
 40
0.0
 40
0.0
 40
0.0
 40
1.0
 40
1.0
 40
1.0
 40
1.0
 10
2.05883
 20
8.27652
 30
0.0
 10
2.05883
 20
8.27652
 30
0.0
 10
2.05883
 20
6.77652
 30
0.0
 10
2.05883
 20
6.77652
 30
0.0
  0
SPLINE
  5
F4
330
1F
100
AcDbEntity
  8
0
370
    15
100
AcDbSpline
210
0.0
220
0.0
230
1.0
 70
    24
 71
     3
 72
     8
 73
     4
 74
     0
 42
0.0000000001
 43
0.0000000001
 40
0.0
 40
0.0
 40
0.0
 40
0.0
 40
1.0
 40
1.0
 40
1.0
 40
1.0
 10
2.05883
 20
8.27652
 30
0.0
 10
2.05883
 20
8.27652
 30
0.0
 10
2.4248
 20
8.27652
 30
0.0
 10
2.4248
 20
8.27652
 30
0.0
  0
SPLINE
  5
F5
330
1F
100
AcDbEntity
  8
0
370
    15
100
AcDbSpline
210
0.0
220
0.0
230
1.0
 70
    24
 71
     3
 72
     8
 73
     4
 74
     0
 42
0.0000000001
 43
0.0000000001
 40
0.0
 40
0.0
 40
0.0
 40
0.0
 40
1.0
 40
1.0
 40
1.0
 40
1.0
 10
2.05883
 20
6.77652
 30
0.0
 10
2.05883
 20
6.77652
 30
0.0
 10
2.4248
 20
6.77652
 30
0.0
 10
2.4248
 20
6.77652
 30
0.0
  0
SPLINE
  5
F6
330
1F
100
AcDbEntity
  8
0
370
    15
100
AcDbSpline
210
0.0
220
0.0
230
1.0
 70
     8
 71
     3
 72
     8
 73
     4
 74
     0
 42
0.0000000001
 43
0.0000000001
 40
0.0
 40
0.0
 40
0.0
 40
0.0
 40
1.0
 40
1.0
 40
1.0
 40
1.0
 10
2.59144
 20
8.44391
 30
0.0
 10
2.50485
 20
8.44391
 30
0.0
 10
2.43256
 20
8.37788
 30
0.0
 10
2.42473
 20
8.29165
 30
0.0
  0
SPLINE
  5
F7
330
1F
100
AcDbEntity
  8
0
370
    15
100
AcDbSpline
210
0.0
220
0.0
230
1.0
 70
    24
 71
     3
 72
     8
 73
     4
 74
     0
 42
0.0000000001
 43
0.0000000001
 40
0.0
 40
0.0
 40
0.0
 40
0.0
 40
1.0
 40
1.0
 40
1.0
 40
1.0
 10
2.4248
 20
8.27652
 30
0.0
 10
2.4248
 20
8.27652
 30
0.0
 10
2.42473
 20
8.29165
 30
0.0
 10
2.42473
 20
8.29165
 30
0.0
  0
SPLINE
  5
F8
330
1F
100
AcDbEntity
  8
0
370
    15
100
AcDbSpline
210
0.0
220
0.0
230
1.0
 70
     8
 71
     3
 72
    12
 73
     8
 74
     0
 42
0.0000000001
 43
0.0000000001
 40
0.0
 40
0.0
 40
0.0
 40
0.0
 40
0.3333333333333333
 40
0.3333333333333333
 40
0.3333333333333333
 40
0.3333333333333333
 40
1.0
 40
1.0
 40
1.0
 40
1.0
 10
2.59144
 20
8.80913
 30
0.0
 10
2.45018
 20
8.80913
 30
0.0
 10
2.31471
 20
8.75302
 30
0.0
 10
2.21482
 20
8.65313
 30
0.0
 10
2.21482
 20
8.65313
 30
0.0
 10
2.11494
 20
8.55325
 30
0.0
 10
2.05883
 20
8.41778
 30
0.0
 10
2.05883
 20
8.27652
 30
0.0
  0
SPLINE
  5
F9
330
1F
100
AcDbEntity
  8
0
370
    15
100
AcDbSpline
210
0.0
220
0.0
230
1.0
 70
    24
 71
     3
 72
     8
 73
     4
 74
     0
 42
0.0000000001
 43
0.0000000001
 40
0.0
 40
0.0
 40
0.0
 40
0.0
 40
1.0
 40
1.0
 40
1.0
 40
1.0
 10
2.59144
 20
8.80913
 30
0.0
 10
2.59144
 20
8.80913
 30
0.0
 10
2.59144
 20
8.44391
 30
0.0
 10
2.59144
 20
8.44391
 30
0.0
  0
SPLINE
  5
FA
330
1F
100
AcDbEntity
  8
0
370
    15
100
AcDbSpline
210
0.0
220
0.0
230
1.0
 70
    24
 71
     3
 72
     8
 73
     4
 74
     0
 42
0.0000000001
 43
0.0000000001
 40
0.0
 40
0.0
 40
0.0
 40
0.0
 40
1.0
 40
1.0
 40
1.0
 40
1.0
 10
2.59144
 20
8.44391
 30
0.0
 10
2.59144
 20
8.44391
 30
0.0
 10
3.74701
 20
8.44391
 30
0.0
 10
3.74701
 20
8.44391
 30
0.0
  0
SPLINE
  5
FB
330
1F
100
AcDbEntity
  8
0
370
    15
100
AcDbSpline
210
0.0
220
0.0
230
1.0
 70
    24
 71
     3
 72
     8
 73
     4
 74
     0
 42
0.0000000001
 43
0.0000000001
 40
0.0
 40
0.0
 40
0.0
 40
0.0
 40
1.0
 40
1.0
 40
1.0
 40
1.0
 10
3.74701
 20
8.80913
 30
0.0
 10
3.74701
 20
8.80913
 30
0.0
 10
2.59144
 20
8.80913
 30
0.0
 10
2.59144
 20
8.80913
 30
0.0
  0
SPLINE
  5
FC
330
1F
100
AcDbEntity
  8
0
370
    15
100
AcDbSpline
210
0.0
220
0.0
230
1.0
 70
    24
 71
     3
 72
     8
 73
     4
 74
     0
 42
0.0000000001
 43
0.0000000001
 40
0.0
 40
0.0
 40
0.0
 40
0.0
 40
1.0
 40
1.0
 40
1.0
 40
1.0
 10
3.74701
 20
8.42652
 30
0.0
 10
3.74701
 20
8.42652
 30
0.0
 10
3.74701
 20
8.44391
 30
0.0
 10
3.74701
 20
8.44391
 30
0.0
  0
SPLINE
  5
FD
330
1F
100
AcDbEntity
  8
0
370
    15
100
AcDbSpline
210
0.0
220
0.0
230
1.0
 70
    24
 71
     3
 72
     8
 73
     4
 74
     0
 42
0.0000000001
 43
0.0000000001
 40
0.0
 40
0.0
 40
0.0
 40
0.0
 40
1.0
 40
1.0
 40
1.0
 40
1.0
 10
3.86114
 20
8.42652
 30
0.0
 10
3.86114
 20
8.42652
 30
0.0
 10
3.74701
 20
8.42652
 30
0.0
 10
3.74701
 20
8.42652
 30
0.0
  0
SPLINE
  5
FE
330
1F
100
AcDbEntity
  8
0
370
    15
100
AcDbSpline
210
0.0
220
0.0
230
1.0
 70
    24
 71
     3
 72
     8
 73
     4
 74
     0
 42
0.0000000001
 43
0.0000000001
 40
0.0
 40
0.0
 40
0.0
 40
0.0
 40
1.0
 40
1.0
 40
1.0
 40
1.0
 10
3.74701
 20
8.80913
 30
0.0
 10
3.74701
 20
8.80913
 30
0.0
 10
3.74701
 20
8.82652
 30
0.0
 10
3.74701
 20
8.82652
 30
0.0
  0
SPLINE
  5
FF
330
1F
100
AcDbEntity
  8
0
370
    15
100
AcDbSpline
210
0.0
220
0.0
230
1.0
 70
    24
 71
     3
 72
     8
 73
     4
 74
     0
 42
0.0000000001
 43
0.0000000001
 40
0.0
 40
0.0
 40
0.0
 40
0.0
 40
1.0
 40
1.0
 40
1.0
 40
1.0
 10
3.74701
 20
8.82652
 30
0.0
 10
3.74701
 20
8.82652
 30
0.0
 10
3.86114
 20
8.82652
 30
0.0
 10
3.86114
 20
8.82652
 30
0.0
  0
SPLINE
  5
100
330
1F
100
AcDbEntity
  8
0
370
    15
100
AcDbSpline
210
0.0
220
0.0
230
1.0
 70
     8
 71
     3
 72
    12
 73
     8
 74
     0
 42
0.0000000001
 43
0.0000000001
 40
0.0
 40
0.0
 40
0.0
 40
0.0
 40
0.3333333333333333
 40
0.3333333333333333
 40
0.3333333333333333
 40
0.3333333333333333
 40
1.0
 40
1.0
 40
1.0
 40
1.0
 10
2.44213
 20
8.29117
 30
0.0
 10
2.44213
 20
8.2911
 30
0.0
 10
2.44213
 20
8.29104
 30
0.0
 10
2.44213
 20
8.29097
 30
0.0
 10
2.44213
 20
8.29097
 30
0.0
 10
2.44214
 20
8.28615
 30
0.0
 10
2.44214
 20
8.28134
 30
0.0
 10
2.44214
 20
8.27652
 30
0.0
  0
SPLINE
  5
101
330
1F
100
AcDbEntity
  8
0
370
    15
100
AcDbSpline
210
0.0
220
0.0
230
1.0
 70
    24
 71
     3
 72
    20
 73
    16
 74
     0
 42
0.0000000001
 43
0.0000000001
 40
0.0
 40
0.0
 40
0.0
 40
0.0
 40
0.2
 40
0.2
 40
0.2
 40
0.2
 40
0.4
 40
0.4
 40
0.4
 40
0.4
 40
0.6
 40
0.6
 40
0.6
 40
0.6
 40
1.0
 40
1.0
 40
1.0
 40
1.0
 10
2.4248
 20
8.27652
 30
0.0
 10
2.42715
 20
8.27652
 30
0.0
 10
2.42951
 20
8.27652
 30
0.0
 10
2.43159
 20
8.27652
 30
0.0
 10
2.43159
 20
8.27652
 30
0.0
 10
2.43368
 20
8.27652
 30
0.0
 10
2.43551
 20
8.27652
 30
0.0
 10
2.43706
 20
8.27652
 30
0.0
 10
2.43706
 20
8.27652
 30
0.0
 10
2.43861
 20
8.27652
 30
0.0
 10
2.43988
 20
8.27652
 30
0.0
 10
2.44068
 20
8.27652
 30
0.0
 10
2.44068
 20
8.27652
 30
0.0
 10
2.44148
 20
8.27652
 30
0.0
 10
2.44181
 20
8.27652
 30
0.0
 10
2.44214
 20
8.27652
 30
0.0
  0
SPLINE
  5
102
330
1F
100
AcDbEntity
  8
0
370
    15
100
AcDbSpline
210
0.0
220
0.0
230
1.0
 70
     8
 71
     3
 72
    24
 73
    20
 74
     0
 42
0.0000000001
 43
0.0000000001
 40
0.0
 40
0.0
 40
0.0
 40
0.0
 40
0.1666666666666667
 40
0.1666666666666667
 40
0.1666666666666667
 40
0.1666666666666667
 40
0.3333333333333333
 40
0.3333333333333333
 40
0.3333333333333333
 40
0.3333333333333333
 40
0.5
 40
0.5
 40
0.5
 40
0.5
 40
0.6666666666666666
 40
0.6666666666666666
 40
0.6666666666666666
 40
0.6666666666666666
 40
1.0
 40
1.0
 40
1.0
 40
1.0
 10
2.44213
 20
8.29117
 30
0.0
 10
2.44174
 20
8.29115
 30
0.0
 10
2.44135
 20
8.29113
 30
0.0
 10
2.44039
 20
8.29114
 30
0.0
 10
2.44039
 20
8.29114
 30
0.0
 10
2.43942
 20
8.29115
 30
0.0
 10
2.43789
 20
8.29119
 30
0.0
 10
2.43603
 20
8.29125
 30
0.0
 10
2.43603
 20
8.29125
 30
0.0
 10
2.43416
 20
8.2913
 30
0.0
 10
2.43197
 20
8.29138
 30
0.0
 10
2.42954
 20
8.29147
 30
0.0
 10
2.42954
 20
8.29147
 30
0.0
 10
2.42822
 20
8.29152
 30
0.0
 10
2.42683
 20
8.29157
 30
0.0
 10
2.4254
 20
8.29163
 30
0.0
 10
2.4254
 20
8.29163
 30
0.0
 10
2.42518
 20
8.29164
 30
0.0
 10
2.42495
 20
8.29165
 30
0.0
 10
2.42473
 20
8.29165
 30
0.0
  0
SPLINE
  5
103
330
1F
100
AcDbEntity
  8
0
370
    15
100
AcDbSpline
210
0.0
220
0.0
230
1.0
 70
     8
 71
     3
 72
     8
 73
     4
 74
     0
 42
0.0000000001
 43
0.0000000001
 40
0.0
 40
0.0
 40
0.0
 40
0.0
 40
1.0
 40
1.0
 40
1.0
 40
1.0
 10
2.59144
 20
8.42652
 30
0.0
 10
2.51435
 20
8.42652
 30
0.0
 10
2.44981
 20
8.36809
 30
0.0
 10
2.44217
 20
8.29138
 30
0.0
  0
SPLINE
  5
104
330
1F
100
AcDbEntity
  8
0
370
    15
100
AcDbSpline
210
0.0
220
0.0
230
1.0
 70
    24
 71
     3
 72
     8
 73
     4
 74
     0
 42
0.0000000001
 43
0.0000000001
 40
0.0
 40
0.0
 40
0.0
 40
0.0
 40
1.0
 40
1.0
 40
1.0
 40
1.0
 10
2.44217
 20
8.29138
 30
0.0
 10
2.44217
 20
8.29138
 30
0.0
 10
2.44213
 20
8.29117
 30
0.0
 10
2.44213
 20
8.29117
 30
0.0
  0
SPLINE
  5
105
330
1F
100
AcDbEntity
  8
0
370
    15
100
AcDbSpline
210
0.0
220
0.0
230
1.0
 70
    24
 71
     3
 72
     8
 73
     4
 74
     0
 42
0.0000000001
 43
0.0000000001
 40
0.0
 40
0.0
 40
0.0
 40
0.0
 40
1.0
 40
1.0
 40
1.0
 40
1.0
 10
2.59144
 20
8.42652
 30
0.0
 10
2.59144
 20
8.42652
 30
0.0
 10
2.59144
 20
8.44391
 30
0.0
 10
2.59144
 20
8.44391
 30
0.0
  0
SPLINE
  5
106
330
1F
100
AcDbEntity
  8
0
370
    15
100
AcDbSpline
210
0.0
220
0.0
230
1.0
 70
    24
 71
     3
 72
     8
 73
     4
 74
     0
 42
0.0000000001
 43
0.0000000001
 40
0.0
 40
0.0
 40
0.0
 40
0.0
 40
1.0
 40
1.0
 40
1.0
 40
1.0
 10
2.04144
 20
6.77652
 30
0.0
 10
2.04144
 20
6.77652
 30
0.0
 10
2.04144
 20
8.27652
 30
0.0
 10
2.04144
 20
8.27652
 30
0.0
  0
SPLINE
  5
107
330
1F
100
AcDbEntity
  8
0
370
    15
100
AcDbSpline
210
0.0
220
0.0
230
1.0
 70
    24
 71
     3
 72
     8
 73
     4
 74
     0
 42
0.0000000001
 43
0.0000000001
 40
0.0
 40
0.0
 40
0.0
 40
0.0
 40
1.0
 40
1.0
 40
1.0
 40
1.0
 10
2.05883
 20
8.27652
 30
0.0
 10
2.05883
 20
8.27652
 30
0.0
 10
2.04144
 20
8.27652
 30
0.0
 10
2.04144
 20
8.27652
 30
0.0
  0
SPLINE
  5
108
330
1F
100
AcDbEntity
  8
0
370
    15
100
AcDbSpline
210
0.0
220
0.0
230
1.0
 70
    24
 71
     3
 72
     8
 73
     4
 74
     0
 42
0.0000000001
 43
0.0000000001
 40
0.0
 40
0.0
 40
0.0
 40
0.0
 40
1.0
 40
1.0
 40
1.0
 40
1.0
 10
2.05883
 20
6.77652
 30
0.0
 10
2.05883
 20
6.77652
 30
0.0
 10
2.04144
 20
6.77652
 30
0.0
 10
2.04144
 20
6.77652
 30
0.0
  0
SPLINE
  5
109
330
1F
100
AcDbEntity
  8
0
370
    15
100
AcDbSpline
210
0.0
220
0.0
230
1.0
 70
     8
 71
     3
 72
    12
 73
     8
 74
     0
 42
0.0000000001
 43
0.0000000001
 40
0.0
 40
0.0
 40
0.0
 40
0.0
 40
0.3333333333333333
 40
0.3333333333333333
 40
0.3333333333333333
 40
0.3333333333333333
 40
1.0
 40
1.0
 40
1.0
 40
1.0
 10
2.59144
 20
8.82652
 30
0.0
 10
2.44557
 20
8.82652
 30
0.0
 10
2.30567
 20
8.76857
 30
0.0
 10
2.20253
 20
8.66543
 30
0.0
 10
2.20253
 20
8.66543
 30
0.0
 10
2.09938
 20
8.56228
 30
0.0
 10
2.04144
 20
8.42239
 30
0.0
 10
2.04144
 20
8.27652
 30
0.0
  0
SPLINE
  5
10A
330
1F
100
AcDbEntity
  8
0
370
    15
100
AcDbSpline
210
0.0
220
0.0
230
1.0
 70
    24
 71
     3
 72
     8
 73
     4
 74
     0
 42
0.0000000001
 43
0.0000000001
 40
0.0
 40
0.0
 40
0.0
 40
0.0
 40
1.0
 40
1.0
 40
1.0
 40
1.0
 10
2.59144
 20
8.80913
 30
0.0
 10
2.59144
 20
8.80913
 30
0.0
 10
2.59144
 20
8.82652
 30
0.0
 10
2.59144
 20
8.82652
 30
0.0
  0
SPLINE
  5
10B
330
1F
100
AcDbEntity
  8
0
370
    15
100
AcDbSpline
210
0.0
220
0.0
230
1.0
 70
    24
 71
     3
 72
     8
 73
     4
 74
     0
 42
0.0000000001
 43
0.0000000001
 40
0.0
 40
0.0
 40
0.0
 40
0.0
 40
1.0
 40
1.0
 40
1.0
 40
1.0
 10
3.74701
 20
8.42652
 30
0.0
 10
3.74701
 20
8.42652
 30
0.0
 10
2.59144
 20
8.42652
 30
0.0
 10
2.59144
 20
8.42652
 30
0.0
  0
SPLINE
  5
10C
330
1F
100
AcDbEntity
  8
0
370
    15
100
AcDbSpline
210
0.0
220
0.0
230
1.0
 70
    24
 71
     3
 72
     8
 73
     4
 74
     0
 42
0.0000000001
 43
0.0000000001
 40
0.0
 40
0.0
 40
0.0
 40
0.0
 40
1.0
 40
1.0
 40
1.0
 40
1.0
 10
2.59144
 20
8.82652
 30
0.0
 10
2.59144
 20
8.82652
 30
0.0
 10
3.74701
 20
8.82652
 30
0.0
 10
3.74701
 20
8.82652
 30
0.0
  0
SPLINE
  5
10D
330
1F
100
AcDbEntity
  8
0
370
    15
100
AcDbSpline
210
0.0
220
0.0
230
1.0
 70
    24
 71
     3
 72
     8
 73
     4
 74
     0
 42
0.0000000001
 43
0.0000000001
 40
0.0
 40
0.0
 40
0.0
 40
0.0
 40
1.0
 40
1.0
 40
1.0
 40
1.0
 10
2.44214
 20
8.27652
 30
0.0
 10
2.44214
 20
8.27652
 30
0.0
 10
2.44214
 20
6.77652
 30
0.0
 10
2.44214
 20
6.77652
 30
0.0
  0
SPLINE
  5
10E
330
1F
100
AcDbEntity
  8
0
370
    15
100
AcDbSpline
210
0.0
220
0.0
230
1.0
 70
    24
 71
     3
 72
     8
 73
     4
 74
     0
 42
0.0000000001
 43
0.0000000001
 40
0.0
 40
0.0
 40
0.0
 40
0.0
 40
1.0
 40
1.0
 40
1.0
 40
1.0
 10
2.44214
 20
6.77652
 30
0.0
 10
2.44214
 20
6.77652
 30
0.0
 10
2.4248
 20
6.77652
 30
0.0
 10
2.4248
 20
6.77652
 30
0.0
  0
SPLINE
  5
10F
330
1F
100
AcDbEntity
  8
0
370
    15
100
AcDbSpline
210
0.0
220
0.0
230
1.0
 70
    24
 71
     3
 72
     8
 73
     4
 74
     0
 42
0.0000000001
 43
0.0000000001
 40
0.0
 40
0.0
 40
0.0
 40
0.0
 40
1.0
 40
1.0
 40
1.0
 40
1.0
 10
2.47548
 20
6.77652
 30
0.0
 10
2.47548
 20
6.77652
 30
0.0
 10
2.44214
 20
6.77652
 30
0.0
 10
2.44214
 20
6.77652
 30
0.0
  0
SPLINE
  5
110
330
1F
100
AcDbEntity
  8
0
370
    15
100
AcDbSpline
210
0.0
220
0.0
230
1.0
 70
    24
 71
     3
 72
     8
 73
     4
 74
     0
 42
0.0000000001
 43
0.0000000001
 40
0.0
 40
0.0
 40
0.0
 40
0.0
 40
1.0
 40
1.0
 40
1.0
 40
1.0
 10
2.07737
 20
8.47208
 30
0.0
 10
2.07737
 20
8.47208
 30
0.0
 10
2.06569
 20
8.47652
 30
0.0
 10
2.06569
 20
8.47652
 30
0.0
  0
SPLINE
  5
111
330
1F
100
AcDbEntity
  8
0
370
    15
100
AcDbSpline
210
0.0
220
0.0
230
1.0
 70
     8
 71
     3
 72
    24
 73
    20
 74
     0
 42
0.0000000001
 43
0.0000000001
 40
0.0
 40
0.0
 40
0.0
 40
0.0
 40
0.1666666666666667
 40
0.1666666666666667
 40
0.1666666666666667
 40
0.1666666666666667
 40
0.3333333333333333
 40
0.3333333333333333
 40
0.3333333333333333
 40
0.3333333333333333
 40
0.5
 40
0.5
 40
0.5
 40
0.5
 40
0.6666666666666666
 40
0.6666666666666666
 40
0.6666666666666666
 40
0.6666666666666666
 40
1.0
 40
1.0
 40
1.0
 40
1.0
 10
2.06569
 20
8.47652
 30
0.0
 10
2.0743
 20
8.49538
 30
0.0
 10
2.08292
 20
8.51425
 30
0.0
 10
2.09238
 20
8.53145
 30
0.0
 10
2.09238
 20
8.53145
 30
0.0
 10
2.10138
 20
8.54783
 30
0.0
 10
2.11115
 20
8.5627
 30
0.0
 10
2.12039
 20
8.57571
 30
0.0
 10
2.12039
 20
8.57571
 30
0.0
 10
2.12798
 20
8.58638
 30
0.0
 10
2.13521
 20
8.5958
 30
0.0
 10
2.1417
 20
8.60377
 30
0.0
 10
2.1417
 20
8.60377
 30
0.0
 10
2.14749
 20
8.61088
 30
0.0
 10
2.15268
 20
8.61684
 30
0.0
 10
2.15586
 20
8.62044
 30
0.0
 10
2.15586
 20
8.62044
 30
0.0
 10
2.15902
 20
8.62404
 30
0.0
 10
2.16017
 20
8.62528
 30
0.0
 10
2.16132
 20
8.62652
 30
0.0
  0
SPLINE
  5
112
330
1F
100
AcDbEntity
  8
0
370
    15
100
AcDbSpline
210
0.0
220
0.0
230
1.0
 70
     8
 71
     3
 72
     8
 73
     4
 74
     0
 42
0.0000000001
 43
0.0000000001
 40
0.0
 40
0.0
 40
0.0
 40
0.0
 40
1.0
 40
1.0
 40
1.0
 40
1.0
 10
2.16132
 20
8.62652
 30
0.0
 10
2.165
 20
8.62652
 30
0.0
 10
2.1685
 20
8.62815
 30
0.0
 10
2.17088
 20
8.63097
 30
0.0
  0
SPLINE
  5
113
330
1F
100
AcDbEntity
  8
0
370
    15
100
AcDbSpline
210
0.0
220
0.0
230
1.0
 70
    24
 71
     3
 72
     8
 73
     4
 74
     0
 42
0.0000000001
 43
0.0000000001
 40
0.0
 40
0.0
 40
0.0
 40
0.0
 40
1.0
 40
1.0
 40
1.0
 40
1.0
 10
2.04144
 20
8.27652
 30
0.0
 10
2.04144
 20
8.27652
 30
0.0
 10
2.02894
 20
8.27652
 30
0.0
 10
2.02894
 20
8.27652
 30
0.0
  0
SPLINE
  5
114
330
1F
100
AcDbEntity
  8
0
370
    15
100
AcDbSpline
210
0.0
220
0.0
230
1.0
 70
     8
 71
     3
 72
     8
 73
     4
 74
     0
 42
0.0000000001
 43
0.0000000001
 40
0.0
 40
0.0
 40
0.0
 40
0.0
 40
1.0
 40
1.0
 40
1.0
 40
1.0
 10
2.06569
 20
8.47652
 30
0.0
 10
2.04139
 20
8.41264
 30
0.0
 10
2.02894
 20
8.34487
 30
0.0
 10
2.02894
 20
8.27652
 30
0.0
  0
SPLINE
  5
115
330
1F
100
AcDbEntity
  8
0
370
    15
100
AcDbSpline
210
0.0
220
0.0
230
1.0
 70
    24
 71
     3
 72
     8
 73
     4
 74
     0
 42
0.0000000001
 43
0.0000000001
 40
0.0
 40
0.0
 40
0.0
 40
0.0
 40
1.0
 40
1.0
 40
1.0
 40
1.0
 10
2.02894
 20
6.77652
 30
0.0
 10
2.02894
 20
6.77652
 30
0.0
 10
2.02894
 20
8.27652
 30
0.0
 10
2.02894
 20
8.27652
 30
0.0
  0
SPLINE
  5
116
330
1F
100
AcDbEntity
  8
0
370
    15
100
AcDbSpline
210
0.0
220
0.0
230
1.0
 70
    24
 71
     3
 72
     8
 73
     4
 74
     0
 42
0.0000000001
 43
0.0000000001
 40
0.0
 40
0.0
 40
0.0
 40
0.0
 40
1.0
 40
1.0
 40
1.0
 40
1.0
 10
2.04144
 20
6.77652
 30
0.0
 10
2.04144
 20
6.77652
 30
0.0
 10
2.02894
 20
6.77652
 30
0.0
 10
2.02894
 20
6.77652
 30
0.0
  0
SPLINE
  5
117
330
1F
100
AcDbEntity
  8
0
370
    15
100
AcDbSpline
210
0.0
220
0.0
230
1.0
 70
    24
 71
     3
 72
     8
 73
     4
 74
     0
 42
0.0000000001
 43
0.0000000001
 40
0.0
 40
0.0
 40
0.0
 40
0.0
 40
1.0
 40
1.0
 40
1.0
 40
1.0
 10
1.94144
 20
8.62652
 30
0.0
 10
1.94144
 20
8.62652
 30
0.0
 10
2.16132
 20
8.62652
 30
0.0
 10
2.16132
 20
8.62652
 30
0.0
  0
SPLINE
  5
118
330
1F
100
AcDbEntity
  8
0
370
    15
100
AcDbSpline
210
0.0
220
0.0
230
1.0
 70
    24
 71
     3
 72
     8
 73
     4
 74
     0
 42
0.0000000001
 43
0.0000000001
 40
0.0
 40
0.0
 40
0.0
 40
0.0
 40
1.0
 40
1.0
 40
1.0
 40
1.0
 10
2.06569
 20
8.47652
 30
0.0
 10
2.06569
 20
8.47652
 30
0.0
 10
1.94144
 20
8.47652
 30
0.0
 10
1.94144
 20
8.47652
 30
0.0
  0
SPLINE
  5
119
330
1F
100
AcDbEntity
  8
0
370
    15
100
AcDbSpline
210
0.0
220
0.0
230
1.0
 70
    24
 71
     3
 72
     8
 73
     4
 74
     0
 42
0.0000000001
 43
0.0000000001
 40
0.0
 40
0.0
 40
0.0
 40
0.0
 40
1.0
 40
1.0
 40
1.0
 40
1.0
 10
1.94144
 20
8.47652
 30
0.0
 10
1.94144
 20
8.47652
 30
0.0
 10
1.94144
 20
8.62652
 30
0.0
 10
1.94144
 20
8.62652
 30
0.0
  0
SPLINE
  5
11A
330
1F
100
AcDbEntity
  8
0
370
    15
100
AcDbSpline
210
0.0
220
0.0
230
1.0
 70
    24
 71
     3
 72
     8
 73
     4
 74
     0
 42
0.0000000001
 43
0.0000000001
 40
0.0
 40
0.0
 40
0.0
 40
0.0
 40
1.0
 40
1.0
 40
1.0
 40
1.0
 10
1.94144
 20
6.77652
 30
0.0
 10
1.94144
 20
6.77652
 30
0.0
 10
1.94144
 20
8.47652
 30
0.0
 10
1.94144
 20
8.47652
 30
0.0
  0
SPLINE
  5
11B
330
1F
100
AcDbEntity
  8
0
370
    15
100
AcDbSpline
210
0.0
220
0.0
230
1.0
 70
    24
 71
     3
 72
     8
 73
     4
 74
     0
 42
0.0000000001
 43
0.0000000001
 40
0.0
 40
0.0
 40
0.0
 40
0.0
 40
1.0
 40
1.0
 40
1.0
 40
1.0
 10
1.94144
 20
6.77652
 30
0.0
 10
1.94144
 20
6.77652
 30
0.0
 10
2.02894
 20
6.77652
 30
0.0
 10
2.02894
 20
6.77652
 30
0.0
  0
SPLINE
  5
11C
330
1F
100
AcDbEntity
  8
0
370
    15
100
AcDbSpline
210
0.0
220
0.0
230
1.0
 70
    24
 71
     3
 72
     8
 73
     4
 74
     0
 42
0.0000000001
 43
0.0000000001
 40
0.0
 40
0.0
 40
0.0
 40
0.0
 40
1.0
 40
1.0
 40
1.0
 40
1.0
 10
1.92644
 20
8.32765
 30
0.0
 10
1.92644
 20
8.32765
 30
0.0
 10
1.94144
 20
8.32752
 30
0.0
 10
1.94144
 20
8.32752
 30
0.0
  0
SPLINE
  5
11D
330
1F
100
AcDbEntity
  8
0
370
    15
100
AcDbSpline
210
0.0
220
0.0
230
1.0
 70
    24
 71
     3
 72
     8
 73
     4
 74
     0
 42
0.0000000001
 43
0.0000000001
 40
0.0
 40
0.0
 40
0.0
 40
0.0
 40
1.0
 40
1.0
 40
1.0
 40
1.0
 10
1.92644
 20
8.32765
 30
0.0
 10
1.92644
 20
8.32765
 30
0.0
 10
1.92644
 20
6.77652
 30
0.0
 10
1.92644
 20
6.77652
 30
0.0
  0
SPLINE
  5
11E
330
1F
100
AcDbEntity
  8
0
370
    15
100
AcDbSpline
210
0.0
220
0.0
230
1.0
 70
    24
 71
     3
 72
     8
 73
     4
 74
     0
 42
0.0000000001
 43
0.0000000001
 40
0.0
 40
0.0
 40
0.0
 40
0.0
 40
1.0
 40
1.0
 40
1.0
 40
1.0
 10
1.92644
 20
6.77652
 30
0.0
 10
1.92644
 20
6.77652
 30
0.0
 10
1.94144
 20
6.77652
 30
0.0
 10
1.94144
 20
6.77652
 30
0.0
  0
SPLINE
  5
11F
330
1F
100
AcDbEntity
  8
0
 62
     8
370
    15
100
AcDbSpline
210
0.0
220
0.0
230
1.0
 70
    24
 71
     3
 72
     8
 73
     4
 74
     0
 42
0.0000000001
 43
0.0000000001
 40
0.0
 40
0.0
 40
0.0
 40
0.0
 40
1.0
 40
1.0
 40
1.0
 40
1.0
 10
3.81644
 20
11.38432
 30
0.0
 10
3.81644
 20
11.38432
 30
0.0
 10
5.46644
 20
11.38432
 30
0.0
 10
5.46644
 20
11.38432
 30
0.0
  0
SPLINE
  5
120
330
1F
100
AcDbEntity
  8
0
 62
     8
370
    15
100
AcDbSpline
210
0.0
220
0.0
230
1.0
 70
    24
 71
     3
 72
     8
 73
     4
 74
     0
 42
0.0000000001
 43
0.0000000001
 40
0.0
 40
0.0
 40
0.0
 40
0.0
 40
1.0
 40
1.0
 40
1.0
 40
1.0
 10
4.10394
 20
11.40932
 30
0.0
 10
4.10394
 20
11.40932
 30
0.0
 10
5.17894
 20
11.40932
 30
0.0
 10
5.17894
 20
11.40932
 30
0.0
  0
SPLINE
  5
121
330
1F
100
AcDbEntity
  8
0
 62
     8
370
    15
100
AcDbSpline
210
0.0
220
0.0
230
1.0
 70
    24
 71
     3
 72
     8
 73
     4
 74
     0
 42
0.0000000001
 43
0.0000000001
 40
0.0
 40
0.0
 40
0.0
 40
0.0
 40
1.0
 40
1.0
 40
1.0
 40
1.0
 10
3.79178
 20
10.67182
 30
0.0
 10
3.79178
 20
10.67182
 30
0.0
 10
3.79144
 20
10.67182
 30
0.0
 10
3.79144
 20
10.67182
 30
0.0
  0
SPLINE
  5
122
330
1F
100
AcDbEntity
  8
0
 62
     8
370
    15
100
AcDbSpline
210
0.0
220
0.0
230
1.0
 70
    24
 71
     3
 72
     8
 73
     4
 74
     0
 42
0.0000000001
 43
0.0000000001
 40
0.0
 40
0.0
 40
0.0
 40
0.0
 40
1.0
 40
1.0
 40
1.0
 40
1.0
 10
5.49144
 20
10.67182
 30
0.0
 10
5.49144
 20
10.67182
 30
0.0
 10
3.79178
 20
10.67182
 30
0.0
 10
3.79178
 20
10.67182
 30
0.0
  0
SPLINE
  5
123
330
1F
100
AcDbEntity
  8
0
 62
     8
370
    15
100
AcDbSpline
210
0.0
220
0.0
230
1.0
 70
    24
 71
     3
 72
     8
 73
     4
 74
     0
 42
0.0000000001
 43
0.0000000001
 40
0.0
 40
0.0
 40
0.0
 40
0.0
 40
1.0
 40
1.0
 40
1.0
 40
1.0
 10
2.94144
 20
9.01936
 30
0.0
 10
2.94144
 20
9.01936
 30
0.0
 10
6.34144
 20
9.01936
 30
0.0
 10
6.34144
 20
9.01936
 30
0.0
  0
SPLINE
  5
124
330
1F
100
AcDbEntity
  8
0
 62
     8
370
    15
100
AcDbSpline
210
0.0
220
0.0
230
1.0
 70
    24
 71
     3
 72
     8
 73
     4
 74
     0
 42
0.0000000001
 43
0.0000000001
 40
0.0
 40
0.0
 40
0.0
 40
0.0
 40
1.0
 40
1.0
 40
1.0
 40
1.0
 10
4.64992
 20
10.39682
 30
0.0
 10
4.64992
 20
10.39682
 30
0.0
 10
2.94144
 20
10.39682
 30
0.0
 10
2.94144
 20
10.39682
 30
0.0
  0
SPLINE
  5
125
330
1F
100
AcDbEntity
  8
0
 62
     8
370
    15
100
AcDbSpline
210
0.0
220
0.0
230
1.0
 70
    24
 71
     3
 72
     8
 73
     4
 74
     0
 42
0.0000000001
 43
0.0000000001
 40
0.0
 40
0.0
 40
0.0
 40
0.0
 40
1.0
 40
1.0
 40
1.0
 40
1.0
 10
6.34144
 20
10.39682
 30
0.0
 10
6.34144
 20
10.39682
 30
0.0
 10
4.64992
 20
10.39682
 30
0.0
 10
4.64992
 20
10.39682
 30
0.0
  0
SPLINE
  5
126
330
1F
100
AcDbEntity
  8
0
 62
     8
370
    15
100
AcDbSpline
210
0.0
220
0.0
230
1.0
 70
    24
 71
     3
 72
     8
 73
     4
 74
     0
 42
0.0000000001
 43
0.0000000001
 40
0.0
 40
0.0
 40
0.0
 40
0.0
 40
1.0
 40
1.0
 40
1.0
 40
1.0
 10
3.14144
 20
5.82182
 30
0.0
 10
3.14144
 20
5.82182
 30
0.0
 10
6.14144
 20
5.82182
 30
0.0
 10
6.14144
 20
5.82182
 30
0.0
  0
SPLINE
  5
127
330
1F
100
AcDbEntity
  8
0
 62
     8
370
    15
100
AcDbSpline
210
0.0
220
0.0
230
1.0
 70
    24
 71
     3
 72
     8
 73
     4
 74
     0
 42
0.0000000001
 43
0.0000000001
 40
0.0
 40
0.0
 40
0.0
 40
0.0
 40
1.0
 40
1.0
 40
1.0
 40
1.0
 10
3.851
 20
8.44391
 30
0.0
 10
3.851
 20
8.44391
 30
0.0
 10
6.49729
 20
8.44391
 30
0.0
 10
6.49729
 20
8.44391
 30
0.0
  0
SPLINE
  5
128
330
1F
100
AcDbEntity
  8
0
 62
     8
370
    15
100
AcDbSpline
210
0.0
220
0.0
230
1.0
 70
    24
 71
     3
 72
     8
 73
     4
 74
     0
 42
0.0000000001
 43
0.0000000001
 40
0.0
 40
0.0
 40
0.0
 40
0.0
 40
1.0
 40
1.0
 40
1.0
 40
1.0
 10
6.49729
 20
8.80913
 30
0.0
 10
6.49729
 20
8.80913
 30
0.0
 10
3.851
 20
8.80913
 30
0.0
 10
3.851
 20
8.80913
 30
0.0
  0
SPLINE
  5
129
330
1F
100
AcDbEntity
  8
0
100
AcDbSpline
210
0.0
220
0.0
230
1.0
 70
    27
 71
     3
 72
    12
 73
     8
 74
     0
 42
0.0000000001
 43
0.0000000001
 40
0.0
 40
0.0
 40
0.0
 40
0.0
 40
0.3333333333333333
 40
0.3333333333333333
 40
0.3333333333333333
 40
0.3333333333333333
 40
1.0
 40
1.0
 40
1.0
 40
1.0
 10
7.39144
 20
13.60973
 30
0.0
 10
7.39144
 20
13.60973
 30
0.0
 10
7.06124
 20
13.55893
 30
0.0
 10
7.06124
 20
13.55893
 30
0.0
 10
7.06124
 20
13.55893
 30
0.0
 10
7.06124
 20
13.55893
 30
0.0
 10
7.39144
 20
13.60973
 30
0.0
 10
7.39144
 20
13.60973
 30
0.0
  0
SPLINE
  5
12A
330
1F
100
AcDbEntity
  8
0
100
AcDbSpline
210
0.0
220
0.0
230
1.0
 70
     8
 71
     3
 72
    12
 73
     8
 74
     0
 42
0.0000000001
 43
0.0000000001
 40
0.0
 40
0.0
 40
0.0
 40
0.0
 40
0.3333333333333333
 40
0.3333333333333333
 40
0.3333333333333333
 40
0.3333333333333333
 40
1.0
 40
1.0
 40
1.0
 40
1.0
 10
7.06124
 20
13.55893
 30
0.0
 10
7.06124
 20
13.55893
 30
0.0
 10
7.06124
 20
13.66053
 30
0.0
 10
7.06124
 20
13.66053
 30
0.0
 10
7.06124
 20
13.66053
 30
0.0
 10
7.06124
 20
13.66053
 30
0.0
 10
7.39144
 20
13.60973
 30
0.0
 10
7.39144
 20
13.60973
 30
0.0
  0
SPLINE
  5
12B
330
1F
100
AcDbEntity
  8
0
370
     9
100
AcDbSpline
210
0.0
220
0.0
230
1.0
 70
    24
 71
     3
 72
     8
 73
     4
 74
     0
 42
0.0000000001
 43
0.0000000001
 40
0.0
 40
0.0
 40
0.0
 40
0.0
 40
1.0
 40
1.0
 40
1.0
 40
1.0
 10
7.39144
 20
13.60973
 30
0.0
 10
7.39144
 20
13.60973
 30
0.0
 10
7.06124
 20
13.55893
 30
0.0
 10
7.06124
 20
13.55893
 30
0.0
  0
SPLINE
  5
12C
330
1F
100
AcDbEntity
  8
0
370
     9
100
AcDbSpline
210
0.0
220
0.0
230
1.0
 70
     8
 71
     3
 72
    12
 73
     8
 74
     0
 42
0.0000000001
 43
0.0000000001
 40
0.0
 40
0.0
 40
0.0
 40
0.0
 40
0.3333333333333333
 40
0.3333333333333333
 40
0.3333333333333333
 40
0.3333333333333333
 40
1.0
 40
1.0
 40
1.0
 40
1.0
 10
7.06124
 20
13.55893
 30
0.0
 10
7.06124
 20
13.55893
 30
0.0
 10
7.06124
 20
13.66053
 30
0.0
 10
7.06124
 20
13.66053
 30
0.0
 10
7.06124
 20
13.66053
 30
0.0
 10
7.06124
 20
13.66053
 30
0.0
 10
7.39144
 20
13.60973
 30
0.0
 10
7.39144
 20
13.60973
 30
0.0
  0
SPLINE
  5
12D
330
1F
100
AcDbEntity
  8
0
100
AcDbSpline
210
0.0
220
0.0
230
1.0
 70
    27
 71
     3
 72
    12
 73
     8
 74
     0
 42
0.0000000001
 43
0.0000000001
 40
0.0
 40
0.0
 40
0.0
 40
0.0
 40
0.3333333333333333
 40
0.3333333333333333
 40
0.3333333333333333
 40
0.3333333333333333
 40
1.0
 40
1.0
 40
1.0
 40
1.0
 10
1.92644
 20
13.60973
 30
0.0
 10
1.92644
 20
13.60973
 30
0.0
 10
2.25664
 20
13.66053
 30
0.0
 10
2.25664
 20
13.66053
 30
0.0
 10
2.25664
 20
13.66053
 30
0.0
 10
2.25664
 20
13.66053
 30
0.0
 10
1.92644
 20
13.60973
 30
0.0
 10
1.92644
 20
13.60973
 30
0.0
  0
SPLINE
  5
12E
330
1F
100
AcDbEntity
  8
0
100
AcDbSpline
210
0.0
220
0.0
230
1.0
 70
     8
 71
     3
 72
    12
 73
     8
 74
     0
 42
0.0000000001
 43
0.0000000001
 40
0.0
 40
0.0
 40
0.0
 40
0.0
 40
0.3333333333333333
 40
0.3333333333333333
 40
0.3333333333333333
 40
0.3333333333333333
 40
1.0
 40
1.0
 40
1.0
 40
1.0
 10
2.25664
 20
13.66053
 30
0.0
 10
2.25664
 20
13.66053
 30
0.0
 10
2.25664
 20
13.55893
 30
0.0
 10
2.25664
 20
13.55893
 30
0.0
 10
2.25664
 20
13.55893
 30
0.0
 10
2.25664
 20
13.55893
 30
0.0
 10
1.92644
 20
13.60973
 30
0.0
 10
1.92644
 20
13.60973
 30
0.0
  0
SPLINE
  5
12F
330
1F
100
AcDbEntity
  8
0
370
     9
100
AcDbSpline
210
0.0
220
0.0
230
1.0
 70
    24
 71
     3
 72
     8
 73
     4
 74
     0
 42
0.0000000001
 43
0.0000000001
 40
0.0
 40
0.0
 40
0.0
 40
0.0
 40
1.0
 40
1.0
 40
1.0
 40
1.0
 10
1.92644
 20
13.60973
 30
0.0
 10
1.92644
 20
13.60973
 30
0.0
 10
2.25664
 20
13.66053
 30
0.0
 10
2.25664
 20
13.66053
 30
0.0
  0
SPLINE
  5
130
330
1F
100
AcDbEntity
  8
0
370
     9
100
AcDbSpline
210
0.0
220
0.0
230
1.0
 70
     8
 71
     3
 72
    12
 73
     8
 74
     0
 42
0.0000000001
 43
0.0000000001
 40
0.0
 40
0.0
 40
0.0
 40
0.0
 40
0.3333333333333333
 40
0.3333333333333333
 40
0.3333333333333333
 40
0.3333333333333333
 40
1.0
 40
1.0
 40
1.0
 40
1.0
 10
2.25664
 20
13.66053
 30
0.0
 10
2.25664
 20
13.66053
 30
0.0
 10
2.25664
 20
13.55893
 30
0.0
 10
2.25664
 20
13.55893
 30
0.0
 10
2.25664
 20
13.55893
 30
0.0
 10
2.25664
 20
13.55893
 30
0.0
 10
1.92644
 20
13.60973
 30
0.0
 10
1.92644
 20
13.60973
 30
0.0
  0
SPLINE
  5
131
330
1F
100
AcDbEntity
  8
0
370
     9
100
AcDbSpline
210
0.0
220
0.0
230
1.0
 70
    24
 71
     3
 72
     8
 73
     4
 74
     0
 42
0.0000000001
 43
0.0000000001
 40
0.0
 40
0.0
 40
0.0
 40
0.0
 40
1.0
 40
1.0
 40
1.0
 40
1.0
 10
7.39144
 20
13.17182
 30
0.0
 10
7.39144
 20
13.17182
 30
0.0
 10
7.39144
 20
13.70973
 30
0.0
 10
7.39144
 20
13.70973
 30
0.0
  0
SPLINE
  5
132
330
1F
100
AcDbEntity
  8
0
370
     9
100
AcDbSpline
210
0.0
220
0.0
230
1.0
 70
    24
 71
     3
 72
     8
 73
     4
 74
     0
 42
0.0000000001
 43
0.0000000001
 40
0.0
 40
0.0
 40
0.0
 40
0.0
 40
1.0
 40
1.0
 40
1.0
 40
1.0
 10
1.92644
 20
8.42765
 30
0.0
 10
1.92644
 20
8.42765
 30
0.0
 10
1.92644
 20
13.70973
 30
0.0
 10
1.92644
 20
13.70973
 30
0.0
  0
SPLINE
  5
133
330
1F
100
AcDbEntity
  8
0
370
     9
100
AcDbSpline
210
0.0
220
0.0
230
1.0
 70
    24
 71
     3
 72
     8
 73
     4
 74
     0
 42
0.0000000001
 43
0.0000000001
 40
0.0
 40
0.0
 40
0.0
 40
0.0
 40
1.0
 40
1.0
 40
1.0
 40
1.0
 10
7.39144
 20
13.60973
 30
0.0
 10
7.39144
 20
13.60973
 30
0.0
 10
1.92644
 20
13.60973
 30
0.0
 10
1.92644
 20
13.60973
 30
0.0
  0
SPLINE
  5
134
330
1F
100
AcDbEntity
  8
0
100
AcDbSpline
210
0.0
220
0.0
230
1.0
 70
    11
 71
     3
 72
    40
 73
    36
 74
     0
 42
0.0000000001
 43
0.0000000001
 40
0.0
 40
0.0
 40
0.0
 40
0.0
 40
0.1
 40
0.1
 40
0.1
 40
0.1
 40
0.2
 40
0.2
 40
0.2
 40
0.2
 40
0.3
 40
0.3
 40
0.3
 40
0.3
 40
0.4
 40
0.4
 40
0.4
 40
0.4
 40
0.5
 40
0.5
 40
0.5
 40
0.5
 40
0.6
 40
0.6
 40
0.6
 40
0.6
 40
0.7
 40
0.7
 40
0.7
 40
0.7
 40
0.8
 40
0.8
 40
0.8
 40
0.8
 40
1.0
 40
1.0
 40
1.0
 40
1.0
 10
4.2948
 20
13.74403
 30
0.0
 10
4.2948
 20
13.74403
 30
0.0
 10
4.26406
 20
13.74403
 30
0.0
 10
4.26406
 20
13.74403
 30
0.0
 10
4.26406
 20
13.74403
 30
0.0
 10
4.26406
 20
13.74403
 30
0.0
 10
4.26406
 20
13.94003
 30
0.0
 10
4.26406
 20
13.94003
 30
0.0
 10
4.26406
 20
13.94003
 30
0.0
 10
4.25665
 20
13.93297
 30
0.0
 10
4.24697
 20
13.92591
 30
0.0
 10
4.23495
 20
13.91885
 30
0.0
 10
4.23495
 20
13.91885
 30
0.0
 10
4.22288
 20
13.9118
 30
0.0
 10
4.21209
 20
13.90649
 30
0.0
 10
4.20252
 20
13.90299
 30
0.0
 10
4.20252
 20
13.90299
 30
0.0
 10
4.20252
 20
13.90299
 30
0.0
 10
4.20252
 20
13.93268
 30
0.0
 10
4.20252
 20
13.93268
 30
0.0
 10
4.20252
 20
13.93268
 30
0.0
 10
4.21973
 20
13.94079
 30
0.0
 10
4.23478
 20
13.95059
 30
0.0
 10
4.24767
 20
13.96208
 30
0.0
 10
4.24767
 20
13.96208
 30
0.0
 10
4.2605
 20
13.97363
 30
0.0
 10
4.26966
 20
13.98477
 30
0.0
 10
4.27503
 20
13.99562
 30
0.0
 10
4.27503
 20
13.99562
 30
0.0
 10
4.27503
 20
13.99562
 30
0.0
 10
4.2948
 20
13.99562
 30
0.0
 10
4.2948
 20
13.99562
 30
0.0
 10
4.2948
 20
13.99562
 30
0.0
 10
4.2948
 20
13.99562
 30
0.0
 10
4.2948
 20
13.74403
 30
0.0
 10
4.2948
 20
13.74403
 30
0.0
  0
SPLINE
  5
135
330
1F
100
AcDbEntity
  8
0
100
AcDbSpline
210
0.0
220
0.0
230
1.0
 70
    11
 71
     3
 72
    52
 73
    48
 74
     0
 42
0.0000000001
 43
0.0000000001
 40
0.0
 40
0.0
 40
0.0
 40
0.0
 40
0.0769230769230769
 40
0.0769230769230769
 40
0.0769230769230769
 40
0.0769230769230769
 40
0.1538461538461539
 40
0.1538461538461539
 40
0.1538461538461539
 40
0.1538461538461539
 40
0.2307692307692308
 40
0.2307692307692308
 40
0.2307692307692308
 40
0.2307692307692308
 40
0.3076923076923077
 40
0.3076923076923077
 40
0.3076923076923077
 40
0.3076923076923077
 40
0.3846153846153846
 40
0.3846153846153846
 40
0.3846153846153846
 40
0.3846153846153846
 40
0.4615384615384616
 40
0.4615384615384616
 40
0.4615384615384616
 40
0.4615384615384616
 40
0.5384615384615384
 40
0.5384615384615384
 40
0.5384615384615384
 40
0.5384615384615384
 40
0.6153846153846154
 40
0.6153846153846154
 40
0.6153846153846154
 40
0.6153846153846154
 40
0.6923076923076923
 40
0.6923076923076923
 40
0.6923076923076923
 40
0.6923076923076923
 40
0.7692307692307693
 40
0.7692307692307693
 40
0.7692307692307693
 40
0.7692307692307693
 40
0.8461538461538461
 40
0.8461538461538461
 40
0.8461538461538461
 40
0.8461538461538461
 40
1.0
 40
1.0
 40
1.0
 40
1.0
 10
4.37361
 20
13.86758
 30
0.0
 10
4.37361
 20
13.89721
 30
0.0
 10
4.37665
 20
13.92107
 30
0.0
 10
4.38277
 20
13.9391
 30
0.0
 10
4.38277
 20
13.9391
 30
0.0
 10
4.38884
 20
13.95718
 30
0.0
 10
4.39794
 20
13.97112
 30
0.0
 10
4.40996
 20
13.98092
 30
0.0
 10
4.40996
 20
13.98092
 30
0.0
 10
4.42197
 20
13.99072
 30
0.0
 10
4.43708
 20
13.99562
 30
0.0
 10
4.45528
 20
13.99562
 30
0.0
 10
4.45528
 20
13.99562
 30
0.0
 10
4.46876
 20
13.99562
 30
0.0
 10
4.48054
 20
13.99288
 30
0.0
 10
4.49069
 20
13.98745
 30
0.0
 10
4.49069
 20
13.98745
 30
0.0
 10
4.50084
 20
13.98209
 30
0.0
 10
4.50918
 20
13.97427
 30
0.0
 10
4.51583
 20
13.96406
 30
0.0
 10
4.51583
 20
13.96406
 30
0.0
 10
4.52242
 20
13.95385
 30
0.0
 10
4.52761
 20
13.94143
 30
0.0
 10
4.53135
 20
13.92679
 30
0.0
 10
4.53135
 20
13.92679
 30
0.0
 10
4.53514
 20
13.91215
 30
0.0
 10
4.53701
 20
13.89243
 30
0.0
 10
4.53701
 20
13.86758
 30
0.0
 10
4.53701
 20
13.86758
 30
0.0
 10
4.53701
 20
13.83818
 30
0.0
 10
4.53397
 20
13.8145
 30
0.0
 10
4.52796
 20
13.79641
 30
0.0
 10
4.52796
 20
13.79641
 30
0.0
 10
4.5219
 20
13.77833
 30
0.0
 10
4.51286
 20
13.76439
 30
0.0
 10
4.50084
 20
13.75453
 30
0.0
 10
4.50084
 20
13.75453
 30
0.0
 10
4.48882
 20
13.74467
 30
0.0
 10
4.47366
 20
13.73977
 30
0.0
 10
4.45528
 20
13.73977
 30
0.0
 10
4.45528
 20
13.73977
 30
0.0
 10
4.43113
 20
13.73977
 30
0.0
 10
4.41217
 20
13.7484
 30
0.0
 10
4.39841
 20
13.76573
 30
0.0
 10
4.39841
 20
13.76573
 30
0.0
 10
4.3819
 20
13.78655
 30
0.0
 10
4.37361
 20
13.82056
 30
0.0
 10
4.37361
 20
13.86758
 30
0.0
  0
SPLINE
  5
136
330
1F
100
AcDbEntity
  8
0
100
AcDbSpline
210
0.0
220
0.0
230
1.0
 70
    11
 71
     3
 72
    36
 73
    32
 74
     0
 42
0.0000000001
 43
0.0000000001
 40
0.0
 40
0.0
 40
0.0
 40
0.0
 40
0.1111111111111111
 40
0.1111111111111111
 40
0.1111111111111111
 40
0.1111111111111111
 40
0.2222222222222222
 40
0.2222222222222222
 40
0.2222222222222222
 40
0.2222222222222222
 40
0.3333333333333333
 40
0.3333333333333333
 40
0.3333333333333333
 40
0.3333333333333333
 40
0.4444444444444444
 40
0.4444444444444444
 40
0.4444444444444444
 40
0.4444444444444444
 40
0.5555555555555556
 40
0.5555555555555556
 40
0.5555555555555556
 40
0.5555555555555556
 40
0.6666666666666666
 40
0.6666666666666666
 40
0.6666666666666666
 40
0.6666666666666666
 40
0.7777777777777778
 40
0.7777777777777778
 40
0.7777777777777778
 40
0.7777777777777778
 40
1.0
 40
1.0
 40
1.0
 40
1.0
 10
4.40523
 20
13.86758
 30
0.0
 10
4.40523
 20
13.82645
 30
0.0
 10
4.41007
 20
13.7991
 30
0.0
 10
4.4197
 20
13.78545
 30
0.0
 10
4.4197
 20
13.78545
 30
0.0
 10
4.42932
 20
13.77185
 30
0.0
 10
4.44116
 20
13.76503
 30
0.0
 10
4.45528
 20
13.76503
 30
0.0
 10
4.45528
 20
13.76503
 30
0.0
 10
4.46946
 20
13.76503
 30
0.0
 10
4.4813
 20
13.77191
 30
0.0
 10
4.49092
 20
13.78556
 30
0.0
 10
4.49092
 20
13.78556
 30
0.0
 10
4.50055
 20
13.79921
 30
0.0
 10
4.50539
 20
13.82657
 30
0.0
 10
4.50539
 20
13.86758
 30
0.0
 10
4.50539
 20
13.86758
 30
0.0
 10
4.50539
 20
13.90882
 30
0.0
 10
4.50055
 20
13.93624
 30
0.0
 10
4.49092
 20
13.94977
 30
0.0
 10
4.49092
 20
13.94977
 30
0.0
 10
4.4813
 20
13.96336
 30
0.0
 10
4.46934
 20
13.97013
 30
0.0
 10
4.45499
 20
13.97013
 30
0.0
 10
4.45499
 20
13.97013
 30
0.0
 10
4.44081
 20
13.97013
 30
0.0
 10
4.42956
 20
13.96412
 30
0.0
 10
4.4211
 20
13.95216
 30
0.0
 10
4.4211
 20
13.95216
 30
0.0
 10
4.41054
 20
13.93694
 30
0.0
 10
4.40523
 20
13.9087
 30
0.0
 10
4.40523
 20
13.86758
 30
0.0
  0
SPLINE
  5
137
330
1F
100
AcDbEntity
  8
0
100
AcDbSpline
210
0.0
220
0.0
230
1.0
 70
    11
 71
     3
 72
    92
 73
    88
 74
     0
 42
0.0000000001
 43
0.0000000001
 40
0.0
 40
0.0
 40
0.0
 40
0.0
 40
0.0434782608695652
 40
0.0434782608695652
 40
0.0434782608695652
 40
0.0434782608695652
 40
0.0869565217391304
 40
0.0869565217391304
 40
0.0869565217391304
 40
0.0869565217391304
 40
0.1304347826086956
 40
0.1304347826086956
 40
0.1304347826086956
 40
0.1304347826086956
 40
0.1739130434782609
 40
0.1739130434782609
 40
0.1739130434782609
 40
0.1739130434782609
 40
0.2173913043478261
 40
0.2173913043478261
 40
0.2173913043478261
 40
0.2173913043478261
 40
0.2608695652173913
 40
0.2608695652173913
 40
0.2608695652173913
 40
0.2608695652173913
 40
0.3043478260869565
 40
0.3043478260869565
 40
0.3043478260869565
 40
0.3043478260869565
 40
0.3478260869565217
 40
0.3478260869565217
 40
0.3478260869565217
 40
0.3478260869565217
 40
0.391304347826087
 40
0.391304347826087
 40
0.391304347826087
 40
0.391304347826087
 40
0.4347826086956522
 40
0.4347826086956522
 40
0.4347826086956522
 40
0.4347826086956522
 40
0.4782608695652174
 40
0.4782608695652174
 40
0.4782608695652174
 40
0.4782608695652174
 40
0.5217391304347826
 40
0.5217391304347826
 40
0.5217391304347826
 40
0.5217391304347826
 40
0.5652173913043478
 40
0.5652173913043478
 40
0.5652173913043478
 40
0.5652173913043478
 40
0.6086956521739131
 40
0.6086956521739131
 40
0.6086956521739131
 40
0.6086956521739131
 40
0.6521739130434783
 40
0.6521739130434783
 40
0.6521739130434783
 40
0.6521739130434783
 40
0.6956521739130435
 40
0.6956521739130435
 40
0.6956521739130435
 40
0.6956521739130435
 40
0.7391304347826086
 40
0.7391304347826086
 40
0.7391304347826086
 40
0.7391304347826086
 40
0.782608695652174
 40
0.782608695652174
 40
0.782608695652174
 40
0.782608695652174
 40
0.8260869565217391
 40
0.8260869565217391
 40
0.8260869565217391
 40
0.8260869565217391
 40
0.8695652173913043
 40
0.8695652173913043
 40
0.8695652173913043
 40
0.8695652173913043
 40
0.9130434782608695
 40
0.9130434782608695
 40
0.9130434782608695
 40
0.9130434782608695
 40
1.0
 40
1.0
 40
1.0
 40
1.0
 10
4.57288
 20
13.80195
 30
0.0
 10
4.57288
 20
13.80195
 30
0.0
 10
4.60246
 20
13.8047
 30
0.0
 10
4.60246
 20
13.8047
 30
0.0
 10
4.60246
 20
13.8047
 30
0.0
 10
4.60497
 20
13.79081
 30
0.0
 10
4.60975
 20
13.78072
 30
0.0
 10
4.61681
 20
13.77442
 30
0.0
 10
4.61681
 20
13.77442
 30
0.0
 10
4.62387
 20
13.76818
 30
0.0
 10
4.63291
 20
13.76503
 30
0.0
 10
4.64399
 20
13.76503
 30
0.0
 10
4.64399
 20
13.76503
 30
0.0
 10
4.65344
 20
13.76503
 30
0.0
 10
4.66172
 20
13.76719
 30
0.0
 10
4.66884
 20
13.77156
 30
0.0
 10
4.66884
 20
13.77156
 30
0.0
 10
4.67596
 20
13.77588
 30
0.0
 10
4.68179
 20
13.78165
 30
0.0
 10
4.68634
 20
13.78889
 30
0.0
 10
4.68634
 20
13.78889
 30
0.0
 10
4.69095
 20
13.79612
 30
0.0
 10
4.69474
 20
13.80592
 30
0.0
 10
4.69783
 20
13.81817
 30
0.0
 10
4.69783
 20
13.81817
 30
0.0
 10
4.70087
 20
13.83048
 30
0.0
 10
4.70244
 20
13.84302
 30
0.0
 10
4.70244
 20
13.8558
 30
0.0
 10
4.70244
 20
13.8558
 30
0.0
 10
4.70244
 20
13.85714
 30
0.0
 10
4.70238
 20
13.85924
 30
0.0
 10
4.70227
 20
13.86192
 30
0.0
 10
4.70227
 20
13.86192
 30
0.0
 10
4.69608
 20
13.85218
 30
0.0
 10
4.68768
 20
13.84419
 30
0.0
 10
4.67707
 20
13.83812
 30
0.0
 10
4.67707
 20
13.83812
 30
0.0
 10
4.66639
 20
13.832
 30
0.0
 10
4.65484
 20
13.82896
 30
0.0
 10
4.64247
 20
13.82896
 30
0.0
 10
4.64247
 20
13.82896
 30
0.0
 10
4.62171
 20
13.82896
 30
0.0
 10
4.60415
 20
13.83649
 30
0.0
 10
4.5898
 20
13.85154
 30
0.0
 10
4.5898
 20
13.85154
 30
0.0
 10
4.57545
 20
13.86659
 30
0.0
 10
4.56827
 20
13.88636
 30
0.0
 10
4.56827
 20
13.91098
 30
0.0
 10
4.56827
 20
13.91098
 30
0.0
 10
4.56827
 20
13.93641
 30
0.0
 10
4.57574
 20
13.95683
 30
0.0
 10
4.59073
 20
13.97235
 30
0.0
 10
4.59073
 20
13.97235
 30
0.0
 10
4.60572
 20
13.98786
 30
0.0
 10
4.62451
 20
13.99562
 30
0.0
 10
4.64708
 20
13.99562
 30
0.0
 10
4.64708
 20
13.99562
 30
0.0
 10
4.66336
 20
13.99562
 30
0.0
 10
4.67823
 20
13.99119
 30
0.0
 10
4.69177
 20
13.98244
 30
0.0
 10
4.69177
 20
13.98244
 30
0.0
 10
4.70524
 20
13.97369
 30
0.0
 10
4.71551
 20
13.96115
 30
0.0
 10
4.72251
 20
13.94493
 30
0.0
 10
4.72251
 20
13.94493
 30
0.0
 10
4.72951
 20
13.92871
 30
0.0
 10
4.73301
 20
13.9052
 30
0.0
 10
4.73301
 20
13.8744
 30
0.0
 10
4.73301
 20
13.8744
 30
0.0
 10
4.73301
 20
13.84244
 30
0.0
 10
4.72957
 20
13.81695
 30
0.0
 10
4.72262
 20
13.79793
 30
0.0
 10
4.72262
 20
13.79793
 30
0.0
 10
4.71562
 20
13.77897
 30
0.0
 10
4.7053
 20
13.76456
 30
0.0
 10
4.69159
 20
13.75465
 30
0.0
 10
4.69159
 20
13.75465
 30
0.0
 10
4.67782
 20
13.74473
 30
0.0
 10
4.66178
 20
13.73977
 30
0.0
 10
4.64329
 20
13.73977
 30
0.0
 10
4.64329
 20
13.73977
 30
0.0
 10
4.62369
 20
13.73977
 30
0.0
 10
4.60771
 20
13.7452
 30
0.0
 10
4.59528
 20
13.7561
 30
0.0
 10
4.59528
 20
13.7561
 30
0.0
 10
4.58286
 20
13.76695
 30
0.0
 10
4.57539
 20
13.78224
 30
0.0
 10
4.57288
 20
13.80195
 30
0.0
  0
SPLINE
  5
138
330
1F
100
AcDbEntity
  8
0
100
AcDbSpline
210
0.0
220
0.0
230
1.0
 70
    11
 71
     3
 72
    36
 73
    32
 74
     0
 42
0.0000000001
 43
0.0000000001
 40
0.0
 40
0.0
 40
0.0
 40
0.0
 40
0.1111111111111111
 40
0.1111111111111111
 40
0.1111111111111111
 40
0.1111111111111111
 40
0.2222222222222222
 40
0.2222222222222222
 40
0.2222222222222222
 40
0.2222222222222222
 40
0.3333333333333333
 40
0.3333333333333333
 40
0.3333333333333333
 40
0.3333333333333333
 40
0.4444444444444444
 40
0.4444444444444444
 40
0.4444444444444444
 40
0.4444444444444444
 40
0.5555555555555556
 40
0.5555555555555556
 40
0.5555555555555556
 40
0.5555555555555556
 40
0.6666666666666666
 40
0.6666666666666666
 40
0.6666666666666666
 40
0.6666666666666666
 40
0.7777777777777778
 40
0.7777777777777778
 40
0.7777777777777778
 40
0.7777777777777778
 40
1.0
 40
1.0
 40
1.0
 40
1.0
 10
4.69882
 20
13.91255
 30
0.0
 10
4.69882
 20
13.93017
 30
0.0
 10
4.69416
 20
13.94423
 30
0.0
 10
4.68477
 20
13.95455
 30
0.0
 10
4.68477
 20
13.95455
 30
0.0
 10
4.67532
 20
13.96494
 30
0.0
 10
4.66406
 20
13.97013
 30
0.0
 10
4.65082
 20
13.97013
 30
0.0
 10
4.65082
 20
13.97013
 30
0.0
 10
4.63717
 20
13.97013
 30
0.0
 10
4.62527
 20
13.96453
 30
0.0
 10
4.61512
 20
13.95339
 30
0.0
 10
4.61512
 20
13.95339
 30
0.0
 10
4.60497
 20
13.94219
 30
0.0
 10
4.59989
 20
13.92772
 30
0.0
 10
4.59989
 20
13.90999
 30
0.0
 10
4.59989
 20
13.90999
 30
0.0
 10
4.59989
 20
13.894
 30
0.0
 10
4.60473
 20
13.88105
 30
0.0
 10
4.61436
 20
13.87108
 30
0.0
 10
4.61436
 20
13.87108
 30
0.0
 10
4.62398
 20
13.8611
 30
0.0
 10
4.63582
 20
13.85615
 30
0.0
 10
4.64994
 20
13.85615
 30
0.0
 10
4.64994
 20
13.85615
 30
0.0
 10
4.66423
 20
13.85615
 30
0.0
 10
4.6759
 20
13.8611
 30
0.0
 10
4.68506
 20
13.87108
 30
0.0
 10
4.68506
 20
13.87108
 30
0.0
 10
4.69427
 20
13.88105
 30
0.0
 10
4.69882
 20
13.89488
 30
0.0
 10
4.69882
 20
13.91255
 30
0.0
  0
SPLINE
  5
139
330
1F
100
AcDbEntity
  8
0
100
AcDbSpline
210
0.0
220
0.0
230
1.0
 70
    11
 71
     3
 72
    20
 73
    16
 74
     0
 42
0.0000000001
 43
0.0000000001
 40
0.0
 40
0.0
 40
0.0
 40
0.0
 40
0.2
 40
0.2
 40
0.2
 40
0.2
 40
0.4
 40
0.4
 40
0.4
 40
0.4
 40
0.6
 40
0.6
 40
0.6
 40
0.6
 40
1.0
 40
1.0
 40
1.0
 40
1.0
 10
6.92049
 20
5.27885
 30
0.0
 10
6.92049
 20
5.27885
 30
0.0
 10
6.92049
 20
5.62682
 30
0.0
 10
6.92049
 20
5.62682
 30
0.0
 10
6.92049
 20
5.62682
 30
0.0
 10
6.92049
 20
5.62682
 30
0.0
 10
6.96651
 20
5.62682
 30
0.0
 10
6.96651
 20
5.62682
 30
0.0
 10
6.96651
 20
5.62682
 30
0.0
 10
6.96651
 20
5.62682
 30
0.0
 10
6.96651
 20
5.27885
 30
0.0
 10
6.96651
 20
5.27885
 30
0.0
 10
6.96651
 20
5.27885
 30
0.0
 10
6.96651
 20
5.27885
 30
0.0
 10
6.92049
 20
5.27885
 30
0.0
 10
6.92049
 20
5.27885
 30
0.0
  0
SPLINE
  5
13A
330
1F
100
AcDbEntity
  8
0
100
AcDbSpline
210
0.0
220
0.0
230
1.0
 70
    11
 71
     3
 72
    76
 73
    72
 74
     0
 42
0.0000000001
 43
0.0000000001
 40
0.0
 40
0.0
 40
0.0
 40
0.0
 40
0.0526315789473684
 40
0.0526315789473684
 40
0.0526315789473684
 40
0.0526315789473684
 40
0.1052631578947368
 40
0.1052631578947368
 40
0.1052631578947368
 40
0.1052631578947368
 40
0.1578947368421053
 40
0.1578947368421053
 40
0.1578947368421053
 40
0.1578947368421053
 40
0.2105263157894737
 40
0.2105263157894737
 40
0.2105263157894737
 40
0.2105263157894737
 40
0.2631578947368421
 40
0.2631578947368421
 40
0.2631578947368421
 40
0.2631578947368421
 40
0.3157894736842105
 40
0.3157894736842105
 40
0.3157894736842105
 40
0.3157894736842105
 40
0.3684210526315789
 40
0.3684210526315789
 40
0.3684210526315789
 40
0.3684210526315789
 40
0.4210526315789473
 40
0.4210526315789473
 40
0.4210526315789473
 40
0.4210526315789473
 40
0.4736842105263158
 40
0.4736842105263158
 40
0.4736842105263158
 40
0.4736842105263158
 40
0.5263157894736842
 40
0.5263157894736842
 40
0.5263157894736842
 40
0.5263157894736842
 40
0.5789473684210527
 40
0.5789473684210527
 40
0.5789473684210527
 40
0.5789473684210527
 40
0.631578947368421
 40
0.631578947368421
 40
0.631578947368421
 40
0.631578947368421
 40
0.6842105263157895
 40
0.6842105263157895
 40
0.6842105263157895
 40
0.6842105263157895
 40
0.7368421052631579
 40
0.7368421052631579
 40
0.7368421052631579
 40
0.7368421052631579
 40
0.7894736842105263
 40
0.7894736842105263
 40
0.7894736842105263
 40
0.7894736842105263
 40
0.8421052631578947
 40
0.8421052631578947
 40
0.8421052631578947
 40
0.8421052631578947
 40
0.8947368421052632
 40
0.8947368421052632
 40
0.8947368421052632
 40
0.8947368421052632
 40
1.0
 40
1.0
 40
1.0
 40
1.0
 10
7.04226
 20
5.27885
 30
0.0
 10
7.04226
 20
5.27885
 30
0.0
 10
7.04226
 20
5.5309
 30
0.0
 10
7.04226
 20
5.5309
 30
0.0
 10
7.04226
 20
5.5309
 30
0.0
 10
7.04226
 20
5.5309
 30
0.0
 10
7.08067
 20
5.5309
 30
0.0
 10
7.08067
 20
5.5309
 30
0.0
 10
7.08067
 20
5.5309
 30
0.0
 10
7.08067
 20
5.5309
 30
0.0
 10
7.08067
 20
5.49509
 30
0.0
 10
7.08067
 20
5.49509
 30
0.0
 10
7.08067
 20
5.49509
 30
0.0
 10
7.09922
 20
5.5228
 30
0.0
 10
7.12596
 20
5.53665
 30
0.0
 10
7.16087
 20
5.53665
 30
0.0
 10
7.16087
 20
5.53665
 30
0.0
 10
7.17611
 20
5.53665
 30
0.0
 10
7.19004
 20
5.5339
 30
0.0
 10
7.20276
 20
5.52847
 30
0.0
 10
7.20276
 20
5.52847
 30
0.0
 10
7.21556
 20
5.52296
 30
0.0
 10
7.22504
 20
5.51583
 30
0.0
 10
7.23136
 20
5.50692
 30
0.0
 10
7.23136
 20
5.50692
 30
0.0
 10
7.23776
 20
5.49809
 30
0.0
 10
7.24214
 20
5.48755
 30
0.0
 10
7.24473
 20
5.4754
 30
0.0
 10
7.24473
 20
5.4754
 30
0.0
 10
7.24627
 20
5.46746
 30
0.0
 10
7.24708
 20
5.45361
 30
0.0
 10
7.24708
 20
5.43384
 30
0.0
 10
7.24708
 20
5.43384
 30
0.0
 10
7.24708
 20
5.43384
 30
0.0
 10
7.24708
 20
5.27885
 30
0.0
 10
7.24708
 20
5.27885
 30
0.0
 10
7.24708
 20
5.27885
 30
0.0
 10
7.24708
 20
5.27885
 30
0.0
 10
7.2043
 20
5.27885
 30
0.0
 10
7.2043
 20
5.27885
 30
0.0
 10
7.2043
 20
5.27885
 30
0.0
 10
7.2043
 20
5.27885
 30
0.0
 10
7.2043
 20
5.43222
 30
0.0
 10
7.2043
 20
5.43222
 30
0.0
 10
7.2043
 20
5.43222
 30
0.0
 10
7.2043
 20
5.44956
 30
0.0
 10
7.20268
 20
5.4626
 30
0.0
 10
7.19936
 20
5.47127
 30
0.0
 10
7.19936
 20
5.47127
 30
0.0
 10
7.19604
 20
5.47986
 30
0.0
 10
7.19012
 20
5.48674
 30
0.0
 10
7.1817
 20
5.49185
 30
0.0
 10
7.1817
 20
5.49185
 30
0.0
 10
7.17319
 20
5.49703
 30
0.0
 10
7.1633
 20
5.49962
 30
0.0
 10
7.15188
 20
5.49962
 30
0.0
 10
7.15188
 20
5.49962
 30
0.0
 10
7.13365
 20
5.49962
 30
0.0
 10
7.11802
 20
5.49379
 30
0.0
 10
7.10473
 20
5.48229
 30
0.0
 10
7.10473
 20
5.48229
 30
0.0
 10
7.09152
 20
5.4707
 30
0.0
 10
7.08496
 20
5.44883
 30
0.0
 10
7.08496
 20
5.4165
 30
0.0
 10
7.08496
 20
5.4165
 30
0.0
 10
7.08496
 20
5.4165
 30
0.0
 10
7.08496
 20
5.27885
 30
0.0
 10
7.08496
 20
5.27885
 30
0.0
 10
7.08496
 20
5.27885
 30
0.0
 10
7.08496
 20
5.27885
 30
0.0
 10
7.04226
 20
5.27885
 30
0.0
 10
7.04226
 20
5.27885
 30
0.0
  0
SPLINE
  5
13B
330
1F
100
AcDbEntity
  8
0
100
AcDbSpline
210
0.0
220
0.0
230
1.0
 70
    11
 71
     3
 72
    72
 73
    68
 74
     0
 42
0.0000000001
 43
0.0000000001
 40
0.0
 40
0.0
 40
0.0
 40
0.0
 40
0.0555555555555556
 40
0.0555555555555556
 40
0.0555555555555556
 40
0.0555555555555556
 40
0.1111111111111111
 40
0.1111111111111111
 40
0.1111111111111111
 40
0.1111111111111111
 40
0.1666666666666667
 40
0.1666666666666667
 40
0.1666666666666667
 40
0.1666666666666667
 40
0.2222222222222222
 40
0.2222222222222222
 40
0.2222222222222222
 40
0.2222222222222222
 40
0.2777777777777778
 40
0.2777777777777778
 40
0.2777777777777778
 40
0.2777777777777778
 40
0.3333333333333333
 40
0.3333333333333333
 40
0.3333333333333333
 40
0.3333333333333333
 40
0.3888888888888889
 40
0.3888888888888889
 40
0.3888888888888889
 40
0.3888888888888889
 40
0.4444444444444444
 40
0.4444444444444444
 40
0.4444444444444444
 40
0.4444444444444444
 40
0.5
 40
0.5
 40
0.5
 40
0.5
 40
0.5555555555555556
 40
0.5555555555555556
 40
0.5555555555555556
 40
0.5555555555555556
 40
0.6111111111111112
 40
0.6111111111111112
 40
0.6111111111111112
 40
0.6111111111111112
 40
0.6666666666666666
 40
0.6666666666666666
 40
0.6666666666666666
 40
0.6666666666666666
 40
0.7222222222222222
 40
0.7222222222222222
 40
0.7222222222222222
 40
0.7222222222222222
 40
0.7777777777777778
 40
0.7777777777777778
 40
0.7777777777777778
 40
0.7777777777777778
 40
0.8333333333333334
 40
0.8333333333333334
 40
0.8333333333333334
 40
0.8333333333333334
 40
0.8888888888888888
 40
0.8888888888888888
 40
0.8888888888888888
 40
0.8888888888888888
 40
1.0
 40
1.0
 40
1.0
 40
1.0
 10
7.31262
 20
5.27885
 30
0.0
 10
7.31262
 20
5.27885
 30
0.0
 10
7.31262
 20
5.62682
 30
0.0
 10
7.31262
 20
5.62682
 30
0.0
 10
7.31262
 20
5.62682
 30
0.0
 10
7.31262
 20
5.62682
 30
0.0
 10
7.35532
 20
5.62682
 30
0.0
 10
7.35532
 20
5.62682
 30
0.0
 10
7.35532
 20
5.62682
 30
0.0
 10
7.35532
 20
5.62682
 30
0.0
 10
7.35532
 20
5.50197
 30
0.0
 10
7.35532
 20
5.50197
 30
0.0
 10
7.35532
 20
5.50197
 30
0.0
 10
7.37525
 20
5.52506
 30
0.0
 10
7.40045
 20
5.53665
 30
0.0
 10
7.43083
 20
5.53665
 30
0.0
 10
7.43083
 20
5.53665
 30
0.0
 10
7.44946
 20
5.53665
 30
0.0
 10
7.46567
 20
5.53292
 30
0.0
 10
7.47944
 20
5.52555
 30
0.0
 10
7.47944
 20
5.52555
 30
0.0
 10
7.49321
 20
5.51826
 30
0.0
 10
7.5031
 20
5.50805
 30
0.0
 10
7.50901
 20
5.49509
 30
0.0
 10
7.50901
 20
5.49509
 30
0.0
 10
7.51493
 20
5.48213
 30
0.0
 10
7.51792
 20
5.46325
 30
0.0
 10
7.51792
 20
5.43862
 30
0.0
 10
7.51792
 20
5.43862
 30
0.0
 10
7.51792
 20
5.43862
 30
0.0
 10
7.51792
 20
5.27885
 30
0.0
 10
7.51792
 20
5.27885
 30
0.0
 10
7.51792
 20
5.27885
 30
0.0
 10
7.51792
 20
5.27885
 30
0.0
 10
7.47515
 20
5.27885
 30
0.0
 10
7.47515
 20
5.27885
 30
0.0
 10
7.47515
 20
5.27885
 30
0.0
 10
7.47515
 20
5.27885
 30
0.0
 10
7.47515
 20
5.43862
 30
0.0
 10
7.47515
 20
5.43862
 30
0.0
 10
7.47515
 20
5.43862
 30
0.0
 10
7.47515
 20
5.45993
 30
0.0
 10
7.47053
 20
5.47548
 30
0.0
 10
7.46129
 20
5.4852
 30
0.0
 10
7.46129
 20
5.4852
 30
0.0
 10
7.45206
 20
5.49493
 30
0.0
 10
7.43893
 20
5.49987
 30
0.0
 10
7.422
 20
5.49987
 30
0.0
 10
7.422
 20
5.49987
 30
0.0
 10
7.40936
 20
5.49987
 30
0.0
 10
7.39745
 20
5.49655
 30
0.0
 10
7.38627
 20
5.48998
 30
0.0
 10
7.38627
 20
5.48998
 30
0.0
 10
7.37509
 20
5.48342
 30
0.0
 10
7.36715
 20
5.47451
 30
0.0
 10
7.36245
 20
5.46325
 30
0.0
 10
7.36245
 20
5.46325
 30
0.0
 10
7.35767
 20
5.45207
 30
0.0
 10
7.35532
 20
5.43651
 30
0.0
 10
7.35532
 20
5.41674
 30
0.0
 10
7.35532
 20
5.41674
 30
0.0
 10
7.35532
 20
5.41674
 30
0.0
 10
7.35532
 20
5.27885
 30
0.0
 10
7.35532
 20
5.27885
 30
0.0
 10
7.35532
 20
5.27885
 30
0.0
 10
7.35532
 20
5.27885
 30
0.0
 10
7.31262
 20
5.27885
 30
0.0
 10
7.31262
 20
5.27885
 30
0.0
  0
SPLINE
  5
13C
330
1F
100
AcDbEntity
  8
0
100
AcDbSpline
210
0.0
220
0.0
230
1.0
 70
    11
 71
     3
 72
   112
 73
   108
 74
     0
 42
0.0000000001
 43
0.0000000001
 40
0.0
 40
0.0
 40
0.0
 40
0.0
 40
0.0357142857142857
 40
0.0357142857142857
 40
0.0357142857142857
 40
0.0357142857142857
 40
0.0714285714285714
 40
0.0714285714285714
 40
0.0714285714285714
 40
0.0714285714285714
 40
0.1071428571428571
 40
0.1071428571428571
 40
0.1071428571428571
 40
0.1071428571428571
 40
0.1428571428571428
 40
0.1428571428571428
 40
0.1428571428571428
 40
0.1428571428571428
 40
0.1785714285714286
 40
0.1785714285714286
 40
0.1785714285714286
 40
0.1785714285714286
 40
0.2142857142857143
 40
0.2142857142857143
 40
0.2142857142857143
 40
0.2142857142857143
 40
0.25
 40
0.25
 40
0.25
 40
0.25
 40
0.2857142857142857
 40
0.2857142857142857
 40
0.2857142857142857
 40
0.2857142857142857
 40
0.3214285714285715
 40
0.3214285714285715
 40
0.3214285714285715
 40
0.3214285714285715
 40
0.3571428571428572
 40
0.3571428571428572
 40
0.3571428571428572
 40
0.3571428571428572
 40
0.3928571428571428
 40
0.3928571428571428
 40
0.3928571428571428
 40
0.3928571428571428
 40
0.4285714285714285
 40
0.4285714285714285
 40
0.4285714285714285
 40
0.4285714285714285
 40
0.4642857142857143
 40
0.4642857142857143
 40
0.4642857142857143
 40
0.4642857142857143
 40
0.5
 40
0.5
 40
0.5
 40
0.5
 40
0.5357142857142857
 40
0.5357142857142857
 40
0.5357142857142857
 40
0.5357142857142857
 40
0.5714285714285714
 40
0.5714285714285714
 40
0.5714285714285714
 40
0.5714285714285714
 40
0.6071428571428571
 40
0.6071428571428571
 40
0.6071428571428571
 40
0.6071428571428571
 40
0.6428571428571429
 40
0.6428571428571429
 40
0.6428571428571429
 40
0.6428571428571429
 40
0.6785714285714286
 40
0.6785714285714286
 40
0.6785714285714286
 40
0.6785714285714286
 40
0.7142857142857143
 40
0.7142857142857143
 40
0.7142857142857143
 40
0.7142857142857143
 40
0.75
 40
0.75
 40
0.75
 40
0.75
 40
0.7857142857142857
 40
0.7857142857142857
 40
0.7857142857142857
 40
0.7857142857142857
 40
0.8214285714285714
 40
0.8214285714285714
 40
0.8214285714285714
 40
0.8214285714285714
 40
0.8571428571428571
 40
0.8571428571428571
 40
0.8571428571428571
 40
0.8571428571428571
 40
0.8928571428571429
 40
0.8928571428571429
 40
0.8928571428571429
 40
0.8928571428571429
 40
0.9285714285714286
 40
0.9285714285714286
 40
0.9285714285714286
 40
0.9285714285714286
 40
1.0
 40
1.0
 40
1.0
 40
1.0
 10
7.74745
 20
5.30996
 30
0.0
 10
7.73157
 20
5.29651
 30
0.0
 10
7.71634
 20
5.28703
 30
0.0
 10
7.70176
 20
5.28144
 30
0.0
 10
7.70176
 20
5.28144
 30
0.0
 10
7.68709
 20
5.27593
 30
0.0
 10
7.67137
 20
5.27318
 30
0.0
 10
7.6546
 20
5.27318
 30
0.0
 10
7.6546
 20
5.27318
 30
0.0
 10
7.6269
 20
5.27318
 30
0.0
 10
7.60567
 20
5.2799
 30
0.0
 10
7.59076
 20
5.29343
 30
0.0
 10
7.59076
 20
5.29343
 30
0.0
 10
7.57593
 20
5.30696
 30
0.0
 10
7.56848
 20
5.3243
 30
0.0
 10
7.56848
 20
5.34529
 30
0.0
 10
7.56848
 20
5.34529
 30
0.0
 10
7.56848
 20
5.35768
 30
0.0
 10
7.57124
 20
5.36894
 30
0.0
 10
7.57691
 20
5.37915
 30
0.0
 10
7.57691
 20
5.37915
 30
0.0
 10
7.5825
 20
5.38936
 30
0.0
 10
7.58987
 20
5.39754
 30
0.0
 10
7.59894
 20
5.4037
 30
0.0
 10
7.59894
 20
5.4037
 30
0.0
 10
7.6081
 20
5.40986
 30
0.0
 10
7.61831
 20
5.41456
 30
0.0
 10
7.62973
 20
5.41772
 30
0.0
 10
7.62973
 20
5.41772
 30
0.0
 10
7.63808
 20
5.4199
 30
0.0
 10
7.65071
 20
5.42209
 30
0.0
 10
7.66765
 20
5.42412
 30
0.0
 10
7.66765
 20
5.42412
 30
0.0
 10
7.70216
 20
5.42825
 30
0.0
 10
7.7276
 20
5.43311
 30
0.0
 10
7.74389
 20
5.43886
 30
0.0
 10
7.74389
 20
5.43886
 30
0.0
 10
7.74405
 20
5.44469
 30
0.0
 10
7.74413
 20
5.44842
 30
0.0
 10
7.74413
 20
5.44996
 30
0.0
 10
7.74413
 20
5.44996
 30
0.0
 10
7.74413
 20
5.46738
 30
0.0
 10
7.74008
 20
5.47969
 30
0.0
 10
7.73198
 20
5.48674
 30
0.0
 10
7.73198
 20
5.48674
 30
0.0
 10
7.72112
 20
5.49647
 30
0.0
 10
7.70483
 20
5.50125
 30
0.0
 10
7.68336
 20
5.50125
 30
0.0
 10
7.68336
 20
5.50125
 30
0.0
 10
7.66327
 20
5.50125
 30
0.0
 10
7.64845
 20
5.49776
 30
0.0
 10
7.6388
 20
5.49071
 30
0.0
 10
7.6388
 20
5.49071
 30
0.0
 10
7.62924
 20
5.48366
 30
0.0
 10
7.6222
 20
5.47119
 30
0.0
 10
7.61758
 20
5.45328
 30
0.0
 10
7.61758
 20
5.45328
 30
0.0
 10
7.61758
 20
5.45328
 30
0.0
 10
7.57585
 20
5.45903
 30
0.0
 10
7.57585
 20
5.45903
 30
0.0
 10
7.57585
 20
5.45903
 30
0.0
 10
7.57966
 20
5.47686
 30
0.0
 10
7.5859
 20
5.49136
 30
0.0
 10
7.59457
 20
5.5023
 30
0.0
 10
7.59457
 20
5.5023
 30
0.0
 10
7.60324
 20
5.51332
 30
0.0
 10
7.61588
 20
5.52182
 30
0.0
 10
7.63232
 20
5.52774
 30
0.0
 10
7.63232
 20
5.52774
 30
0.0
 10
7.64877
 20
5.53365
 30
0.0
 10
7.66781
 20
5.53665
 30
0.0
 10
7.68952
 20
5.53665
 30
0.0
 10
7.68952
 20
5.53665
 30
0.0
 10
7.71107
 20
5.53665
 30
0.0
 10
7.72849
 20
5.53406
 30
0.0
 10
7.74194
 20
5.52903
 30
0.0
 10
7.74194
 20
5.52903
 30
0.0
 10
7.75539
 20
5.52393
 30
0.0
 10
7.76527
 20
5.51761
 30
0.0
 10
7.77167
 20
5.50991
 30
0.0
 10
7.77167
 20
5.50991
 30
0.0
 10
7.77799
 20
5.50222
 30
0.0
 10
7.78237
 20
5.49258
 30
0.0
 10
7.78496
 20
5.48083
 30
0.0
 10
7.78496
 20
5.48083
 30
0.0
 10
7.78634
 20
5.47354
 30
0.0
 10
7.78707
 20
5.46041
 30
0.0
 10
7.78707
 20
5.44145
 30
0.0
 10
7.78707
 20
5.44145
 30
0.0
 10
7.78707
 20
5.44145
 30
0.0
 10
7.78707
 20
5.3845
 30
0.0
 10
7.78707
 20
5.3845
 30
0.0
 10
7.78707
 20
5.3845
 30
0.0
 10
7.78707
 20
5.34472
 30
0.0
 10
7.78796
 20
5.3196
 30
0.0
 10
7.78982
 20
5.30915
 30
0.0
 10
7.78982
 20
5.30915
 30
0.0
 10
7.79161
 20
5.29862
 30
0.0
 10
7.79525
 20
5.28849
 30
0.0
 10
7.8006
 20
5.27885
 30
0.0
 10
7.8006
 20
5.27885
 30
0.0
 10
7.8006
 20
5.27885
 30
0.0
 10
7.75596
 20
5.27885
 30
0.0
 10
7.75596
 20
5.27885
 30
0.0
 10
7.75596
 20
5.27885
 30
0.0
 10
7.75158
 20
5.28768
 30
0.0
 10
7.74867
 20
5.29805
 30
0.0
 10
7.74745
 20
5.30996
 30
0.0
  0
SPLINE
  5
13D
330
1F
100
AcDbEntity
  8
0
100
AcDbSpline
210
0.0
220
0.0
230
1.0
 70
    11
 71
     3
 72
    44
 73
    40
 74
     0
 42
0.0000000001
 43
0.0000000001
 40
0.0
 40
0.0
 40
0.0
 40
0.0
 40
0.0909090909090909
 40
0.0909090909090909
 40
0.0909090909090909
 40
0.0909090909090909
 40
0.1818181818181818
 40
0.1818181818181818
 40
0.1818181818181818
 40
0.1818181818181818
 40
0.2727272727272727
 40
0.2727272727272727
 40
0.2727272727272727
 40
0.2727272727272727
 40
0.3636363636363636
 40
0.3636363636363636
 40
0.3636363636363636
 40
0.3636363636363636
 40
0.4545454545454545
 40
0.4545454545454545
 40
0.4545454545454545
 40
0.4545454545454545
 40
0.5454545454545454
 40
0.5454545454545454
 40
0.5454545454545454
 40
0.5454545454545454
 40
0.6363636363636364
 40
0.6363636363636364
 40
0.6363636363636364
 40
0.6363636363636364
 40
0.7272727272727273
 40
0.7272727272727273
 40
0.7272727272727273
 40
0.7272727272727273
 40
0.8181818181818182
 40
0.8181818181818182
 40
0.8181818181818182
 40
0.8181818181818182
 40
1.0
 40
1.0
 40
1.0
 40
1.0
 10
7.74389
 20
5.4054
 30
0.0
 10
7.72833
 20
5.399
 30
0.0
 10
7.70508
 20
5.39365
 30
0.0
 10
7.67413
 20
5.3892
 30
0.0
 10
7.67413
 20
5.3892
 30
0.0
 10
7.65655
 20
5.38669
 30
0.0
 10
7.64407
 20
5.38385
 30
0.0
 10
7.63686
 20
5.38069
 30
0.0
 10
7.63686
 20
5.38069
 30
0.0
 10
7.62957
 20
5.37753
 30
0.0
 10
7.6239
 20
5.37291
 30
0.0
 10
7.62001
 20
5.36675
 30
0.0
 10
7.62001
 20
5.36675
 30
0.0
 10
7.61604
 20
5.36068
 30
0.0
 10
7.61401
 20
5.35395
 30
0.0
 10
7.61401
 20
5.3465
 30
0.0
 10
7.61401
 20
5.3465
 30
0.0
 10
7.61401
 20
5.33508
 30
0.0
 10
7.61839
 20
5.3256
 30
0.0
 10
7.62698
 20
5.31798
 30
0.0
 10
7.62698
 20
5.31798
 30
0.0
 10
7.63556
 20
5.31045
 30
0.0
 10
7.6482
 20
5.30664
 30
0.0
 10
7.66481
 20
5.30664
 30
0.0
 10
7.66481
 20
5.30664
 30
0.0
 10
7.68126
 20
5.30664
 30
0.0
 10
7.69592
 20
5.3102
 30
0.0
 10
7.70872
 20
5.31741
 30
0.0
 10
7.70872
 20
5.31741
 30
0.0
 10
7.72152
 20
5.32463
 30
0.0
 10
7.731
 20
5.33451
 30
0.0
 10
7.737
 20
5.34699
 30
0.0
 10
7.737
 20
5.34699
 30
0.0
 10
7.74162
 20
5.35663
 30
0.0
 10
7.74389
 20
5.37089
 30
0.0
 10
7.74389
 20
5.38968
 30
0.0
 10
7.74389
 20
5.38968
 30
0.0
 10
7.74389
 20
5.38968
 30
0.0
 10
7.74389
 20
5.4054
 30
0.0
 10
7.74389
 20
5.4054
 30
0.0
  0
SPLINE
  5
13E
330
1F
100
AcDbEntity
  8
0
100
AcDbSpline
210
0.0
220
0.0
230
1.0
 70
    11
 71
     3
 72
    20
 73
    16
 74
     0
 42
0.0000000001
 43
0.0000000001
 40
0.0
 40
0.0
 40
0.0
 40
0.0
 40
0.2
 40
0.2
 40
0.2
 40
0.2
 40
0.4
 40
0.4
 40
0.4
 40
0.4
 40
0.6
 40
0.6
 40
0.6
 40
0.6
 40
1.0
 40
1.0
 40
1.0
 40
1.0
 10
7.85237
 20
5.27885
 30
0.0
 10
7.85237
 20
5.27885
 30
0.0
 10
7.85237
 20
5.62682
 30
0.0
 10
7.85237
 20
5.62682
 30
0.0
 10
7.85237
 20
5.62682
 30
0.0
 10
7.85237
 20
5.62682
 30
0.0
 10
7.89507
 20
5.62682
 30
0.0
 10
7.89507
 20
5.62682
 30
0.0
 10
7.89507
 20
5.62682
 30
0.0
 10
7.89507
 20
5.62682
 30
0.0
 10
7.89507
 20
5.27885
 30
0.0
 10
7.89507
 20
5.27885
 30
0.0
 10
7.89507
 20
5.27885
 30
0.0
 10
7.89507
 20
5.27885
 30
0.0
 10
7.85237
 20
5.27885
 30
0.0
 10
7.85237
 20
5.27885
 30
0.0
  0
SPLINE
  5
13F
330
1F
100
AcDbEntity
  8
0
100
AcDbSpline
210
0.0
220
0.0
230
1.0
 70
    11
 71
     3
 72
    84
 73
    80
 74
     0
 42
0.0000000001
 43
0.0000000001
 40
0.0
 40
0.0
 40
0.0
 40
0.0
 40
0.0476190476190476
 40
0.0476190476190476
 40
0.0476190476190476
 40
0.0476190476190476
 40
0.0952380952380952
 40
0.0952380952380952
 40
0.0952380952380952
 40
0.0952380952380952
 40
0.1428571428571428
 40
0.1428571428571428
 40
0.1428571428571428
 40
0.1428571428571428
 40
0.1904761904761905
 40
0.1904761904761905
 40
0.1904761904761905
 40
0.1904761904761905
 40
0.2380952380952381
 40
0.2380952380952381
 40
0.2380952380952381
 40
0.2380952380952381
 40
0.2857142857142857
 40
0.2857142857142857
 40
0.2857142857142857
 40
0.2857142857142857
 40
0.3333333333333333
 40
0.3333333333333333
 40
0.3333333333333333
 40
0.3333333333333333
 40
0.3809523809523809
 40
0.3809523809523809
 40
0.3809523809523809
 40
0.3809523809523809
 40
0.4285714285714285
 40
0.4285714285714285
 40
0.4285714285714285
 40
0.4285714285714285
 40
0.4761904761904762
 40
0.4761904761904762
 40
0.4761904761904762
 40
0.4761904761904762
 40
0.5238095238095238
 40
0.5238095238095238
 40
0.5238095238095238
 40
0.5238095238095238
 40
0.5714285714285714
 40
0.5714285714285714
 40
0.5714285714285714
 40
0.5714285714285714
 40
0.6190476190476191
 40
0.6190476190476191
 40
0.6190476190476191
 40
0.6190476190476191
 40
0.6666666666666666
 40
0.6666666666666666
 40
0.6666666666666666
 40
0.6666666666666666
 40
0.7142857142857143
 40
0.7142857142857143
 40
0.7142857142857143
 40
0.7142857142857143
 40
0.7619047619047619
 40
0.7619047619047619
 40
0.7619047619047619
 40
0.7619047619047619
 40
0.8095238095238095
 40
0.8095238095238095
 40
0.8095238095238095
 40
0.8095238095238095
 40
0.8571428571428571
 40
0.8571428571428571
 40
0.8571428571428571
 40
0.8571428571428571
 40
0.9047619047619048
 40
0.9047619047619048
 40
0.9047619047619048
 40
0.9047619047619048
 40
1.0
 40
1.0
 40
1.0
 40
1.0
 10
8.0546
 20
5.31709
 30
0.0
 10
8.0546
 20
5.31709
 30
0.0
 10
8.06075
 20
5.27934
 30
0.0
 10
8.06075
 20
5.27934
 30
0.0
 10
8.06075
 20
5.27934
 30
0.0
 10
8.04876
 20
5.27682
 30
0.0
 10
8.03799
 20
5.27553
 30
0.0
 10
8.02851
 20
5.27553
 30
0.0
 10
8.02851
 20
5.27553
 30
0.0
 10
8.01295
 20
5.27553
 30
0.0
 10
8.00096
 20
5.27796
 30
0.0
 10
7.99237
 20
5.2829
 30
0.0
 10
7.99237
 20
5.2829
 30
0.0
 10
7.98387
 20
5.28776
 30
0.0
 10
7.97787
 20
5.29424
 30
0.0
 10
7.97439
 20
5.30226
 30
0.0
 10
7.97439
 20
5.30226
 30
0.0
 10
7.9709
 20
5.3102
 30
0.0
 10
7.96912
 20
5.32706
 30
0.0
 10
7.96912
 20
5.35266
 30
0.0
 10
7.96912
 20
5.35266
 30
0.0
 10
7.96912
 20
5.35266
 30
0.0
 10
7.96912
 20
5.49768
 30
0.0
 10
7.96912
 20
5.49768
 30
0.0
 10
7.96912
 20
5.49768
 30
0.0
 10
7.96912
 20
5.49768
 30
0.0
 10
7.93777
 20
5.49768
 30
0.0
 10
7.93777
 20
5.49768
 30
0.0
 10
7.93777
 20
5.49768
 30
0.0
 10
7.93777
 20
5.49768
 30
0.0
 10
7.93777
 20
5.5309
 30
0.0
 10
7.93777
 20
5.5309
 30
0.0
 10
7.93777
 20
5.5309
 30
0.0
 10
7.93777
 20
5.5309
 30
0.0
 10
7.96912
 20
5.5309
 30
0.0
 10
7.96912
 20
5.5309
 30
0.0
 10
7.96912
 20
5.5309
 30
0.0
 10
7.96912
 20
5.5309
 30
0.0
 10
7.96912
 20
5.59336
 30
0.0
 10
7.96912
 20
5.59336
 30
0.0
 10
7.96912
 20
5.59336
 30
0.0
 10
7.96912
 20
5.59336
 30
0.0
 10
8.01166
 20
5.61896
 30
0.0
 10
8.01166
 20
5.61896
 30
0.0
 10
8.01166
 20
5.61896
 30
0.0
 10
8.01166
 20
5.61896
 30
0.0
 10
8.01166
 20
5.5309
 30
0.0
 10
8.01166
 20
5.5309
 30
0.0
 10
8.01166
 20
5.5309
 30
0.0
 10
8.01166
 20
5.5309
 30
0.0
 10
8.0546
 20
5.5309
 30
0.0
 10
8.0546
 20
5.5309
 30
0.0
 10
8.0546
 20
5.5309
 30
0.0
 10
8.0546
 20
5.5309
 30
0.0
 10
8.0546
 20
5.49768
 30
0.0
 10
8.0546
 20
5.49768
 30
0.0
 10
8.0546
 20
5.49768
 30
0.0
 10
8.0546
 20
5.49768
 30
0.0
 10
8.01166
 20
5.49768
 30
0.0
 10
8.01166
 20
5.49768
 30
0.0
 10
8.01166
 20
5.49768
 30
0.0
 10
8.01166
 20
5.49768
 30
0.0
 10
8.01166
 20
5.35031
 30
0.0
 10
8.01166
 20
5.35031
 30
0.0
 10
8.01166
 20
5.35031
 30
0.0
 10
8.01166
 20
5.33807
 30
0.0
 10
8.01238
 20
5.3303
 30
0.0
 10
8.01384
 20
5.32681
 30
0.0
 10
8.01384
 20
5.32681
 30
0.0
 10
8.01538
 20
5.32333
 30
0.0
 10
8.01781
 20
5.32057
 30
0.0
 10
8.02122
 20
5.31847
 30
0.0
 10
8.02122
 20
5.31847
 30
0.0
 10
8.02462
 20
5.31644
 30
0.0
 10
8.02948
 20
5.31539
 30
0.0
 10
8.0358
 20
5.31539
 30
0.0
 10
8.0358
 20
5.31539
 30
0.0
 10
8.04058
 20
5.31539
 30
0.0
 10
8.04682
 20
5.31596
 30
0.0
 10
8.0546
 20
5.31709
 30
0.0
  0
SPLINE
  5
140
330
1F
100
AcDbEntity
  8
0
100
AcDbSpline
210
0.0
220
0.0
230
1.0
 70
    11
 71
     3
 72
    20
 73
    16
 74
     0
 42
0.0000000001
 43
0.0000000001
 40
0.0
 40
0.0
 40
0.0
 40
0.0
 40
0.2
 40
0.2
 40
0.2
 40
0.2
 40
0.4
 40
0.4
 40
0.4
 40
0.4
 40
0.6
 40
0.6
 40
0.6
 40
0.6
 40
1.0
 40
1.0
 40
1.0
 40
1.0
 10
8.06432
 20
5.27294
 30
0.0
 10
8.06432
 20
5.27294
 30
0.0
 10
8.16519
 20
5.63274
 30
0.0
 10
8.16519
 20
5.63274
 30
0.0
 10
8.16519
 20
5.63274
 30
0.0
 10
8.16519
 20
5.63274
 30
0.0
 10
8.19938
 20
5.63274
 30
0.0
 10
8.19938
 20
5.63274
 30
0.0
 10
8.19938
 20
5.63274
 30
0.0
 10
8.19938
 20
5.63274
 30
0.0
 10
8.09875
 20
5.27294
 30
0.0
 10
8.09875
 20
5.27294
 30
0.0
 10
8.09875
 20
5.27294
 30
0.0
 10
8.09875
 20
5.27294
 30
0.0
 10
8.06432
 20
5.27294
 30
0.0
 10
8.06432
 20
5.27294
 30
0.0
  0
SPLINE
  5
141
330
1F
100
AcDbEntity
  8
0
100
AcDbSpline
210
0.0
220
0.0
230
1.0
 70
    11
 71
     3
 72
    80
 73
    76
 74
     0
 42
0.0000000001
 43
0.0000000001
 40
0.0
 40
0.0
 40
0.0
 40
0.0
 40
0.05
 40
0.05
 40
0.05
 40
0.05
 40
0.1
 40
0.1
 40
0.1
 40
0.1
 40
0.15
 40
0.15
 40
0.15
 40
0.15
 40
0.2
 40
0.2
 40
0.2
 40
0.2
 40
0.25
 40
0.25
 40
0.25
 40
0.25
 40
0.3
 40
0.3
 40
0.3
 40
0.3
 40
0.35
 40
0.35
 40
0.35
 40
0.35
 40
0.4
 40
0.4
 40
0.4
 40
0.4
 40
0.45
 40
0.45
 40
0.45
 40
0.45
 40
0.5
 40
0.5
 40
0.5
 40
0.5
 40
0.55
 40
0.55
 40
0.55
 40
0.55
 40
0.6
 40
0.6
 40
0.6
 40
0.6
 40
0.65
 40
0.65
 40
0.65
 40
0.65
 40
0.7
 40
0.7
 40
0.7
 40
0.7
 40
0.75
 40
0.75
 40
0.75
 40
0.75
 40
0.8
 40
0.8
 40
0.8
 40
0.8
 40
0.85
 40
0.85
 40
0.85
 40
0.85
 40
0.9
 40
0.9
 40
0.9
 40
0.9
 40
1.0
 40
1.0
 40
1.0
 40
1.0
 10
8.39593
 20
5.37121
 30
0.0
 10
8.39593
 20
5.37121
 30
0.0
 10
8.4379
 20
5.3657
 30
0.0
 10
8.4379
 20
5.3657
 30
0.0
 10
8.4379
 20
5.3657
 30
0.0
 10
8.43336
 20
5.33678
 30
0.0
 10
8.42161
 20
5.31409
 30
0.0
 10
8.40266
 20
5.29773
 30
0.0
 10
8.40266
 20
5.29773
 30
0.0
 10
8.38378
 20
5.28136
 30
0.0
 10
8.36053
 20
5.27318
 30
0.0
 10
8.33298
 20
5.27318
 30
0.0
 10
8.33298
 20
5.27318
 30
0.0
 10
8.29855
 20
5.27318
 30
0.0
 10
8.27076
 20
5.28444
 30
0.0
 10
8.24985
 20
5.30696
 30
0.0
 10
8.24985
 20
5.30696
 30
0.0
 10
8.22887
 20
5.32949
 30
0.0
 10
8.21834
 20
5.36181
 30
0.0
 10
8.21834
 20
5.40394
 30
0.0
 10
8.21834
 20
5.40394
 30
0.0
 10
8.21834
 20
5.43116
 30
0.0
 10
8.22288
 20
5.45498
 30
0.0
 10
8.23187
 20
5.4754
 30
0.0
 10
8.23187
 20
5.4754
 30
0.0
 10
8.24094
 20
5.49582
 30
0.0
 10
8.25463
 20
5.51113
 30
0.0
 10
8.27311
 20
5.52134
 30
0.0
 10
8.27311
 20
5.52134
 30
0.0
 10
8.2915
 20
5.53155
 30
0.0
 10
8.31159
 20
5.53665
 30
0.0
 10
8.33322
 20
5.53665
 30
0.0
 10
8.33322
 20
5.53665
 30
0.0
 10
8.36061
 20
5.53665
 30
0.0
 10
8.38305
 20
5.52968
 30
0.0
 10
8.40039
 20
5.51583
 30
0.0
 10
8.40039
 20
5.51583
 30
0.0
 10
8.41781
 20
5.50197
 30
0.0
 10
8.42899
 20
5.48237
 30
0.0
 10
8.43393
 20
5.45685
 30
0.0
 10
8.43393
 20
5.45685
 30
0.0
 10
8.43393
 20
5.45685
 30
0.0
 10
8.39237
 20
5.45045
 30
0.0
 10
8.39237
 20
5.45045
 30
0.0
 10
8.39237
 20
5.45045
 30
0.0
 10
8.3884
 20
5.46738
 30
0.0
 10
8.38143
 20
5.4801
 30
0.0
 10
8.37138
 20
5.48869
 30
0.0
 10
8.37138
 20
5.48869
 30
0.0
 10
8.36134
 20
5.49719
 30
0.0
 10
8.34918
 20
5.50149
 30
0.0
 10
8.33492
 20
5.50149
 30
0.0
 10
8.33492
 20
5.50149
 30
0.0
 10
8.31337
 20
5.50149
 30
0.0
 10
8.29587
 20
5.49379
 30
0.0
 10
8.28242
 20
5.47832
 30
0.0
 10
8.28242
 20
5.47832
 30
0.0
 10
8.26897
 20
5.46292
 30
0.0
 10
8.26225
 20
5.43854
 30
0.0
 10
8.26225
 20
5.40516
 30
0.0
 10
8.26225
 20
5.40516
 30
0.0
 10
8.26225
 20
5.37129
 30
0.0
 10
8.26873
 20
5.34666
 30
0.0
 10
8.28178
 20
5.33127
 30
0.0
 10
8.28178
 20
5.33127
 30
0.0
 10
8.29474
 20
5.31596
 30
0.0
 10
8.31167
 20
5.30826
 30
0.0
 10
8.33257
 20
5.30826
 30
0.0
 10
8.33257
 20
5.30826
 30
0.0
 10
8.34934
 20
5.30826
 30
0.0
 10
8.36328
 20
5.31344
 30
0.0
 10
8.37454
 20
5.32373
 30
0.0
 10
8.37454
 20
5.32373
 30
0.0
 10
8.3858
 20
5.33402
 30
0.0
 10
8.39293
 20
5.34982
 30
0.0
 10
8.39593
 20
5.37121
 30
0.0
  0
SPLINE
  5
142
330
1F
100
AcDbEntity
  8
0
100
AcDbSpline
210
0.0
220
0.0
230
1.0
 70
    11
 71
     3
 72
    40
 73
    36
 74
     0
 42
0.0000000001
 43
0.0000000001
 40
0.0
 40
0.0
 40
0.0
 40
0.0
 40
0.1
 40
0.1
 40
0.1
 40
0.1
 40
0.2
 40
0.2
 40
0.2
 40
0.2
 40
0.3
 40
0.3
 40
0.3
 40
0.3
 40
0.4
 40
0.4
 40
0.4
 40
0.4
 40
0.5
 40
0.5
 40
0.5
 40
0.5
 40
0.6
 40
0.6
 40
0.6
 40
0.6
 40
0.7
 40
0.7
 40
0.7
 40
0.7
 40
0.8
 40
0.8
 40
0.8
 40
0.8
 40
1.0
 40
1.0
 40
1.0
 40
1.0
 10
8.45856
 20
5.40491
 30
0.0
 10
8.45856
 20
5.45158
 30
0.0
 10
8.47153
 20
5.48618
 30
0.0
 10
8.49753
 20
5.50862
 30
0.0
 10
8.49753
 20
5.50862
 30
0.0
 10
8.51916
 20
5.52725
 30
0.0
 10
8.54558
 20
5.53665
 30
0.0
 10
8.57677
 20
5.53665
 30
0.0
 10
8.57677
 20
5.53665
 30
0.0
 10
8.61144
 20
5.53665
 30
0.0
 10
8.6398
 20
5.52531
 30
0.0
 10
8.66176
 20
5.50254
 30
0.0
 10
8.66176
 20
5.50254
 30
0.0
 10
8.68379
 20
5.47986
 30
0.0
 10
8.69473
 20
5.4485
 30
0.0
 10
8.69473
 20
5.40848
 30
0.0
 10
8.69473
 20
5.40848
 30
0.0
 10
8.69473
 20
5.37599
 30
0.0
 10
8.68987
 20
5.35047
 30
0.0
 10
8.68015
 20
5.33192
 30
0.0
 10
8.68015
 20
5.33192
 30
0.0
 10
8.67043
 20
5.31328
 30
0.0
 10
8.65625
 20
5.29886
 30
0.0
 10
8.63769
 20
5.28857
 30
0.0
 10
8.63769
 20
5.28857
 30
0.0
 10
8.61906
 20
5.27828
 30
0.0
 10
8.59881
 20
5.27318
 30
0.0
 10
8.57677
 20
5.27318
 30
0.0
 10
8.57677
 20
5.27318
 30
0.0
 10
8.54153
 20
5.27318
 30
0.0
 10
8.51301
 20
5.28444
 30
0.0
 10
8.49121
 20
5.30713
 30
0.0
 10
8.49121
 20
5.30713
 30
0.0
 10
8.46942
 20
5.32973
 30
0.0
 10
8.45856
 20
5.3623
 30
0.0
 10
8.45856
 20
5.40491
 30
0.0
  0
SPLINE
  5
143
330
1F
100
AcDbEntity
  8
0
100
AcDbSpline
210
0.0
220
0.0
230
1.0
 70
    11
 71
     3
 72
    36
 73
    32
 74
     0
 42
0.0000000001
 43
0.0000000001
 40
0.0
 40
0.0
 40
0.0
 40
0.0
 40
0.1111111111111111
 40
0.1111111111111111
 40
0.1111111111111111
 40
0.1111111111111111
 40
0.2222222222222222
 40
0.2222222222222222
 40
0.2222222222222222
 40
0.2222222222222222
 40
0.3333333333333333
 40
0.3333333333333333
 40
0.3333333333333333
 40
0.3333333333333333
 40
0.4444444444444444
 40
0.4444444444444444
 40
0.4444444444444444
 40
0.4444444444444444
 40
0.5555555555555556
 40
0.5555555555555556
 40
0.5555555555555556
 40
0.5555555555555556
 40
0.6666666666666666
 40
0.6666666666666666
 40
0.6666666666666666
 40
0.6666666666666666
 40
0.7777777777777778
 40
0.7777777777777778
 40
0.7777777777777778
 40
0.7777777777777778
 40
1.0
 40
1.0
 40
1.0
 40
1.0
 10
8.50247
 20
5.40491
 30
0.0
 10
8.50247
 20
5.37259
 30
0.0
 10
8.50952
 20
5.34844
 30
0.0
 10
8.52362
 20
5.3324
 30
0.0
 10
8.52362
 20
5.3324
 30
0.0
 10
8.53772
 20
5.31628
 30
0.0
 10
8.55546
 20
5.30826
 30
0.0
 10
8.57677
 20
5.30826
 30
0.0
 10
8.57677
 20
5.30826
 30
0.0
 10
8.598
 20
5.30826
 30
0.0
 10
8.61566
 20
5.31636
 30
0.0
 10
8.62975
 20
5.33248
 30
0.0
 10
8.62975
 20
5.33248
 30
0.0
 10
8.64377
 20
5.34861
 30
0.0
 10
8.65082
 20
5.37324
 30
0.0
 10
8.65082
 20
5.40629
 30
0.0
 10
8.65082
 20
5.40629
 30
0.0
 10
8.65082
 20
5.43748
 30
0.0
 10
8.64377
 20
5.46114
 30
0.0
 10
8.62959
 20
5.47718
 30
0.0
 10
8.62959
 20
5.47718
 30
0.0
 10
8.61541
 20
5.49322
 30
0.0
 10
8.59783
 20
5.50125
 30
0.0
 10
8.57677
 20
5.50125
 30
0.0
 10
8.57677
 20
5.50125
 30
0.0
 10
8.55546
 20
5.50125
 30
0.0
 10
8.53772
 20
5.49322
 30
0.0
 10
8.52362
 20
5.47726
 30
0.0
 10
8.52362
 20
5.47726
 30
0.0
 10
8.50952
 20
5.4613
 30
0.0
 10
8.50247
 20
5.43716
 30
0.0
 10
8.50247
 20
5.40491
 30
0.0
  0
SPLINE
  5
144
330
1F
100
AcDbEntity
  8
0
100
AcDbSpline
210
0.0
220
0.0
230
1.0
 70
    11
 71
     3
 72
    76
 73
    72
 74
     0
 42
0.0000000001
 43
0.0000000001
 40
0.0
 40
0.0
 40
0.0
 40
0.0
 40
0.0526315789473684
 40
0.0526315789473684
 40
0.0526315789473684
 40
0.0526315789473684
 40
0.1052631578947368
 40
0.1052631578947368
 40
0.1052631578947368
 40
0.1052631578947368
 40
0.1578947368421053
 40
0.1578947368421053
 40
0.1578947368421053
 40
0.1578947368421053
 40
0.2105263157894737
 40
0.2105263157894737
 40
0.2105263157894737
 40
0.2105263157894737
 40
0.2631578947368421
 40
0.2631578947368421
 40
0.2631578947368421
 40
0.2631578947368421
 40
0.3157894736842105
 40
0.3157894736842105
 40
0.3157894736842105
 40
0.3157894736842105
 40
0.3684210526315789
 40
0.3684210526315789
 40
0.3684210526315789
 40
0.3684210526315789
 40
0.4210526315789473
 40
0.4210526315789473
 40
0.4210526315789473
 40
0.4210526315789473
 40
0.4736842105263158
 40
0.4736842105263158
 40
0.4736842105263158
 40
0.4736842105263158
 40
0.5263157894736842
 40
0.5263157894736842
 40
0.5263157894736842
 40
0.5263157894736842
 40
0.5789473684210527
 40
0.5789473684210527
 40
0.5789473684210527
 40
0.5789473684210527
 40
0.631578947368421
 40
0.631578947368421
 40
0.631578947368421
 40
0.631578947368421
 40
0.6842105263157895
 40
0.6842105263157895
 40
0.6842105263157895
 40
0.6842105263157895
 40
0.7368421052631579
 40
0.7368421052631579
 40
0.7368421052631579
 40
0.7368421052631579
 40
0.7894736842105263
 40
0.7894736842105263
 40
0.7894736842105263
 40
0.7894736842105263
 40
0.8421052631578947
 40
0.8421052631578947
 40
0.8421052631578947
 40
0.8421052631578947
 40
0.8947368421052632
 40
0.8947368421052632
 40
0.8947368421052632
 40
0.8947368421052632
 40
1.0
 40
1.0
 40
1.0
 40
1.0
 10
8.74488
 20
5.27885
 30
0.0
 10
8.74488
 20
5.27885
 30
0.0
 10
8.74488
 20
5.5309
 30
0.0
 10
8.74488
 20
5.5309
 30
0.0
 10
8.74488
 20
5.5309
 30
0.0
 10
8.74488
 20
5.5309
 30
0.0
 10
8.78329
 20
5.5309
 30
0.0
 10
8.78329
 20
5.5309
 30
0.0
 10
8.78329
 20
5.5309
 30
0.0
 10
8.78329
 20
5.5309
 30
0.0
 10
8.78329
 20
5.49509
 30
0.0
 10
8.78329
 20
5.49509
 30
0.0
 10
8.78329
 20
5.49509
 30
0.0
 10
8.80184
 20
5.5228
 30
0.0
 10
8.82858
 20
5.53665
 30
0.0
 10
8.86349
 20
5.53665
 30
0.0
 10
8.86349
 20
5.53665
 30
0.0
 10
8.87873
 20
5.53665
 30
0.0
 10
8.89266
 20
5.5339
 30
0.0
 10
8.90538
 20
5.52847
 30
0.0
 10
8.90538
 20
5.52847
 30
0.0
 10
8.91818
 20
5.52296
 30
0.0
 10
8.92766
 20
5.51583
 30
0.0
 10
8.93398
 20
5.50692
 30
0.0
 10
8.93398
 20
5.50692
 30
0.0
 10
8.94038
 20
5.49809
 30
0.0
 10
8.94476
 20
5.48755
 30
0.0
 10
8.94735
 20
5.4754
 30
0.0
 10
8.94735
 20
5.4754
 30
0.0
 10
8.94889
 20
5.46746
 30
0.0
 10
8.9497
 20
5.45361
 30
0.0
 10
8.9497
 20
5.43384
 30
0.0
 10
8.9497
 20
5.43384
 30
0.0
 10
8.9497
 20
5.43384
 30
0.0
 10
8.9497
 20
5.27885
 30
0.0
 10
8.9497
 20
5.27885
 30
0.0
 10
8.9497
 20
5.27885
 30
0.0
 10
8.9497
 20
5.27885
 30
0.0
 10
8.90692
 20
5.27885
 30
0.0
 10
8.90692
 20
5.27885
 30
0.0
 10
8.90692
 20
5.27885
 30
0.0
 10
8.90692
 20
5.27885
 30
0.0
 10
8.90692
 20
5.43222
 30
0.0
 10
8.90692
 20
5.43222
 30
0.0
 10
8.90692
 20
5.43222
 30
0.0
 10
8.90692
 20
5.44956
 30
0.0
 10
8.9053
 20
5.4626
 30
0.0
 10
8.90198
 20
5.47127
 30
0.0
 10
8.90198
 20
5.47127
 30
0.0
 10
8.89866
 20
5.47986
 30
0.0
 10
8.89274
 20
5.48674
 30
0.0
 10
8.88432
 20
5.49185
 30
0.0
 10
8.88432
 20
5.49185
 30
0.0
 10
8.87581
 20
5.49703
 30
0.0
 10
8.86592
 20
5.49962
 30
0.0
 10
8.8545
 20
5.49962
 30
0.0
 10
8.8545
 20
5.49962
 30
0.0
 10
8.83627
 20
5.49962
 30
0.0
 10
8.82064
 20
5.49379
 30
0.0
 10
8.80735
 20
5.48229
 30
0.0
 10
8.80735
 20
5.48229
 30
0.0
 10
8.79414
 20
5.4707
 30
0.0
 10
8.78758
 20
5.44883
 30
0.0
 10
8.78758
 20
5.4165
 30
0.0
 10
8.78758
 20
5.4165
 30
0.0
 10
8.78758
 20
5.4165
 30
0.0
 10
8.78758
 20
5.27885
 30
0.0
 10
8.78758
 20
5.27885
 30
0.0
 10
8.78758
 20
5.27885
 30
0.0
 10
8.78758
 20
5.27885
 30
0.0
 10
8.74488
 20
5.27885
 30
0.0
 10
8.74488
 20
5.27885
 30
0.0
  0
SPLINE
  5
145
330
1F
100
AcDbEntity
  8
0
100
AcDbSpline
210
0.0
220
0.0
230
1.0
 70
    11
 71
     3
 72
    84
 73
    80
 74
     0
 42
0.0000000001
 43
0.0000000001
 40
0.0
 40
0.0
 40
0.0
 40
0.0
 40
0.0476190476190476
 40
0.0476190476190476
 40
0.0476190476190476
 40
0.0476190476190476
 40
0.0952380952380952
 40
0.0952380952380952
 40
0.0952380952380952
 40
0.0952380952380952
 40
0.1428571428571428
 40
0.1428571428571428
 40
0.1428571428571428
 40
0.1428571428571428
 40
0.1904761904761905
 40
0.1904761904761905
 40
0.1904761904761905
 40
0.1904761904761905
 40
0.2380952380952381
 40
0.2380952380952381
 40
0.2380952380952381
 40
0.2380952380952381
 40
0.2857142857142857
 40
0.2857142857142857
 40
0.2857142857142857
 40
0.2857142857142857
 40
0.3333333333333333
 40
0.3333333333333333
 40
0.3333333333333333
 40
0.3333333333333333
 40
0.3809523809523809
 40
0.3809523809523809
 40
0.3809523809523809
 40
0.3809523809523809
 40
0.4285714285714285
 40
0.4285714285714285
 40
0.4285714285714285
 40
0.4285714285714285
 40
0.4761904761904762
 40
0.4761904761904762
 40
0.4761904761904762
 40
0.4761904761904762
 40
0.5238095238095238
 40
0.5238095238095238
 40
0.5238095238095238
 40
0.5238095238095238
 40
0.5714285714285714
 40
0.5714285714285714
 40
0.5714285714285714
 40
0.5714285714285714
 40
0.6190476190476191
 40
0.6190476190476191
 40
0.6190476190476191
 40
0.6190476190476191
 40
0.6666666666666666
 40
0.6666666666666666
 40
0.6666666666666666
 40
0.6666666666666666
 40
0.7142857142857143
 40
0.7142857142857143
 40
0.7142857142857143
 40
0.7142857142857143
 40
0.7619047619047619
 40
0.7619047619047619
 40
0.7619047619047619
 40
0.7619047619047619
 40
0.8095238095238095
 40
0.8095238095238095
 40
0.8095238095238095
 40
0.8095238095238095
 40
0.8571428571428571
 40
0.8571428571428571
 40
0.8571428571428571
 40
0.8571428571428571
 40
0.9047619047619048
 40
0.9047619047619048
 40
0.9047619047619048
 40
0.9047619047619048
 40
1.0
 40
1.0
 40
1.0
 40
1.0
 10
9.1085
 20
5.31709
 30
0.0
 10
9.1085
 20
5.31709
 30
0.0
 10
9.11465
 20
5.27934
 30
0.0
 10
9.11465
 20
5.27934
 30
0.0
 10
9.11465
 20
5.27934
 30
0.0
 10
9.10266
 20
5.27682
 30
0.0
 10
9.09189
 20
5.27553
 30
0.0
 10
9.08241
 20
5.27553
 30
0.0
 10
9.08241
 20
5.27553
 30
0.0
 10
9.06685
 20
5.27553
 30
0.0
 10
9.05486
 20
5.27796
 30
0.0
 10
9.04627
 20
5.2829
 30
0.0
 10
9.04627
 20
5.2829
 30
0.0
 10
9.03777
 20
5.28776
 30
0.0
 10
9.03177
 20
5.29424
 30
0.0
 10
9.02829
 20
5.30226
 30
0.0
 10
9.02829
 20
5.30226
 30
0.0
 10
9.0248
 20
5.3102
 30
0.0
 10
9.02302
 20
5.32706
 30
0.0
 10
9.02302
 20
5.35266
 30
0.0
 10
9.02302
 20
5.35266
 30
0.0
 10
9.02302
 20
5.35266
 30
0.0
 10
9.02302
 20
5.49768
 30
0.0
 10
9.02302
 20
5.49768
 30
0.0
 10
9.02302
 20
5.49768
 30
0.0
 10
9.02302
 20
5.49768
 30
0.0
 10
8.99167
 20
5.49768
 30
0.0
 10
8.99167
 20
5.49768
 30
0.0
 10
8.99167
 20
5.49768
 30
0.0
 10
8.99167
 20
5.49768
 30
0.0
 10
8.99167
 20
5.5309
 30
0.0
 10
8.99167
 20
5.5309
 30
0.0
 10
8.99167
 20
5.5309
 30
0.0
 10
8.99167
 20
5.5309
 30
0.0
 10
9.02302
 20
5.5309
 30
0.0
 10
9.02302
 20
5.5309
 30
0.0
 10
9.02302
 20
5.5309
 30
0.0
 10
9.02302
 20
5.5309
 30
0.0
 10
9.02302
 20
5.59336
 30
0.0
 10
9.02302
 20
5.59336
 30
0.0
 10
9.02302
 20
5.59336
 30
0.0
 10
9.02302
 20
5.59336
 30
0.0
 10
9.06556
 20
5.61896
 30
0.0
 10
9.06556
 20
5.61896
 30
0.0
 10
9.06556
 20
5.61896
 30
0.0
 10
9.06556
 20
5.61896
 30
0.0
 10
9.06556
 20
5.5309
 30
0.0
 10
9.06556
 20
5.5309
 30
0.0
 10
9.06556
 20
5.5309
 30
0.0
 10
9.06556
 20
5.5309
 30
0.0
 10
9.1085
 20
5.5309
 30
0.0
 10
9.1085
 20
5.5309
 30
0.0
 10
9.1085
 20
5.5309
 30
0.0
 10
9.1085
 20
5.5309
 30
0.0
 10
9.1085
 20
5.49768
 30
0.0
 10
9.1085
 20
5.49768
 30
0.0
 10
9.1085
 20
5.49768
 30
0.0
 10
9.1085
 20
5.49768
 30
0.0
 10
9.06556
 20
5.49768
 30
0.0
 10
9.06556
 20
5.49768
 30
0.0
 10
9.06556
 20
5.49768
 30
0.0
 10
9.06556
 20
5.49768
 30
0.0
 10
9.06556
 20
5.35031
 30
0.0
 10
9.06556
 20
5.35031
 30
0.0
 10
9.06556
 20
5.35031
 30
0.0
 10
9.06556
 20
5.33807
 30
0.0
 10
9.06628
 20
5.3303
 30
0.0
 10
9.06774
 20
5.32681
 30
0.0
 10
9.06774
 20
5.32681
 30
0.0
 10
9.06928
 20
5.32333
 30
0.0
 10
9.07171
 20
5.32057
 30
0.0
 10
9.07512
 20
5.31847
 30
0.0
 10
9.07512
 20
5.31847
 30
0.0
 10
9.07852
 20
5.31644
 30
0.0
 10
9.08338
 20
5.31539
 30
0.0
 10
9.0897
 20
5.31539
 30
0.0
 10
9.0897
 20
5.31539
 30
0.0
 10
9.09448
 20
5.31539
 30
0.0
 10
9.10072
 20
5.31596
 30
0.0
 10
9.1085
 20
5.31709
 30
0.0
  0
SPLINE
  5
146
330
1F
100
AcDbEntity
  8
0
100
AcDbSpline
210
0.0
220
0.0
230
1.0
 70
    11
 71
     3
 72
    64
 73
    60
 74
     0
 42
0.0000000001
 43
0.0000000001
 40
0.0
 40
0.0
 40
0.0
 40
0.0
 40
0.0625
 40
0.0625
 40
0.0625
 40
0.0625
 40
0.125
 40
0.125
 40
0.125
 40
0.125
 40
0.1875
 40
0.1875
 40
0.1875
 40
0.1875
 40
0.25
 40
0.25
 40
0.25
 40
0.25
 40
0.3125
 40
0.3125
 40
0.3125
 40
0.3125
 40
0.375
 40
0.375
 40
0.375
 40
0.375
 40
0.4375
 40
0.4375
 40
0.4375
 40
0.4375
 40
0.5
 40
0.5
 40
0.5
 40
0.5
 40
0.5625
 40
0.5625
 40
0.5625
 40
0.5625
 40
0.625
 40
0.625
 40
0.625
 40
0.625
 40
0.6875
 40
0.6875
 40
0.6875
 40
0.6875
 40
0.75
 40
0.75
 40
0.75
 40
0.75
 40
0.8125
 40
0.8125
 40
0.8125
 40
0.8125
 40
0.875
 40
0.875
 40
0.875
 40
0.875
 40
1.0
 40
1.0
 40
1.0
 40
1.0
 10
9.32279
 20
5.36003
 30
0.0
 10
9.32279
 20
5.36003
 30
0.0
 10
9.36695
 20
5.3546
 30
0.0
 10
9.36695
 20
5.3546
 30
0.0
 10
9.36695
 20
5.3546
 30
0.0
 10
9.35998
 20
5.32876
 30
0.0
 10
9.3471
 20
5.30875
 30
0.0
 10
9.3283
 20
5.29449
 30
0.0
 10
9.3283
 20
5.29449
 30
0.0
 10
9.30942
 20
5.28031
 30
0.0
 10
9.28536
 20
5.27318
 30
0.0
 10
9.25611
 20
5.27318
 30
0.0
 10
9.25611
 20
5.27318
 30
0.0
 10
9.21925
 20
5.27318
 30
0.0
 10
9.19
 20
5.28452
 30
0.0
 10
9.16845
 20
5.30721
 30
0.0
 10
9.16845
 20
5.30721
 30
0.0
 10
9.14682
 20
5.32989
 30
0.0
 10
9.13604
 20
5.36173
 30
0.0
 10
9.13604
 20
5.40273
 30
0.0
 10
9.13604
 20
5.40273
 30
0.0
 10
9.13604
 20
5.44518
 30
0.0
 10
9.14698
 20
5.47807
 30
0.0
 10
9.16878
 20
5.50149
 30
0.0
 10
9.16878
 20
5.50149
 30
0.0
 10
9.19065
 20
5.5249
 30
0.0
 10
9.21893
 20
5.53665
 30
0.0
 10
9.25376
 20
5.53665
 30
0.0
 10
9.25376
 20
5.53665
 30
0.0
 10
9.28747
 20
5.53665
 30
0.0
 10
9.31501
 20
5.52515
 30
0.0
 10
9.33632
 20
5.50222
 30
0.0
 10
9.33632
 20
5.50222
 30
0.0
 10
9.35771
 20
5.47929
 30
0.0
 10
9.3684
 20
5.44696
 30
0.0
 10
9.3684
 20
5.4054
 30
0.0
 10
9.3684
 20
5.4054
 30
0.0
 10
9.3684
 20
5.40281
 30
0.0
 10
9.36832
 20
5.399
 30
0.0
 10
9.36816
 20
5.39398
 30
0.0
 10
9.36816
 20
5.39398
 30
0.0
 10
9.36816
 20
5.39398
 30
0.0
 10
9.1802
 20
5.39398
 30
0.0
 10
9.1802
 20
5.39398
 30
0.0
 10
9.1802
 20
5.39398
 30
0.0
 10
9.18174
 20
5.36627
 30
0.0
 10
9.1896
 20
5.34504
 30
0.0
 10
9.20369
 20
5.33038
 30
0.0
 10
9.20369
 20
5.33038
 30
0.0
 10
9.21779
 20
5.31563
 30
0.0
 10
9.23529
 20
5.30826
 30
0.0
 10
9.25636
 20
5.30826
 30
0.0
 10
9.25636
 20
5.30826
 30
0.0
 10
9.27199
 20
5.30826
 30
0.0
 10
9.28536
 20
5.31239
 30
0.0
 10
9.29646
 20
5.32066
 30
0.0
 10
9.29646
 20
5.32066
 30
0.0
 10
9.30756
 20
5.32884
 30
0.0
 10
9.31631
 20
5.34196
 30
0.0
 10
9.32279
 20
5.36003
 30
0.0
  0
SPLINE
  5
147
330
1F
100
AcDbEntity
  8
0
100
AcDbSpline
210
0.0
220
0.0
230
1.0
 70
    11
 71
     3
 72
    24
 73
    20
 74
     0
 42
0.0000000001
 43
0.0000000001
 40
0.0
 40
0.0
 40
0.0
 40
0.0
 40
0.1666666666666667
 40
0.1666666666666667
 40
0.1666666666666667
 40
0.1666666666666667
 40
0.3333333333333333
 40
0.3333333333333333
 40
0.3333333333333333
 40
0.3333333333333333
 40
0.5
 40
0.5
 40
0.5
 40
0.5
 40
0.6666666666666666
 40
0.6666666666666666
 40
0.6666666666666666
 40
0.6666666666666666
 40
1.0
 40
1.0
 40
1.0
 40
1.0
 10
9.18255
 20
5.42914
 30
0.0
 10
9.18255
 20
5.42914
 30
0.0
 10
9.32328
 20
5.42914
 30
0.0
 10
9.32328
 20
5.42914
 30
0.0
 10
9.32328
 20
5.42914
 30
0.0
 10
9.32141
 20
5.45028
 30
0.0
 10
9.31599
 20
5.46625
 30
0.0
 10
9.30715
 20
5.47678
 30
0.0
 10
9.30715
 20
5.47678
 30
0.0
 10
9.29354
 20
5.49322
 30
0.0
 10
9.27588
 20
5.50149
 30
0.0
 10
9.25425
 20
5.50149
 30
0.0
 10
9.25425
 20
5.50149
 30
0.0
 10
9.23464
 20
5.50149
 30
0.0
 10
9.21812
 20
5.49493
 30
0.0
 10
9.20475
 20
5.4818
 30
0.0
 10
9.20475
 20
5.4818
 30
0.0
 10
9.19138
 20
5.46868
 30
0.0
 10
9.18401
 20
5.45109
 30
0.0
 10
9.18255
 20
5.42914
 30
0.0
  0
SPLINE
  5
148
330
1F
100
AcDbEntity
  8
0
100
AcDbSpline
210
0.0
220
0.0
230
1.0
 70
    11
 71
     3
 72
    76
 73
    72
 74
     0
 42
0.0000000001
 43
0.0000000001
 40
0.0
 40
0.0
 40
0.0
 40
0.0
 40
0.0526315789473684
 40
0.0526315789473684
 40
0.0526315789473684
 40
0.0526315789473684
 40
0.1052631578947368
 40
0.1052631578947368
 40
0.1052631578947368
 40
0.1052631578947368
 40
0.1578947368421053
 40
0.1578947368421053
 40
0.1578947368421053
 40
0.1578947368421053
 40
0.2105263157894737
 40
0.2105263157894737
 40
0.2105263157894737
 40
0.2105263157894737
 40
0.2631578947368421
 40
0.2631578947368421
 40
0.2631578947368421
 40
0.2631578947368421
 40
0.3157894736842105
 40
0.3157894736842105
 40
0.3157894736842105
 40
0.3157894736842105
 40
0.3684210526315789
 40
0.3684210526315789
 40
0.3684210526315789
 40
0.3684210526315789
 40
0.4210526315789473
 40
0.4210526315789473
 40
0.4210526315789473
 40
0.4210526315789473
 40
0.4736842105263158
 40
0.4736842105263158
 40
0.4736842105263158
 40
0.4736842105263158
 40
0.5263157894736842
 40
0.5263157894736842
 40
0.5263157894736842
 40
0.5263157894736842
 40
0.5789473684210527
 40
0.5789473684210527
 40
0.5789473684210527
 40
0.5789473684210527
 40
0.631578947368421
 40
0.631578947368421
 40
0.631578947368421
 40
0.631578947368421
 40
0.6842105263157895
 40
0.6842105263157895
 40
0.6842105263157895
 40
0.6842105263157895
 40
0.7368421052631579
 40
0.7368421052631579
 40
0.7368421052631579
 40
0.7368421052631579
 40
0.7894736842105263
 40
0.7894736842105263
 40
0.7894736842105263
 40
0.7894736842105263
 40
0.8421052631578947
 40
0.8421052631578947
 40
0.8421052631578947
 40
0.8421052631578947
 40
0.8947368421052632
 40
0.8947368421052632
 40
0.8947368421052632
 40
0.8947368421052632
 40
1.0
 40
1.0
 40
1.0
 40
1.0
 10
6.9072
 20
4.73579
 30
0.0
 10
6.9072
 20
4.73579
 30
0.0
 10
6.9072
 20
4.98784
 30
0.0
 10
6.9072
 20
4.98784
 30
0.0
 10
6.9072
 20
4.98784
 30
0.0
 10
6.9072
 20
4.98784
 30
0.0
 10
6.94561
 20
4.98784
 30
0.0
 10
6.94561
 20
4.98784
 30
0.0
 10
6.94561
 20
4.98784
 30
0.0
 10
6.94561
 20
4.98784
 30
0.0
 10
6.94561
 20
4.95203
 30
0.0
 10
6.94561
 20
4.95203
 30
0.0
 10
6.94561
 20
4.95203
 30
0.0
 10
6.96416
 20
4.97974
 30
0.0
 10
6.9909
 20
4.99359
 30
0.0
 10
7.02581
 20
4.99359
 30
0.0
 10
7.02581
 20
4.99359
 30
0.0
 10
7.04105
 20
4.99359
 30
0.0
 10
7.05498
 20
4.99084
 30
0.0
 10
7.0677
 20
4.98541
 30
0.0
 10
7.0677
 20
4.98541
 30
0.0
 10
7.0805
 20
4.9799
 30
0.0
 10
7.08998
 20
4.97277
 30
0.0
 10
7.0963
 20
4.96386
 30
0.0
 10
7.0963
 20
4.96386
 30
0.0
 10
7.1027
 20
4.95503
 30
0.0
 10
7.10708
 20
4.94449
 30
0.0
 10
7.10967
 20
4.93234
 30
0.0
 10
7.10967
 20
4.93234
 30
0.0
 10
7.11121
 20
4.9244
 30
0.0
 10
7.11202
 20
4.91055
 30
0.0
 10
7.11202
 20
4.89078
 30
0.0
 10
7.11202
 20
4.89078
 30
0.0
 10
7.11202
 20
4.89078
 30
0.0
 10
7.11202
 20
4.73579
 30
0.0
 10
7.11202
 20
4.73579
 30
0.0
 10
7.11202
 20
4.73579
 30
0.0
 10
7.11202
 20
4.73579
 30
0.0
 10
7.06924
 20
4.73579
 30
0.0
 10
7.06924
 20
4.73579
 30
0.0
 10
7.06924
 20
4.73579
 30
0.0
 10
7.06924
 20
4.73579
 30
0.0
 10
7.06924
 20
4.88916
 30
0.0
 10
7.06924
 20
4.88916
 30
0.0
 10
7.06924
 20
4.88916
 30
0.0
 10
7.06924
 20
4.9065
 30
0.0
 10
7.06762
 20
4.91954
 30
0.0
 10
7.0643
 20
4.92821
 30
0.0
 10
7.0643
 20
4.92821
 30
0.0
 10
7.06098
 20
4.9368
 30
0.0
 10
7.05506
 20
4.94368
 30
0.0
 10
7.04664
 20
4.94879
 30
0.0
 10
7.04664
 20
4.94879
 30
0.0
 10
7.03813
 20
4.95397
 30
0.0
 10
7.02824
 20
4.95656
 30
0.0
 10
7.01682
 20
4.95656
 30
0.0
 10
7.01682
 20
4.95656
 30
0.0
 10
6.99859
 20
4.95656
 30
0.0
 10
6.98296
 20
4.95073
 30
0.0
 10
6.96967
 20
4.93923
 30
0.0
 10
6.96967
 20
4.93923
 30
0.0
 10
6.95646
 20
4.92764
 30
0.0
 10
6.9499
 20
4.90577
 30
0.0
 10
6.9499
 20
4.87344
 30
0.0
 10
6.9499
 20
4.87344
 30
0.0
 10
6.9499
 20
4.87344
 30
0.0
 10
6.9499
 20
4.73579
 30
0.0
 10
6.9499
 20
4.73579
 30
0.0
 10
6.9499
 20
4.73579
 30
0.0
 10
6.9499
 20
4.73579
 30
0.0
 10
6.9072
 20
4.73579
 30
0.0
 10
6.9072
 20
4.73579
 30
0.0
  0
SPLINE
  5
149
330
1F
100
AcDbEntity
  8
0
100
AcDbSpline
210
0.0
220
0.0
230
1.0
 70
    11
 71
     3
 72
    84
 73
    80
 74
     0
 42
0.0000000001
 43
0.0000000001
 40
0.0
 40
0.0
 40
0.0
 40
0.0
 40
0.0476190476190476
 40
0.0476190476190476
 40
0.0476190476190476
 40
0.0476190476190476
 40
0.0952380952380952
 40
0.0952380952380952
 40
0.0952380952380952
 40
0.0952380952380952
 40
0.1428571428571428
 40
0.1428571428571428
 40
0.1428571428571428
 40
0.1428571428571428
 40
0.1904761904761905
 40
0.1904761904761905
 40
0.1904761904761905
 40
0.1904761904761905
 40
0.2380952380952381
 40
0.2380952380952381
 40
0.2380952380952381
 40
0.2380952380952381
 40
0.2857142857142857
 40
0.2857142857142857
 40
0.2857142857142857
 40
0.2857142857142857
 40
0.3333333333333333
 40
0.3333333333333333
 40
0.3333333333333333
 40
0.3333333333333333
 40
0.3809523809523809
 40
0.3809523809523809
 40
0.3809523809523809
 40
0.3809523809523809
 40
0.4285714285714285
 40
0.4285714285714285
 40
0.4285714285714285
 40
0.4285714285714285
 40
0.4761904761904762
 40
0.4761904761904762
 40
0.4761904761904762
 40
0.4761904761904762
 40
0.5238095238095238
 40
0.5238095238095238
 40
0.5238095238095238
 40
0.5238095238095238
 40
0.5714285714285714
 40
0.5714285714285714
 40
0.5714285714285714
 40
0.5714285714285714
 40
0.6190476190476191
 40
0.6190476190476191
 40
0.6190476190476191
 40
0.6190476190476191
 40
0.6666666666666666
 40
0.6666666666666666
 40
0.6666666666666666
 40
0.6666666666666666
 40
0.7142857142857143
 40
0.7142857142857143
 40
0.7142857142857143
 40
0.7142857142857143
 40
0.7619047619047619
 40
0.7619047619047619
 40
0.7619047619047619
 40
0.7619047619047619
 40
0.8095238095238095
 40
0.8095238095238095
 40
0.8095238095238095
 40
0.8095238095238095
 40
0.8571428571428571
 40
0.8571428571428571
 40
0.8571428571428571
 40
0.8571428571428571
 40
0.9047619047619048
 40
0.9047619047619048
 40
0.9047619047619048
 40
0.9047619047619048
 40
1.0
 40
1.0
 40
1.0
 40
1.0
 10
7.27082
 20
4.77403
 30
0.0
 10
7.27082
 20
4.77403
 30
0.0
 10
7.27697
 20
4.73628
 30
0.0
 10
7.27697
 20
4.73628
 30
0.0
 10
7.27697
 20
4.73628
 30
0.0
 10
7.26498
 20
4.73376
 30
0.0
 10
7.25421
 20
4.73247
 30
0.0
 10
7.24473
 20
4.73247
 30
0.0
 10
7.24473
 20
4.73247
 30
0.0
 10
7.22917
 20
4.73247
 30
0.0
 10
7.21718
 20
4.7349
 30
0.0
 10
7.20859
 20
4.73984
 30
0.0
 10
7.20859
 20
4.73984
 30
0.0
 10
7.20009
 20
4.7447
 30
0.0
 10
7.19409
 20
4.75118
 30
0.0
 10
7.19061
 20
4.7592
 30
0.0
 10
7.19061
 20
4.7592
 30
0.0
 10
7.18712
 20
4.76714
 30
0.0
 10
7.18534
 20
4.784
 30
0.0
 10
7.18534
 20
4.8096
 30
0.0
 10
7.18534
 20
4.8096
 30
0.0
 10
7.18534
 20
4.8096
 30
0.0
 10
7.18534
 20
4.95462
 30
0.0
 10
7.18534
 20
4.95462
 30
0.0
 10
7.18534
 20
4.95462
 30
0.0
 10
7.18534
 20
4.95462
 30
0.0
 10
7.15399
 20
4.95462
 30
0.0
 10
7.15399
 20
4.95462
 30
0.0
 10
7.15399
 20
4.95462
 30
0.0
 10
7.15399
 20
4.95462
 30
0.0
 10
7.15399
 20
4.98784
 30
0.0
 10
7.15399
 20
4.98784
 30
0.0
 10
7.15399
 20
4.98784
 30
0.0
 10
7.15399
 20
4.98784
 30
0.0
 10
7.18534
 20
4.98784
 30
0.0
 10
7.18534
 20
4.98784
 30
0.0
 10
7.18534
 20
4.98784
 30
0.0
 10
7.18534
 20
4.98784
 30
0.0
 10
7.18534
 20
5.0503
 30
0.0
 10
7.18534
 20
5.0503
 30
0.0
 10
7.18534
 20
5.0503
 30
0.0
 10
7.18534
 20
5.0503
 30
0.0
 10
7.22788
 20
5.0759
 30
0.0
 10
7.22788
 20
5.0759
 30
0.0
 10
7.22788
 20
5.0759
 30
0.0
 10
7.22788
 20
5.0759
 30
0.0
 10
7.22788
 20
4.98784
 30
0.0
 10
7.22788
 20
4.98784
 30
0.0
 10
7.22788
 20
4.98784
 30
0.0
 10
7.22788
 20
4.98784
 30
0.0
 10
7.27082
 20
4.98784
 30
0.0
 10
7.27082
 20
4.98784
 30
0.0
 10
7.27082
 20
4.98784
 30
0.0
 10
7.27082
 20
4.98784
 30
0.0
 10
7.27082
 20
4.95462
 30
0.0
 10
7.27082
 20
4.95462
 30
0.0
 10
7.27082
 20
4.95462
 30
0.0
 10
7.27082
 20
4.95462
 30
0.0
 10
7.22788
 20
4.95462
 30
0.0
 10
7.22788
 20
4.95462
 30
0.0
 10
7.22788
 20
4.95462
 30
0.0
 10
7.22788
 20
4.95462
 30
0.0
 10
7.22788
 20
4.80725
 30
0.0
 10
7.22788
 20
4.80725
 30
0.0
 10
7.22788
 20
4.80725
 30
0.0
 10
7.22788
 20
4.79501
 30
0.0
 10
7.2286
 20
4.78724
 30
0.0
 10
7.23006
 20
4.78375
 30
0.0
 10
7.23006
 20
4.78375
 30
0.0
 10
7.2316
 20
4.78027
 30
0.0
 10
7.23403
 20
4.77751
 30
0.0
 10
7.23744
 20
4.77541
 30
0.0
 10
7.23744
 20
4.77541
 30
0.0
 10
7.24084
 20
4.77338
 30
0.0
 10
7.2457
 20
4.77233
 30
0.0
 10
7.25202
 20
4.77233
 30
0.0
 10
7.25202
 20
4.77233
 30
0.0
 10
7.2568
 20
4.77233
 30
0.0
 10
7.26304
 20
4.7729
 30
0.0
 10
7.27082
 20
4.77403
 30
0.0
  0
SPLINE
  5
14A
330
1F
100
AcDbEntity
  8
0
100
AcDbSpline
210
0.0
220
0.0
230
1.0
 70
    11
 71
     3
 72
    52
 73
    48
 74
     0
 42
0.0000000001
 43
0.0000000001
 40
0.0
 40
0.0
 40
0.0
 40
0.0
 40
0.0769230769230769
 40
0.0769230769230769
 40
0.0769230769230769
 40
0.0769230769230769
 40
0.1538461538461539
 40
0.1538461538461539
 40
0.1538461538461539
 40
0.1538461538461539
 40
0.2307692307692308
 40
0.2307692307692308
 40
0.2307692307692308
 40
0.2307692307692308
 40
0.3076923076923077
 40
0.3076923076923077
 40
0.3076923076923077
 40
0.3076923076923077
 40
0.3846153846153846
 40
0.3846153846153846
 40
0.3846153846153846
 40
0.3846153846153846
 40
0.4615384615384616
 40
0.4615384615384616
 40
0.4615384615384616
 40
0.4615384615384616
 40
0.5384615384615384
 40
0.5384615384615384
 40
0.5384615384615384
 40
0.5384615384615384
 40
0.6153846153846154
 40
0.6153846153846154
 40
0.6153846153846154
 40
0.6153846153846154
 40
0.6923076923076923
 40
0.6923076923076923
 40
0.6923076923076923
 40
0.6923076923076923
 40
0.7692307692307693
 40
0.7692307692307693
 40
0.7692307692307693
 40
0.7692307692307693
 40
0.8461538461538461
 40
0.8461538461538461
 40
0.8461538461538461
 40
0.8461538461538461
 40
1.0
 40
1.0
 40
1.0
 40
1.0
 10
6.89529
 20
4.99788
 30
0.0
 10
6.89529
 20
5.03903
 30
0.0
 10
6.89951
 20
5.07217
 30
0.0
 10
6.90801
 20
5.09721
 30
0.0
 10
6.90801
 20
5.09721
 30
0.0
 10
6.91644
 20
5.12232
 30
0.0
 10
6.92908
 20
5.14168
 30
0.0
 10
6.94577
 20
5.1553
 30
0.0
 10
6.94577
 20
5.1553
 30
0.0
 10
6.96246
 20
5.16891
 30
0.0
 10
6.98344
 20
5.17571
 30
0.0
 10
7.00872
 20
5.17571
 30
0.0
 10
7.00872
 20
5.17571
 30
0.0
 10
7.02743
 20
5.17571
 30
0.0
 10
7.0438
 20
5.1719
 30
0.0
 10
7.0579
 20
5.16437
 30
0.0
 10
7.0579
 20
5.16437
 30
0.0
 10
7.07199
 20
5.15692
 30
0.0
 10
7.08358
 20
5.14606
 30
0.0
 10
7.09282
 20
5.13188
 30
0.0
 10
7.09282
 20
5.13188
 30
0.0
 10
7.10197
 20
5.1177
 30
0.0
 10
7.10918
 20
5.10045
 30
0.0
 10
7.11437
 20
5.08011
 30
0.0
 10
7.11437
 20
5.08011
 30
0.0
 10
7.11963
 20
5.05977
 30
0.0
 10
7.12223
 20
5.03239
 30
0.0
 10
7.12223
 20
4.99788
 30
0.0
 10
7.12223
 20
4.99788
 30
0.0
 10
7.12223
 20
4.95704
 30
0.0
 10
7.11801
 20
4.92415
 30
0.0
 10
7.10967
 20
4.89903
 30
0.0
 10
7.10967
 20
4.89903
 30
0.0
 10
7.10124
 20
4.87392
 30
0.0
 10
7.08868
 20
4.85456
 30
0.0
 10
7.07199
 20
4.84086
 30
0.0
 10
7.07199
 20
4.84086
 30
0.0
 10
7.0553
 20
4.82717
 30
0.0
 10
7.03424
 20
4.82037
 30
0.0
 10
7.00872
 20
4.82037
 30
0.0
 10
7.00872
 20
4.82037
 30
0.0
 10
6.97518
 20
4.82037
 30
0.0
 10
6.94885
 20
4.83236
 30
0.0
 10
6.92973
 20
4.85642
 30
0.0
 10
6.92973
 20
4.85642
 30
0.0
 10
6.9068
 20
4.88534
 30
0.0
 10
6.89529
 20
4.93258
 30
0.0
 10
6.89529
 20
4.99788
 30
0.0
  0
SPLINE
  5
14B
330
1F
100
AcDbEntity
  8
0
100
AcDbSpline
210
0.0
220
0.0
230
1.0
 70
    11
 71
     3
 72
    36
 73
    32
 74
     0
 42
0.0000000001
 43
0.0000000001
 40
0.0
 40
0.0
 40
0.0
 40
0.0
 40
0.1111111111111111
 40
0.1111111111111111
 40
0.1111111111111111
 40
0.1111111111111111
 40
0.2222222222222222
 40
0.2222222222222222
 40
0.2222222222222222
 40
0.2222222222222222
 40
0.3333333333333333
 40
0.3333333333333333
 40
0.3333333333333333
 40
0.3333333333333333
 40
0.4444444444444444
 40
0.4444444444444444
 40
0.4444444444444444
 40
0.4444444444444444
 40
0.5555555555555556
 40
0.5555555555555556
 40
0.5555555555555556
 40
0.5555555555555556
 40
0.6666666666666666
 40
0.6666666666666666
 40
0.6666666666666666
 40
0.6666666666666666
 40
0.7777777777777778
 40
0.7777777777777778
 40
0.7777777777777778
 40
0.7777777777777778
 40
1.0
 40
1.0
 40
1.0
 40
1.0
 10
6.93921
 20
4.99788
 30
0.0
 10
6.93921
 20
4.94076
 30
0.0
 10
6.94593
 20
4.90276
 30
0.0
 10
6.9593
 20
4.8838
 30
0.0
 10
6.9593
 20
4.8838
 30
0.0
 10
6.97267
 20
4.86493
 30
0.0
 10
6.98911
 20
4.85545
 30
0.0
 10
7.00872
 20
4.85545
 30
0.0
 10
7.00872
 20
4.85545
 30
0.0
 10
7.02841
 20
4.85545
 30
0.0
 10
7.04485
 20
4.86501
 30
0.0
 10
7.05822
 20
4.88397
 30
0.0
 10
7.05822
 20
4.88397
 30
0.0
 10
7.07159
 20
4.90292
 30
0.0
 10
7.07831
 20
4.94092
 30
0.0
 10
7.07831
 20
4.99788
 30
0.0
 10
7.07831
 20
4.99788
 30
0.0
 10
7.07831
 20
5.05516
 30
0.0
 10
7.07159
 20
5.09324
 30
0.0
 10
7.05822
 20
5.11203
 30
0.0
 10
7.05822
 20
5.11203
 30
0.0
 10
7.04485
 20
5.13091
 30
0.0
 10
7.02824
 20
5.14031
 30
0.0
 10
7.00831
 20
5.14031
 30
0.0
 10
7.00831
 20
5.14031
 30
0.0
 10
6.98863
 20
5.14031
 30
0.0
 10
6.97299
 20
5.13196
 30
0.0
 10
6.96124
 20
5.11535
 30
0.0
 10
6.96124
 20
5.11535
 30
0.0
 10
6.94658
 20
5.09421
 30
0.0
 10
6.93921
 20
5.05499
 30
0.0
 10
6.93921
 20
4.99788
 30
0.0
  0
SPLINE
  5
14C
330
1F
100
AcDbEntity
  8
0
100
AcDbSpline
210
0.0
220
0.0
230
1.0
 70
    11
 71
     3
 72
    20
 73
    16
 74
     0
 42
0.0000000001
 43
0.0000000001
 40
0.0
 40
0.0
 40
0.0
 40
0.0
 40
0.2
 40
0.2
 40
0.2
 40
0.2
 40
0.4
 40
0.4
 40
0.4
 40
0.4
 40
0.6
 40
0.6
 40
0.6
 40
0.6
 40
1.0
 40
1.0
 40
1.0
 40
1.0
 10
7.18963
 20
4.82628
 30
0.0
 10
7.18963
 20
4.82628
 30
0.0
 10
7.18963
 20
4.87497
 30
0.0
 10
7.18963
 20
4.87497
 30
0.0
 10
7.18963
 20
4.87497
 30
0.0
 10
7.18963
 20
4.87497
 30
0.0
 10
7.23833
 20
4.87497
 30
0.0
 10
7.23833
 20
4.87497
 30
0.0
 10
7.23833
 20
4.87497
 30
0.0
 10
7.23833
 20
4.87497
 30
0.0
 10
7.23833
 20
4.82628
 30
0.0
 10
7.23833
 20
4.82628
 30
0.0
 10
7.23833
 20
4.82628
 30
0.0
 10
7.23833
 20
4.82628
 30
0.0
 10
7.18963
 20
4.82628
 30
0.0
 10
7.18963
 20
4.82628
 30
0.0
  0
SPLINE
  5
14D
330
1F
100
AcDbEntity
  8
0
100
AcDbSpline
210
0.0
220
0.0
230
1.0
 70
    11
 71
     3
 72
    92
 73
    88
 74
     0
 42
0.0000000001
 43
0.0000000001
 40
0.0
 40
0.0
 40
0.0
 40
0.0
 40
0.0434782608695652
 40
0.0434782608695652
 40
0.0434782608695652
 40
0.0434782608695652
 40
0.0869565217391304
 40
0.0869565217391304
 40
0.0869565217391304
 40
0.0869565217391304
 40
0.1304347826086956
 40
0.1304347826086956
 40
0.1304347826086956
 40
0.1304347826086956
 40
0.1739130434782609
 40
0.1739130434782609
 40
0.1739130434782609
 40
0.1739130434782609
 40
0.2173913043478261
 40
0.2173913043478261
 40
0.2173913043478261
 40
0.2173913043478261
 40
0.2608695652173913
 40
0.2608695652173913
 40
0.2608695652173913
 40
0.2608695652173913
 40
0.3043478260869565
 40
0.3043478260869565
 40
0.3043478260869565
 40
0.3043478260869565
 40
0.3478260869565217
 40
0.3478260869565217
 40
0.3478260869565217
 40
0.3478260869565217
 40
0.391304347826087
 40
0.391304347826087
 40
0.391304347826087
 40
0.391304347826087
 40
0.4347826086956522
 40
0.4347826086956522
 40
0.4347826086956522
 40
0.4347826086956522
 40
0.4782608695652174
 40
0.4782608695652174
 40
0.4782608695652174
 40
0.4782608695652174
 40
0.5217391304347826
 40
0.5217391304347826
 40
0.5217391304347826
 40
0.5217391304347826
 40
0.5652173913043478
 40
0.5652173913043478
 40
0.5652173913043478
 40
0.5652173913043478
 40
0.6086956521739131
 40
0.6086956521739131
 40
0.6086956521739131
 40
0.6086956521739131
 40
0.6521739130434783
 40
0.6521739130434783
 40
0.6521739130434783
 40
0.6521739130434783
 40
0.6956521739130435
 40
0.6956521739130435
 40
0.6956521739130435
 40
0.6956521739130435
 40
0.7391304347826086
 40
0.7391304347826086
 40
0.7391304347826086
 40
0.7391304347826086
 40
0.782608695652174
 40
0.782608695652174
 40
0.782608695652174
 40
0.782608695652174
 40
0.8260869565217391
 40
0.8260869565217391
 40
0.8260869565217391
 40
0.8260869565217391
 40
0.8695652173913043
 40
0.8695652173913043
 40
0.8695652173913043
 40
0.8695652173913043
 40
0.9130434782608695
 40
0.9130434782608695
 40
0.9130434782608695
 40
0.9130434782608695
 40
1.0
 40
1.0
 40
1.0
 40
1.0
 10
7.5253
 20
4.86736
 30
0.0
 10
7.5253
 20
4.86736
 30
0.0
 10
7.5253
 20
4.82628
 30
0.0
 10
7.5253
 20
4.82628
 30
0.0
 10
7.5253
 20
4.82628
 30
0.0
 10
7.5253
 20
4.82628
 30
0.0
 10
7.29529
 20
4.82628
 30
0.0
 10
7.29529
 20
4.82628
 30
0.0
 10
7.29529
 20
4.82628
 30
0.0
 10
7.29496
 20
4.83657
 30
0.0
 10
7.29658
 20
4.84645
 30
0.0
 10
7.30023
 20
4.85593
 30
0.0
 10
7.30023
 20
4.85593
 30
0.0
 10
7.30606
 20
4.87165
 30
0.0
 10
7.31546
 20
4.88704
 30
0.0
 10
7.32834
 20
4.90228
 30
0.0
 10
7.32834
 20
4.90228
 30
0.0
 10
7.3413
 20
4.91743
 30
0.0
 10
7.35994
 20
4.93501
 30
0.0
 10
7.38424
 20
4.95494
 30
0.0
 10
7.38424
 20
4.95494
 30
0.0
 10
7.42208
 20
4.98597
 30
0.0
 10
7.44768
 20
5.01052
 30
0.0
 10
7.46097
 20
5.02866
 30
0.0
 10
7.46097
 20
5.02866
 30
0.0
 10
7.47425
 20
5.04673
 30
0.0
 10
7.4809
 20
5.06391
 30
0.0
 10
7.4809
 20
5.08003
 30
0.0
 10
7.4809
 20
5.08003
 30
0.0
 10
7.4809
 20
5.09696
 30
0.0
 10
7.47482
 20
5.11122
 30
0.0
 10
7.46275
 20
5.12289
 30
0.0
 10
7.46275
 20
5.12289
 30
0.0
 10
7.4506
 20
5.13447
 30
0.0
 10
7.4348
 20
5.14031
 30
0.0
 10
7.41535
 20
5.14031
 30
0.0
 10
7.41535
 20
5.14031
 30
0.0
 10
7.39478
 20
5.14031
 30
0.0
 10
7.37833
 20
5.13415
 30
0.0
 10
7.36601
 20
5.12175
 30
0.0
 10
7.36601
 20
5.12175
 30
0.0
 10
7.35362
 20
5.10944
 30
0.0
 10
7.34738
 20
5.09234
 30
0.0
 10
7.34722
 20
5.07055
 30
0.0
 10
7.34722
 20
5.07055
 30
0.0
 10
7.34722
 20
5.07055
 30
0.0
 10
7.30331
 20
5.07501
 30
0.0
 10
7.30331
 20
5.07501
 30
0.0
 10
7.30331
 20
5.07501
 30
0.0
 10
7.3063
 20
5.10782
 30
0.0
 10
7.31765
 20
5.13277
 30
0.0
 10
7.33725
 20
5.14995
 30
0.0
 10
7.33725
 20
5.14995
 30
0.0
 10
7.35686
 20
5.16712
 30
0.0
 10
7.38327
 20
5.17571
 30
0.0
 10
7.41633
 20
5.17571
 30
0.0
 10
7.41633
 20
5.17571
 30
0.0
 10
7.44971
 20
5.17571
 30
0.0
 10
7.47612
 20
5.16639
 30
0.0
 10
7.49556
 20
5.14792
 30
0.0
 10
7.49556
 20
5.14792
 30
0.0
 10
7.51509
 20
5.12937
 30
0.0
 10
7.52481
 20
5.10644
 30
0.0
 10
7.52481
 20
5.07906
 30
0.0
 10
7.52481
 20
5.07906
 30
0.0
 10
7.52481
 20
5.06512
 30
0.0
 10
7.52197
 20
5.05143
 30
0.0
 10
7.51622
 20
5.03798
 30
0.0
 10
7.51622
 20
5.03798
 30
0.0
 10
7.51055
 20
5.02453
 30
0.0
 10
7.50107
 20
5.01035
 30
0.0
 10
7.48787
 20
4.99553
 30
0.0
 10
7.48787
 20
4.99553
 30
0.0
 10
7.47466
 20
4.98062
 30
0.0
 10
7.4527
 20
4.9602
 30
0.0
 10
7.422
 20
4.93428
 30
0.0
 10
7.422
 20
4.93428
 30
0.0
 10
7.3964
 20
4.91273
 30
0.0
 10
7.37995
 20
4.89814
 30
0.0
 10
7.37266
 20
4.89045
 30
0.0
 10
7.37266
 20
4.89045
 30
0.0
 10
7.36537
 20
4.88283
 30
0.0
 10
7.35937
 20
4.87513
 30
0.0
 10
7.35459
 20
4.86736
 30
0.0
 10
7.35459
 20
4.86736
 30
0.0
 10
7.35459
 20
4.86736
 30
0.0
 10
7.5253
 20
4.86736
 30
0.0
 10
7.5253
 20
4.86736
 30
0.0
  0
SPLINE
  5
14E
330
1F
100
AcDbEntity
  8
0
100
AcDbSpline
210
0.0
220
0.0
230
1.0
 70
    11
 71
     3
 72
    28
 73
    24
 74
     0
 42
0.0000000001
 43
0.0000000001
 40
0.0
 40
0.0
 40
0.0
 40
0.0
 40
0.1428571428571428
 40
0.1428571428571428
 40
0.1428571428571428
 40
0.1428571428571428
 40
0.2857142857142857
 40
0.2857142857142857
 40
0.2857142857142857
 40
0.2857142857142857
 40
0.4285714285714285
 40
0.4285714285714285
 40
0.4285714285714285
 40
0.4285714285714285
 40
0.5714285714285714
 40
0.5714285714285714
 40
0.5714285714285714
 40
0.5714285714285714
 40
0.7142857142857143
 40
0.7142857142857143
 40
0.7142857142857143
 40
0.7142857142857143
 40
1.0
 40
1.0
 40
1.0
 40
1.0
 10
6.91069
 20
4.28322
 30
0.0
 10
6.91069
 20
4.28322
 30
0.0
 10
6.91069
 20
4.63119
 30
0.0
 10
6.91069
 20
4.63119
 30
0.0
 10
6.91069
 20
4.63119
 30
0.0
 10
6.91069
 20
4.63119
 30
0.0
 10
6.95679
 20
4.63119
 30
0.0
 10
6.95679
 20
4.63119
 30
0.0
 10
6.95679
 20
4.63119
 30
0.0
 10
6.95679
 20
4.63119
 30
0.0
 10
6.95679
 20
4.3243
 30
0.0
 10
6.95679
 20
4.3243
 30
0.0
 10
6.95679
 20
4.3243
 30
0.0
 10
6.95679
 20
4.3243
 30
0.0
 10
7.12814
 20
4.3243
 30
0.0
 10
7.12814
 20
4.3243
 30
0.0
 10
7.12814
 20
4.3243
 30
0.0
 10
7.12814
 20
4.3243
 30
0.0
 10
7.12814
 20
4.28322
 30
0.0
 10
7.12814
 20
4.28322
 30
0.0
 10
7.12814
 20
4.28322
 30
0.0
 10
7.12814
 20
4.28322
 30
0.0
 10
6.91069
 20
4.28322
 30
0.0
 10
6.91069
 20
4.28322
 30
0.0
  0
SPLINE
  5
14F
330
1F
100
AcDbEntity
  8
0
100
AcDbSpline
210
0.0
220
0.0
230
1.0
 70
    11
 71
     3
 72
    84
 73
    80
 74
     0
 42
0.0000000001
 43
0.0000000001
 40
0.0
 40
0.0
 40
0.0
 40
0.0
 40
0.0476190476190476
 40
0.0476190476190476
 40
0.0476190476190476
 40
0.0476190476190476
 40
0.0952380952380952
 40
0.0952380952380952
 40
0.0952380952380952
 40
0.0952380952380952
 40
0.1428571428571428
 40
0.1428571428571428
 40
0.1428571428571428
 40
0.1428571428571428
 40
0.1904761904761905
 40
0.1904761904761905
 40
0.1904761904761905
 40
0.1904761904761905
 40
0.2380952380952381
 40
0.2380952380952381
 40
0.2380952380952381
 40
0.2380952380952381
 40
0.2857142857142857
 40
0.2857142857142857
 40
0.2857142857142857
 40
0.2857142857142857
 40
0.3333333333333333
 40
0.3333333333333333
 40
0.3333333333333333
 40
0.3333333333333333
 40
0.3809523809523809
 40
0.3809523809523809
 40
0.3809523809523809
 40
0.3809523809523809
 40
0.4285714285714285
 40
0.4285714285714285
 40
0.4285714285714285
 40
0.4285714285714285
 40
0.4761904761904762
 40
0.4761904761904762
 40
0.4761904761904762
 40
0.4761904761904762
 40
0.5238095238095238
 40
0.5238095238095238
 40
0.5238095238095238
 40
0.5238095238095238
 40
0.5714285714285714
 40
0.5714285714285714
 40
0.5714285714285714
 40
0.5714285714285714
 40
0.6190476190476191
 40
0.6190476190476191
 40
0.6190476190476191
 40
0.6190476190476191
 40
0.6666666666666666
 40
0.6666666666666666
 40
0.6666666666666666
 40
0.6666666666666666
 40
0.7142857142857143
 40
0.7142857142857143
 40
0.7142857142857143
 40
0.7142857142857143
 40
0.7619047619047619
 40
0.7619047619047619
 40
0.7619047619047619
 40
0.7619047619047619
 40
0.8095238095238095
 40
0.8095238095238095
 40
0.8095238095238095
 40
0.8095238095238095
 40
0.8571428571428571
 40
0.8571428571428571
 40
0.8571428571428571
 40
0.8571428571428571
 40
0.9047619047619048
 40
0.9047619047619048
 40
0.9047619047619048
 40
0.9047619047619048
 40
1.0
 40
1.0
 40
1.0
 40
1.0
 10
7.27082
 20
4.32146
 30
0.0
 10
7.27082
 20
4.32146
 30
0.0
 10
7.27697
 20
4.28371
 30
0.0
 10
7.27697
 20
4.28371
 30
0.0
 10
7.27697
 20
4.28371
 30
0.0
 10
7.26498
 20
4.28119
 30
0.0
 10
7.25421
 20
4.2799
 30
0.0
 10
7.24473
 20
4.2799
 30
0.0
 10
7.24473
 20
4.2799
 30
0.0
 10
7.22917
 20
4.2799
 30
0.0
 10
7.21718
 20
4.28233
 30
0.0
 10
7.20859
 20
4.28727
 30
0.0
 10
7.20859
 20
4.28727
 30
0.0
 10
7.20009
 20
4.29213
 30
0.0
 10
7.19409
 20
4.29861
 30
0.0
 10
7.19061
 20
4.30663
 30
0.0
 10
7.19061
 20
4.30663
 30
0.0
 10
7.18712
 20
4.31457
 30
0.0
 10
7.18534
 20
4.33143
 30
0.0
 10
7.18534
 20
4.35703
 30
0.0
 10
7.18534
 20
4.35703
 30
0.0
 10
7.18534
 20
4.35703
 30
0.0
 10
7.18534
 20
4.50205
 30
0.0
 10
7.18534
 20
4.50205
 30
0.0
 10
7.18534
 20
4.50205
 30
0.0
 10
7.18534
 20
4.50205
 30
0.0
 10
7.15399
 20
4.50205
 30
0.0
 10
7.15399
 20
4.50205
 30
0.0
 10
7.15399
 20
4.50205
 30
0.0
 10
7.15399
 20
4.50205
 30
0.0
 10
7.15399
 20
4.53527
 30
0.0
 10
7.15399
 20
4.53527
 30
0.0
 10
7.15399
 20
4.53527
 30
0.0
 10
7.15399
 20
4.53527
 30
0.0
 10
7.18534
 20
4.53527
 30
0.0
 10
7.18534
 20
4.53527
 30
0.0
 10
7.18534
 20
4.53527
 30
0.0
 10
7.18534
 20
4.53527
 30
0.0
 10
7.18534
 20
4.59773
 30
0.0
 10
7.18534
 20
4.59773
 30
0.0
 10
7.18534
 20
4.59773
 30
0.0
 10
7.18534
 20
4.59773
 30
0.0
 10
7.22788
 20
4.62333
 30
0.0
 10
7.22788
 20
4.62333
 30
0.0
 10
7.22788
 20
4.62333
 30
0.0
 10
7.22788
 20
4.62333
 30
0.0
 10
7.22788
 20
4.53527
 30
0.0
 10
7.22788
 20
4.53527
 30
0.0
 10
7.22788
 20
4.53527
 30
0.0
 10
7.22788
 20
4.53527
 30
0.0
 10
7.27082
 20
4.53527
 30
0.0
 10
7.27082
 20
4.53527
 30
0.0
 10
7.27082
 20
4.53527
 30
0.0
 10
7.27082
 20
4.53527
 30
0.0
 10
7.27082
 20
4.50205
 30
0.0
 10
7.27082
 20
4.50205
 30
0.0
 10
7.27082
 20
4.50205
 30
0.0
 10
7.27082
 20
4.50205
 30
0.0
 10
7.22788
 20
4.50205
 30
0.0
 10
7.22788
 20
4.50205
 30
0.0
 10
7.22788
 20
4.50205
 30
0.0
 10
7.22788
 20
4.50205
 30
0.0
 10
7.22788
 20
4.35468
 30
0.0
 10
7.22788
 20
4.35468
 30
0.0
 10
7.22788
 20
4.35468
 30
0.0
 10
7.22788
 20
4.34244
 30
0.0
 10
7.2286
 20
4.33467
 30
0.0
 10
7.23006
 20
4.33118
 30
0.0
 10
7.23006
 20
4.33118
 30
0.0
 10
7.2316
 20
4.3277
 30
0.0
 10
7.23403
 20
4.32494
 30
0.0
 10
7.23744
 20
4.32284
 30
0.0
 10
7.23744
 20
4.32284
 30
0.0
 10
7.24084
 20
4.32081
 30
0.0
 10
7.2457
 20
4.31976
 30
0.0
 10
7.25202
 20
4.31976
 30
0.0
 10
7.25202
 20
4.31976
 30
0.0
 10
7.2568
 20
4.31976
 30
0.0
 10
7.26304
 20
4.32033
 30
0.0
 10
7.27082
 20
4.32146
 30
0.0
  0
SPLINE
  5
150
330
1F
100
AcDbEntity
  8
0
100
AcDbSpline
210
0.0
220
0.0
230
1.0
 70
    11
 71
     3
 72
    56
 73
    52
 74
     0
 42
0.0000000001
 43
0.0000000001
 40
0.0
 40
0.0
 40
0.0
 40
0.0
 40
0.0714285714285714
 40
0.0714285714285714
 40
0.0714285714285714
 40
0.0714285714285714
 40
0.1428571428571428
 40
0.1428571428571428
 40
0.1428571428571428
 40
0.1428571428571428
 40
0.2142857142857143
 40
0.2142857142857143
 40
0.2142857142857143
 40
0.2142857142857143
 40
0.2857142857142857
 40
0.2857142857142857
 40
0.2857142857142857
 40
0.2857142857142857
 40
0.3571428571428572
 40
0.3571428571428572
 40
0.3571428571428572
 40
0.3571428571428572
 40
0.4285714285714285
 40
0.4285714285714285
 40
0.4285714285714285
 40
0.4285714285714285
 40
0.5
 40
0.5
 40
0.5
 40
0.5
 40
0.5714285714285714
 40
0.5714285714285714
 40
0.5714285714285714
 40
0.5714285714285714
 40
0.6428571428571429
 40
0.6428571428571429
 40
0.6428571428571429
 40
0.6428571428571429
 40
0.7142857142857143
 40
0.7142857142857143
 40
0.7142857142857143
 40
0.7142857142857143
 40
0.7857142857142857
 40
0.7857142857142857
 40
0.7857142857142857
 40
0.7857142857142857
 40
0.8571428571428571
 40
0.8571428571428571
 40
0.8571428571428571
 40
0.8571428571428571
 40
1.0
 40
1.0
 40
1.0
 40
1.0
 10
7.31214
 20
4.28322
 30
0.0
 10
7.31214
 20
4.28322
 30
0.0
 10
7.31214
 20
4.53527
 30
0.0
 10
7.31214
 20
4.53527
 30
0.0
 10
7.31214
 20
4.53527
 30
0.0
 10
7.31214
 20
4.53527
 30
0.0
 10
7.35054
 20
4.53527
 30
0.0
 10
7.35054
 20
4.53527
 30
0.0
 10
7.35054
 20
4.53527
 30
0.0
 10
7.35054
 20
4.53527
 30
0.0
 10
7.35054
 20
4.49711
 30
0.0
 10
7.35054
 20
4.49711
 30
0.0
 10
7.35054
 20
4.49711
 30
0.0
 10
7.36034
 20
4.51493
 30
0.0
 10
7.36942
 20
4.52676
 30
0.0
 10
7.37776
 20
4.53243
 30
0.0
 10
7.37776
 20
4.53243
 30
0.0
 10
7.38603
 20
4.5381
 30
0.0
 10
7.39518
 20
4.54102
 30
0.0
 10
7.40515
 20
4.54102
 30
0.0
 10
7.40515
 20
4.54102
 30
0.0
 10
7.41957
 20
4.54102
 30
0.0
 10
7.43415
 20
4.5364
 30
0.0
 10
7.44906
 20
4.52725
 30
0.0
 10
7.44906
 20
4.52725
 30
0.0
 10
7.44906
 20
4.52725
 30
0.0
 10
7.43431
 20
4.48755
 30
0.0
 10
7.43431
 20
4.48755
 30
0.0
 10
7.43431
 20
4.48755
 30
0.0
 10
7.42394
 20
4.49379
 30
0.0
 10
7.41349
 20
4.49687
 30
0.0
 10
7.40304
 20
4.49687
 30
0.0
 10
7.40304
 20
4.49687
 30
0.0
 10
7.39364
 20
4.49687
 30
0.0
 10
7.3853
 20
4.49403
 30
0.0
 10
7.37784
 20
4.48844
 30
0.0
 10
7.37784
 20
4.48844
 30
0.0
 10
7.37039
 20
4.48277
 30
0.0
 10
7.36512
 20
4.47499
 30
0.0
 10
7.36196
 20
4.46503
 30
0.0
 10
7.36196
 20
4.46503
 30
0.0
 10
7.35718
 20
4.44987
 30
0.0
 10
7.35483
 20
4.43327
 30
0.0
 10
7.35483
 20
4.4152
 30
0.0
 10
7.35483
 20
4.4152
 30
0.0
 10
7.35483
 20
4.4152
 30
0.0
 10
7.35483
 20
4.28322
 30
0.0
 10
7.35483
 20
4.28322
 30
0.0
 10
7.35483
 20
4.28322
 30
0.0
 10
7.35483
 20
4.28322
 30
0.0
 10
7.31214
 20
4.28322
 30
0.0
 10
7.31214
 20
4.28322
 30
0.0
  0
SPLINE
  5
151
330
1F
100
AcDbEntity
  8
0
370
     9
100
AcDbSpline
210
0.0
220
0.0
230
1.0
 70
    24
 71
     3
 72
     8
 73
     4
 74
     0
 42
0.0000000001
 43
0.0000000001
 40
0.0
 40
0.0
 40
0.0
 40
0.0
 40
1.0
 40
1.0
 40
1.0
 40
1.0
 10
4.72223
 20
7.17163
 30
0.0
 10
4.72223
 20
7.17163
 30
0.0
 10
6.81506
 20
5.58306
 30
0.0
 10
6.81506
 20
5.58306
 30
0.0
  0
SPLINE
  5
152
330
1F
100
AcDbEntity
  8
0
100
AcDbSpline
210
0.0
220
0.0
230
1.0
 70
    11
 71
     3
 72
    20
 73
    16
 74
     0
 42
0.0000000001
 43
0.0000000001
 40
0.0
 40
0.0
 40
0.0
 40
0.0
 40
0.2
 40
0.2
 40
0.2
 40
0.2
 40
0.4
 40
0.4
 40
0.4
 40
0.4
 40
0.6
 40
0.6
 40
0.6
 40
0.6
 40
1.0
 40
1.0
 40
1.0
 40
1.0
 10
4.72223
 20
7.17163
 30
0.0
 10
4.72223
 20
7.17163
 30
0.0
 10
4.72772
 20
7.1706
 30
0.0
 10
4.72772
 20
7.1706
 30
0.0
 10
4.72772
 20
7.1706
 30
0.0
 10
4.72772
 20
7.1706
 30
0.0
 10
4.7247
 20
7.16662
 30
0.0
 10
4.7247
 20
7.16662
 30
0.0
 10
4.7247
 20
7.16662
 30
0.0
 10
4.7247
 20
7.16662
 30
0.0
 10
4.72223
 20
7.17163
 30
0.0
 10
4.72223
 20
7.17163
 30
0.0
 10
4.72223
 20
7.17163
 30
0.0
 10
4.72223
 20
7.17163
 30
0.0
 10
4.72223
 20
7.17163
 30
0.0
 10
4.72223
 20
7.17163
 30
0.0
  0
SPLINE
  5
153
330
1F
100
AcDbEntity
  8
0
370
     9
100
AcDbSpline
210
0.0
220
0.0
230
1.0
 70
    11
 71
     3
 72
    16
 73
    12
 74
     0
 42
0.0000000001
 43
0.0000000001
 40
0.0
 40
0.0
 40
0.0
 40
0.0
 40
0.25
 40
0.25
 40
0.25
 40
0.25
 40
0.5
 40
0.5
 40
0.5
 40
0.5
 40
1.0
 40
1.0
 40
1.0
 40
1.0
 10
4.72223
 20
7.17163
 30
0.0
 10
4.72223
 20
7.17163
 30
0.0
 10
4.72772
 20
7.1706
 30
0.0
 10
4.72772
 20
7.1706
 30
0.0
 10
4.72772
 20
7.1706
 30
0.0
 10
4.72772
 20
7.1706
 30
0.0
 10
4.7247
 20
7.16662
 30
0.0
 10
4.7247
 20
7.16662
 30
0.0
 10
4.7247
 20
7.16662
 30
0.0
 10
4.7247
 20
7.16662
 30
0.0
 10
4.72223
 20
7.17163
 30
0.0
 10
4.72223
 20
7.17163
 30
0.0
  0
SPLINE
  5
154
330
1F
100
AcDbEntity
  8
0
370
    15
100
AcDbSpline
210
0.0
220
0.0
230
1.0
 70
    24
 71
     3
 72
     8
 73
     4
 74
     0
 42
0.0000000001
 43
0.0000000001
 40
0.0
 40
0.0
 40
0.0
 40
0.0
 40
1.0
 40
1.0
 40
1.0
 40
1.0
 10
-7.20293
 20
0.67162
 30
0.0
 10
-7.20293
 20
0.67162
 30
0.0
 10
-7.20293
 20
-1.47164
 30
0.0
 10
-7.20293
 20
-1.47164
 30
0.0
  0
SPLINE
  5
155
330
1F
100
AcDbEntity
  8
0
370
    15
100
AcDbSpline
210
0.0
220
0.0
230
1.0
 70
    24
 71
     3
 72
     8
 73
     4
 74
     0
 42
0.0000000001
 43
0.0000000001
 40
0.0
 40
0.0
 40
0.0
 40
0.0
 40
1.0
 40
1.0
 40
1.0
 40
1.0
 10
-6.90293
 20
-1.47164
 30
0.0
 10
-6.90293
 20
-1.47164
 30
0.0
 10
-6.90293
 20
0.67162
 30
0.0
 10
-6.90293
 20
0.67162
 30
0.0
  0
SPLINE
  5
156
330
1F
100
AcDbEntity
  8
0
370
    15
100
AcDbSpline
210
0.0
220
0.0
230
1.0
 70
    24
 71
     3
 72
     8
 73
     4
 74
     0
 42
0.0000000001
 43
0.0000000001
 40
0.0
 40
0.0
 40
0.0
 40
0.0
 40
1.0
 40
1.0
 40
1.0
 40
1.0
 10
-5.36862
 20
3.32836
 30
0.0
 10
-5.36862
 20
3.32836
 30
0.0
 10
-5.36862
 20
3.67836
 30
0.0
 10
-5.36862
 20
3.67836
 30
0.0
  0
SPLINE
  5
157
330
1F
100
AcDbEntity
  8
0
370
    15
100
AcDbSpline
210
0.0
220
0.0
230
1.0
 70
    24
 71
     3
 72
     8
 73
     4
 74
     0
 42
0.0000000001
 43
0.0000000001
 40
0.0
 40
0.0
 40
0.0
 40
0.0
 40
1.0
 40
1.0
 40
1.0
 40
1.0
 10
-8.73725
 20
3.67836
 30
0.0
 10
-8.73725
 20
3.67836
 30
0.0
 10
-8.73725
 20
3.32836
 30
0.0
 10
-8.73725
 20
3.32836
 30
0.0
  0
SPLINE
  5
158
330
1F
100
AcDbEntity
  8
0
370
    15
100
AcDbSpline
210
0.0
220
0.0
230
1.0
 70
    24
 71
     3
 72
     8
 73
     4
 74
     0
 42
0.0000000001
 43
0.0000000001
 40
0.0
 40
0.0
 40
0.0
 40
0.0
 40
1.0
 40
1.0
 40
1.0
 40
1.0
 10
-5.36862
 20
2.17278
 30
0.0
 10
-5.36862
 20
2.17278
 30
0.0
 10
-5.36862
 20
3.32836
 30
0.0
 10
-5.36862
 20
3.32836
 30
0.0
  0
SPLINE
  5
159
330
1F
100
AcDbEntity
  8
0
370
    15
100
AcDbSpline
210
0.0
220
0.0
230
1.0
 70
    24
 71
     3
 72
     8
 73
     4
 74
     0
 42
0.0000000001
 43
0.0000000001
 40
0.0
 40
0.0
 40
0.0
 40
0.0
 40
1.0
 40
1.0
 40
1.0
 40
1.0
 10
-8.73725
 20
3.32836
 30
0.0
 10
-8.73725
 20
3.32836
 30
0.0
 10
-8.73725
 20
2.17278
 30
0.0
 10
-8.73725
 20
2.17278
 30
0.0
  0
SPLINE
  5
15A
330
1F
100
AcDbEntity
  8
0
370
    15
100
AcDbSpline
210
0.0
220
0.0
230
1.0
 70
     8
 71
     3
 72
     8
 73
     4
 74
     0
 42
0.0000000001
 43
0.0000000001
 40
0.0
 40
0.0
 40
0.0
 40
0.0
 40
1.0
 40
1.0
 40
1.0
 40
1.0
 10
-5.36862
 20
2.17278
 30
0.0
 10
-5.36862
 20
2.14102
 30
0.0
 10
-5.3616
 20
2.10966
 30
0.0
 10
-5.34808
 20
2.08092
 30
0.0
  0
SPLINE
  5
15B
330
1F
100
AcDbEntity
  8
0
370
    15
100
AcDbSpline
210
0.0
220
0.0
230
1.0
 70
     8
 71
     3
 72
     8
 73
     4
 74
     0
 42
0.0000000001
 43
0.0000000001
 40
0.0
 40
0.0
 40
0.0
 40
0.0
 40
1.0
 40
1.0
 40
1.0
 40
1.0
 10
-8.75779
 20
2.08092
 30
0.0
 10
-8.74426
 20
2.10966
 30
0.0
 10
-8.73725
 20
2.14102
 30
0.0
 10
-8.73725
 20
2.17278
 30
0.0
  0
SPLINE
  5
15C
330
1F
100
AcDbEntity
  8
0
370
    15
100
AcDbSpline
210
0.0
220
0.0
230
1.0
 70
     8
 71
     3
 72
    12
 73
     8
 74
     0
 42
0.0000000001
 43
0.0000000001
 40
0.0
 40
0.0
 40
0.0
 40
0.0
 40
0.3333333333333333
 40
0.3333333333333333
 40
0.3333333333333333
 40
0.3333333333333333
 40
1.0
 40
1.0
 40
1.0
 40
1.0
 10
-8.75779
 20
2.08092
 30
0.0
 10
-9.02123
 20
1.52131
 30
0.0
 10
-8.99325
 20
0.86804
 30
0.0
 10
-8.68294
 20
0.33299
 30
0.0
 10
-8.68294
 20
0.33299
 30
0.0
 10
-8.37263
 20
-0.20205
 30
0.0
 10
-7.81949
 20
-0.55074
 30
0.0
 10
-7.20293
 20
-0.59998
 30
0.0
  0
SPLINE
  5
15D
330
1F
100
AcDbEntity
  8
0
370
    15
100
AcDbSpline
210
0.0
220
0.0
230
1.0
 70
     8
 71
     3
 72
    12
 73
     8
 74
     0
 42
0.0000000001
 43
0.0000000001
 40
0.0
 40
0.0
 40
0.0
 40
0.0
 40
0.3333333333333333
 40
0.3333333333333333
 40
0.3333333333333333
 40
0.3333333333333333
 40
1.0
 40
1.0
 40
1.0
 40
1.0
 10
-6.90293
 20
-0.59998
 30
0.0
 10
-6.28638
 20
-0.55074
 30
0.0
 10
-5.73324
 20
-0.20206
 30
0.0
 10
-5.42293
 20
0.33299
 30
0.0
 10
-5.42293
 20
0.33299
 30
0.0
 10
-5.11261
 20
0.86803
 30
0.0
 10
-5.08464
 20
1.5213
 30
0.0
 10
-5.34807
 20
2.08091
 30
0.0
  0
SPLINE
  5
15E
330
1F
100
AcDbEntity
  8
0
370
    15
100
AcDbSpline
210
0.0
220
0.0
230
1.0
 70
     8
 71
     3
 72
    20
 73
    16
 74
     0
 42
0.0000000001
 43
0.0000000001
 40
0.0
 40
0.0
 40
0.0
 40
0.0
 40
0.2
 40
0.2
 40
0.2
 40
0.2
 40
0.4
 40
0.4
 40
0.4
 40
0.4
 40
0.6
 40
0.6
 40
0.6
 40
0.6
 40
1.0
 40
1.0
 40
1.0
 40
1.0
 10
-6.90293
 20
0.46711
 30
0.0
 10
-6.48359
 20
0.54464
 30
0.0
 10
-6.19245
 20
0.929
 30
0.0
 10
-6.23138
 20
1.35367
 30
0.0
 10
-6.23138
 20
1.35367
 30
0.0
 10
-6.27031
 20
1.77834
 30
0.0
 10
-6.62648
 20
2.10336
 30
0.0
 10
-7.05293
 20
2.10336
 30
0.0
 10
-7.05293
 20
2.10336
 30
0.0
 10
-7.47938
 20
2.10336
 30
0.0
 10
-7.83555
 20
1.77835
 30
0.0
 10
-7.87449
 20
1.35367
 30
0.0
 10
-7.87449
 20
1.35367
 30
0.0
 10
-7.91342
 20
0.929
 30
0.0
 10
-7.62228
 20
0.54465
 30
0.0
 10
-7.20294
 20
0.46711
 30
0.0
  0
SPLINE
  5
15F
330
1F
100
AcDbEntity
  8
0
370
    15
100
AcDbSpline
210
0.0
220
0.0
230
1.0
 70
    24
 71
     3
 72
     8
 73
     4
 74
     0
 42
0.0000000001
 43
0.0000000001
 40
0.0
 40
0.0
 40
0.0
 40
0.0
 40
1.0
 40
1.0
 40
1.0
 40
1.0
 10
-6.90293
 20
-1.47164
 30
0.0
 10
-6.90293
 20
-1.47164
 30
0.0
 10
-7.20293
 20
-1.47164
 30
0.0
 10
-7.20293
 20
-1.47164
 30
0.0
  0
SPLINE
  5
160
330
1F
100
AcDbEntity
  8
0
370
    15
100
AcDbSpline
210
0.0
220
0.0
230
1.0
 70
     8
 71
     3
 72
    20
 73
    16
 74
     0
 42
0.0000000001
 43
0.0000000001
 40
0.0
 40
0.0
 40
0.0
 40
0.0
 40
0.2
 40
0.2
 40
0.2
 40
0.2
 40
0.4
 40
0.4
 40
0.4
 40
0.4
 40
0.6
 40
0.6
 40
0.6
 40
0.6
 40
1.0
 40
1.0
 40
1.0
 40
1.0
 10
-6.42793
 20
1.27836
 30
0.0
 10
-6.42793
 20
1.62353
 30
0.0
 10
-6.70775
 20
1.90336
 30
0.0
 10
-7.05293
 20
1.90336
 30
0.0
 10
-7.05293
 20
1.90336
 30
0.0
 10
-7.39811
 20
1.90336
 30
0.0
 10
-7.67793
 20
1.62354
 30
0.0
 10
-7.67793
 20
1.27836
 30
0.0
 10
-7.67793
 20
1.27836
 30
0.0
 10
-7.67793
 20
0.93318
 30
0.0
 10
-7.39811
 20
0.65336
 30
0.0
 10
-7.05294
 20
0.65336
 30
0.0
 10
-7.05294
 20
0.65336
 30
0.0
 10
-6.70776
 20
0.65336
 30
0.0
 10
-6.42793
 20
0.93318
 30
0.0
 10
-6.42793
 20
1.27835
 30
0.0
  0
SPLINE
  5
161
330
1F
100
AcDbEntity
  8
0
370
    15
100
AcDbSpline
210
0.0
220
0.0
230
1.0
 70
     8
 71
     3
 72
    12
 73
     8
 74
     0
 42
0.0000000001
 43
0.0000000001
 40
0.0
 40
0.0
 40
0.0
 40
0.0
 40
0.3333333333333333
 40
0.3333333333333333
 40
0.3333333333333333
 40
0.3333333333333333
 40
1.0
 40
1.0
 40
1.0
 40
1.0
 10
-6.90293
 20
0.4417
 30
0.0
 10
-6.46503
 20
0.52021
 30
0.0
 10
-6.16175
 20
0.9231
 30
0.0
 10
-6.20743
 20
1.36563
 30
0.0
 10
-6.20743
 20
1.36563
 30
0.0
 10
-6.2531
 20
1.80816
 30
0.0
 10
-6.63229
 20
2.14061
 30
0.0
 10
-7.077
 20
2.12802
 30
0.0
  0
SPLINE
  5
162
330
1F
100
AcDbEntity
  8
0
370
    15
100
AcDbSpline
210
0.0
220
0.0
230
1.0
 70
     8
 71
     3
 72
    12
 73
     8
 74
     0
 42
0.0000000001
 43
0.0000000001
 40
0.0
 40
0.0
 40
0.0
 40
0.0
 40
0.3333333333333333
 40
0.3333333333333333
 40
0.3333333333333333
 40
0.3333333333333333
 40
1.0
 40
1.0
 40
1.0
 40
1.0
 10
-7.077
 20
2.12802
 30
0.0
 10
-7.51248
 20
2.11568
 30
0.0
 10
-7.86813
 20
1.7761
 30
0.0
 10
-7.90057
 20
1.34166
 30
0.0
 10
-7.90057
 20
1.34166
 30
0.0
 10
-7.93302
 20
0.90722
 30
0.0
 10
-7.63175
 20
0.51858
 30
0.0
 10
-7.20293
 20
0.4417
 30
0.0
  0
SPLINE
  5
163
330
1F
100
AcDbEntity
  8
0
370
    15
100
AcDbSpline
210
0.0
220
0.0
230
1.0
 70
     8
 71
     3
 72
    12
 73
     8
 74
     0
 42
0.0000000001
 43
0.0000000001
 40
0.0
 40
0.0
 40
0.0
 40
0.0
 40
0.3333333333333333
 40
0.3333333333333333
 40
0.3333333333333333
 40
0.3333333333333333
 40
1.0
 40
1.0
 40
1.0
 40
1.0
 10
-6.90293
 20
-0.37736
 30
0.0
 10
-6.0085
 20
-0.29633
 30
0.0
 10
-5.3401
 20
0.48042
 30
0.0
 10
-5.39336
 20
1.37694
 30
0.0
 10
-5.39336
 20
1.37694
 30
0.0
 10
-5.44661
 20
2.27346
 30
0.0
 10
-6.20226
 20
2.96562
 30
0.0
 10
-7.1
 20
2.94019
 30
0.0
  0
SPLINE
  5
164
330
1F
100
AcDbEntity
  8
0
370
    15
100
AcDbSpline
210
0.0
220
0.0
230
1.0
 70
     8
 71
     3
 72
    12
 73
     8
 74
     0
 42
0.0000000001
 43
0.0000000001
 40
0.0
 40
0.0
 40
0.0
 40
0.0
 40
0.3333333333333333
 40
0.3333333333333333
 40
0.3333333333333333
 40
0.3333333333333333
 40
1.0
 40
1.0
 40
1.0
 40
1.0
 10
-7.10001
 20
2.94019
 30
0.0
 10
-7.97954
 20
2.91528
 30
0.0
 10
-8.68735
 20
2.20937
 30
0.0
 10
-8.71463
 20
1.32991
 30
0.0
 10
-8.71463
 20
1.32991
 30
0.0
 10
-8.74192
 20
0.45045
 30
0.0
 10
-8.07923
 20
-0.29797
 30
0.0
 10
-7.20293
 20
-0.37736
 30
0.0
  0
SPLINE
  5
165
330
1F
100
AcDbEntity
  8
0
370
    15
100
AcDbSpline
210
0.0
220
0.0
230
1.0
 70
     8
 71
     3
 72
    16
 73
    12
 74
     0
 42
0.0000000001
 43
0.0000000001
 40
0.0
 40
0.0
 40
0.0
 40
0.0
 40
0.25
 40
0.25
 40
0.25
 40
0.25
 40
0.5
 40
0.5
 40
0.5
 40
0.5
 40
1.0
 40
1.0
 40
1.0
 40
1.0
 10
-6.90293
 20
-0.41501
 30
0.0
 10
-5.98603
 20
-0.33379
 30
0.0
 10
-5.30034
 20
0.46245
 30
0.0
 10
-5.35605
 20
1.38125
 30
0.0
 10
-5.35605
 20
1.38125
 30
0.0
 10
-5.41176
 20
2.30005
 30
0.0
 10
-6.18864
 20
3.00761
 30
0.0
 10
-7.10864
 20
2.97744
 30
0.0
 10
-7.10864
 20
2.97744
 30
0.0
 10
-8.02863
 20
2.94728
 30
0.0
 10
-8.7575
 20
2.19036
 30
0.0
 10
-8.75291
 20
1.26988
 30
0.0
  0
SPLINE
  5
166
330
1F
100
AcDbEntity
  8
0
370
    15
100
AcDbSpline
210
0.0
220
0.0
230
1.0
 70
     8
 71
     3
 72
     8
 73
     4
 74
     0
 42
0.0000000001
 43
0.0000000001
 40
0.0
 40
0.0
 40
0.0
 40
0.0
 40
1.0
 40
1.0
 40
1.0
 40
1.0
 10
-8.75291
 20
1.26987
 30
0.0
 10
-8.74853
 20
0.39239
 30
0.0
 10
-8.07701
 20
-0.33759
 30
0.0
 10
-7.20293
 20
-0.41501
 30
0.0
  0
SPLINE
  5
167
330
1F
100
AcDbEntity
  8
0
370
    15
100
AcDbSpline
210
0.0
220
0.0
230
1.0
 70
     8
 71
     3
 72
    16
 73
    12
 74
     0
 42
0.0000000001
 43
0.0000000001
 40
0.0
 40
0.0
 40
0.0
 40
0.0
 40
0.25
 40
0.25
 40
0.25
 40
0.25
 40
0.5
 40
0.5
 40
0.5
 40
0.5
 40
1.0
 40
1.0
 40
1.0
 40
1.0
 10
-6.90293
 20
-0.41501
 30
0.0
 10
-6.19902
 20
-0.35266
 30
0.0
 10
-5.60709
 20
0.13866
 30
0.0
 10
-5.41616
 20
0.81904
 30
0.0
 10
-5.41616
 20
0.81904
 30
0.0
 10
-5.22523
 20
1.49942
 30
0.0
 10
-5.47512
 20
2.22697
 30
0.0
 10
-6.04381
 20
2.64645
 30
0.0
 10
-6.04381
 20
2.64645
 30
0.0
 10
-6.61251
 20
3.06593
 30
0.0
 10
-7.38141
 20
3.08984
 30
0.0
 10
-7.97507
 20
2.70652
 30
0.0
  0
SPLINE
  5
168
330
1F
100
AcDbEntity
  8
0
370
    15
100
AcDbSpline
210
0.0
220
0.0
230
1.0
 70
     8
 71
     3
 72
     8
 73
     4
 74
     0
 42
0.0000000001
 43
0.0000000001
 40
0.0
 40
0.0
 40
0.0
 40
0.0
 40
1.0
 40
1.0
 40
1.0
 40
1.0
 10
-7.97508
 20
2.70652
 30
0.0
 10
-8.46255
 20
2.39176
 30
0.0
 10
-8.75581
 20
1.85012
 30
0.0
 10
-8.75291
 20
1.26987
 30
0.0
  0
SPLINE
  5
169
330
1F
100
AcDbEntity
  8
0
370
    15
100
AcDbSpline
210
0.0
220
0.0
230
1.0
 70
    24
 71
     3
 72
     8
 73
     4
 74
     0
 42
0.0000000001
 43
0.0000000001
 40
0.0
 40
0.0
 40
0.0
 40
0.0
 40
1.0
 40
1.0
 40
1.0
 40
1.0
 10
-8.70878
 20
3.32836
 30
0.0
 10
-8.70878
 20
3.32836
 30
0.0
 10
-8.70878
 20
3.86097
 30
0.0
 10
-8.70878
 20
3.86097
 30
0.0
  0
SPLINE
  5
16A
330
1F
100
AcDbEntity
  8
0
370
    15
100
AcDbSpline
210
0.0
220
0.0
230
1.0
 70
     8
 71
     3
 72
     8
 73
     4
 74
     0
 42
0.0000000001
 43
0.0000000001
 40
0.0
 40
0.0
 40
0.0
 40
0.0
 40
1.0
 40
1.0
 40
1.0
 40
1.0
 10
-8.68497
 20
3.87836
 30
0.0
 10
-8.69585
 20
3.87836
 30
0.0
 10
-8.70547
 20
3.87133
 30
0.0
 10
-8.70878
 20
3.86097
 30
0.0
  0
SPLINE
  5
16B
330
1F
100
AcDbEntity
  8
0
370
    15
100
AcDbSpline
210
0.0
220
0.0
230
1.0
 70
    24
 71
     3
 72
     8
 73
     4
 74
     0
 42
0.0000000001
 43
0.0000000001
 40
0.0
 40
0.0
 40
0.0
 40
0.0
 40
1.0
 40
1.0
 40
1.0
 40
1.0
 10
-8.68497
 20
3.87836
 30
0.0
 10
-8.68497
 20
3.87836
 30
0.0
 10
-8.68497
 20
3.32836
 30
0.0
 10
-8.68497
 20
3.32836
 30
0.0
  0
SPLINE
  5
16C
330
1F
100
AcDbEntity
  8
0
370
    15
100
AcDbSpline
210
0.0
220
0.0
230
1.0
 70
    24
 71
     3
 72
     8
 73
     4
 74
     0
 42
0.0000000001
 43
0.0000000001
 40
0.0
 40
0.0
 40
0.0
 40
0.0
 40
1.0
 40
1.0
 40
1.0
 40
1.0
 10
-8.70878
 20
3.32836
 30
0.0
 10
-8.70878
 20
3.32836
 30
0.0
 10
-8.68497
 20
3.32836
 30
0.0
 10
-8.68497
 20
3.32836
 30
0.0
  0
SPLINE
  5
16D
330
1F
100
AcDbEntity
  8
0
370
    15
100
AcDbSpline
210
0.0
220
0.0
230
1.0
 70
    24
 71
     3
 72
     8
 73
     4
 74
     0
 42
0.0000000001
 43
0.0000000001
 40
0.0
 40
0.0
 40
0.0
 40
0.0
 40
1.0
 40
1.0
 40
1.0
 40
1.0
 10
-8.66543
 20
3.84242
 30
0.0
 10
-8.66543
 20
3.84242
 30
0.0
 10
-8.66543
 20
3.87836
 30
0.0
 10
-8.66543
 20
3.87836
 30
0.0
  0
SPLINE
  5
16E
330
1F
100
AcDbEntity
  8
0
370
    15
100
AcDbSpline
210
0.0
220
0.0
230
1.0
 70
     8
 71
     3
 72
    24
 73
    20
 74
     0
 42
0.0000000001
 43
0.0000000001
 40
0.0
 40
0.0
 40
0.0
 40
0.0
 40
0.1666666666666667
 40
0.1666666666666667
 40
0.1666666666666667
 40
0.1666666666666667
 40
0.3333333333333333
 40
0.3333333333333333
 40
0.3333333333333333
 40
0.3333333333333333
 40
0.5
 40
0.5
 40
0.5
 40
0.5
 40
0.6666666666666666
 40
0.6666666666666666
 40
0.6666666666666666
 40
0.6666666666666666
 40
1.0
 40
1.0
 40
1.0
 40
1.0
 10
-8.50293
 20
3.74892
 30
0.0
 10
-8.51851
 20
3.75003
 30
0.0
 10
-8.53409
 20
3.75114
 30
0.0
 10
-8.54871
 20
3.75426
 30
0.0
 10
-8.54871
 20
3.75426
 30
0.0
 10
-8.5632
 20
3.75735
 30
0.0
 10
-8.57674
 20
3.76241
 30
0.0
 10
-8.58897
 20
3.7681
 30
0.0
 10
-8.58897
 20
3.7681
 30
0.0
 10
-8.60251
 20
3.7744
 30
0.0
 10
-8.61443
 20
3.78148
 30
0.0
 10
-8.62484
 20
3.78893
 30
0.0
 10
-8.62484
 20
3.78893
 30
0.0
 10
-8.63741
 20
3.79794
 30
0.0
 10
-8.64777
 20
3.80751
 30
0.0
 10
-8.65414
 20
3.81633
 30
0.0
 10
-8.65414
 20
3.81633
 30
0.0
 10
-8.66083
 20
3.82558
 30
0.0
 10
-8.66313
 20
3.834
 30
0.0
 10
-8.66543
 20
3.84242
 30
0.0
  0
SPLINE
  5
16F
330
1F
100
AcDbEntity
  8
0
370
    15
100
AcDbSpline
210
0.0
220
0.0
230
1.0
 70
    24
 71
     3
 72
     8
 73
     4
 74
     0
 42
0.0000000001
 43
0.0000000001
 40
0.0
 40
0.0
 40
0.0
 40
0.0
 40
1.0
 40
1.0
 40
1.0
 40
1.0
 10
-5.60293
 20
3.74892
 30
0.0
 10
-5.60293
 20
3.74892
 30
0.0
 10
-8.50293
 20
3.74892
 30
0.0
 10
-8.50293
 20
3.74892
 30
0.0
  0
SPLINE
  5
170
330
1F
100
AcDbEntity
  8
0
370
    15
100
AcDbSpline
210
0.0
220
0.0
230
1.0
 70
     8
 71
     3
 72
    24
 73
    20
 74
     0
 42
0.0000000001
 43
0.0000000001
 40
0.0
 40
0.0
 40
0.0
 40
0.0
 40
0.1666666666666667
 40
0.1666666666666667
 40
0.1666666666666667
 40
0.1666666666666667
 40
0.3333333333333333
 40
0.3333333333333333
 40
0.3333333333333333
 40
0.3333333333333333
 40
0.5
 40
0.5
 40
0.5
 40
0.5
 40
0.6666666666666666
 40
0.6666666666666666
 40
0.6666666666666666
 40
0.6666666666666666
 40
1.0
 40
1.0
 40
1.0
 40
1.0
 10
-5.44043
 20
3.84242
 30
0.0
 10
-5.44258
 20
3.83432
 30
0.0
 10
-5.44473
 20
3.82622
 30
0.0
 10
-5.45094
 20
3.81735
 30
0.0
 10
-5.45094
 20
3.81735
 30
0.0
 10
-5.45717
 20
3.80845
 30
0.0
 10
-5.46746
 20
3.79878
 30
0.0
 10
-5.48013
 20
3.78959
 30
0.0
 10
-5.48013
 20
3.78959
 30
0.0
 10
-5.49374
 20
3.77971
 30
0.0
 10
-5.51008
 20
3.77039
 30
0.0
 10
-5.52909
 20
3.76295
 30
0.0
 10
-5.52909
 20
3.76295
 30
0.0
 10
-5.54235
 20
3.75776
 30
0.0
 10
-5.5569
 20
3.75348
 30
0.0
 10
-5.57211
 20
3.75133
 30
0.0
 10
-5.57211
 20
3.75133
 30
0.0
 10
-5.58219
 20
3.7499
 30
0.0
 10
-5.59256
 20
3.74941
 30
0.0
 10
-5.60293
 20
3.74892
 30
0.0
  0
SPLINE
  5
171
330
1F
100
AcDbEntity
  8
0
370
    15
100
AcDbSpline
210
0.0
220
0.0
230
1.0
 70
    24
 71
     3
 72
     8
 73
     4
 74
     0
 42
0.0000000001
 43
0.0000000001
 40
0.0
 40
0.0
 40
0.0
 40
0.0
 40
1.0
 40
1.0
 40
1.0
 40
1.0
 10
-5.44043
 20
3.87836
 30
0.0
 10
-5.44043
 20
3.87836
 30
0.0
 10
-5.44043
 20
3.84242
 30
0.0
 10
-5.44043
 20
3.84242
 30
0.0
  0
SPLINE
  5
172
330
1F
100
AcDbEntity
  8
0
370
    15
100
AcDbSpline
210
0.0
220
0.0
230
1.0
 70
    24
 71
     3
 72
     8
 73
     4
 74
     0
 42
0.0000000001
 43
0.0000000001
 40
0.0
 40
0.0
 40
0.0
 40
0.0
 40
1.0
 40
1.0
 40
1.0
 40
1.0
 10
-5.4209
 20
3.87836
 30
0.0
 10
-5.4209
 20
3.87836
 30
0.0
 10
-5.44043
 20
3.87836
 30
0.0
 10
-5.44043
 20
3.87836
 30
0.0
  0
SPLINE
  5
173
330
1F
100
AcDbEntity
  8
0
370
    15
100
AcDbSpline
210
0.0
220
0.0
230
1.0
 70
    24
 71
     3
 72
     8
 73
     4
 74
     0
 42
0.0000000001
 43
0.0000000001
 40
0.0
 40
0.0
 40
0.0
 40
0.0
 40
1.0
 40
1.0
 40
1.0
 40
1.0
 10
-5.4209
 20
3.32836
 30
0.0
 10
-5.4209
 20
3.32836
 30
0.0
 10
-5.4209
 20
3.87836
 30
0.0
 10
-5.4209
 20
3.87836
 30
0.0
  0
SPLINE
  5
174
330
1F
100
AcDbEntity
  8
0
370
    15
100
AcDbSpline
210
0.0
220
0.0
230
1.0
 70
    24
 71
     3
 72
     8
 73
     4
 74
     0
 42
0.0000000001
 43
0.0000000001
 40
0.0
 40
0.0
 40
0.0
 40
0.0
 40
1.0
 40
1.0
 40
1.0
 40
1.0
 10
-5.4209
 20
3.32836
 30
0.0
 10
-5.4209
 20
3.32836
 30
0.0
 10
-8.68497
 20
3.32836
 30
0.0
 10
-8.68497
 20
3.32836
 30
0.0
  0
SPLINE
  5
175
330
1F
100
AcDbEntity
  8
0
370
    15
100
AcDbSpline
210
0.0
220
0.0
230
1.0
 70
    24
 71
     3
 72
     8
 73
     4
 74
     0
 42
0.0000000001
 43
0.0000000001
 40
0.0
 40
0.0
 40
0.0
 40
0.0
 40
1.0
 40
1.0
 40
1.0
 40
1.0
 10
-8.66543
 20
3.87836
 30
0.0
 10
-8.66543
 20
3.87836
 30
0.0
 10
-8.68497
 20
3.87836
 30
0.0
 10
-8.68497
 20
3.87836
 30
0.0
  0
SPLINE
  5
176
330
1F
100
AcDbEntity
  8
0
370
    15
100
AcDbSpline
210
0.0
220
0.0
230
1.0
 70
    24
 71
     3
 72
     8
 73
     4
 74
     0
 42
0.0000000001
 43
0.0000000001
 40
0.0
 40
0.0
 40
0.0
 40
0.0
 40
1.0
 40
1.0
 40
1.0
 40
1.0
 10
-5.39708
 20
3.86097
 30
0.0
 10
-5.39708
 20
3.86097
 30
0.0
 10
-5.39708
 20
3.32836
 30
0.0
 10
-5.39708
 20
3.32836
 30
0.0
  0
SPLINE
  5
177
330
1F
100
AcDbEntity
  8
0
370
    15
100
AcDbSpline
210
0.0
220
0.0
230
1.0
 70
    24
 71
     3
 72
     8
 73
     4
 74
     0
 42
0.0000000001
 43
0.0000000001
 40
0.0
 40
0.0
 40
0.0
 40
0.0
 40
1.0
 40
1.0
 40
1.0
 40
1.0
 10
-5.39708
 20
3.32836
 30
0.0
 10
-5.39708
 20
3.32836
 30
0.0
 10
-5.4209
 20
3.32836
 30
0.0
 10
-5.4209
 20
3.32836
 30
0.0
  0
SPLINE
  5
178
330
1F
100
AcDbEntity
  8
0
370
    15
100
AcDbSpline
210
0.0
220
0.0
230
1.0
 70
     8
 71
     3
 72
     8
 73
     4
 74
     0
 42
0.0000000001
 43
0.0000000001
 40
0.0
 40
0.0
 40
0.0
 40
0.0
 40
1.0
 40
1.0
 40
1.0
 40
1.0
 10
-5.39708
 20
3.86097
 30
0.0
 10
-5.40039
 20
3.87133
 30
0.0
 10
-5.41002
 20
3.87836
 30
0.0
 10
-5.4209
 20
3.87836
 30
0.0
  0
SPLINE
  5
179
330
1F
100
AcDbEntity
  8
0
370
    15
100
AcDbSpline
210
0.0
220
0.0
230
1.0
 70
    24
 71
     3
 72
     8
 73
     4
 74
     0
 42
0.0000000001
 43
0.0000000001
 40
0.0
 40
0.0
 40
0.0
 40
0.0
 40
1.0
 40
1.0
 40
1.0
 40
1.0
 10
-5.4209
 20
2.17278
 30
0.0
 10
-5.4209
 20
2.17278
 30
0.0
 10
-5.4209
 20
3.32836
 30
0.0
 10
-5.4209
 20
3.32836
 30
0.0
  0
SPLINE
  5
17A
330
1F
100
AcDbEntity
  8
0
370
    15
100
AcDbSpline
210
0.0
220
0.0
230
1.0
 70
     8
 71
     3
 72
     8
 73
     4
 74
     0
 42
0.0000000001
 43
0.0000000001
 40
0.0
 40
0.0
 40
0.0
 40
0.0
 40
1.0
 40
1.0
 40
1.0
 40
1.0
 10
-5.4209
 20
2.17278
 30
0.0
 10
-5.4209
 20
2.13333
 30
0.0
 10
-5.41218
 20
2.09435
 30
0.0
 10
-5.39538
 20
2.05865
 30
0.0
  0
SPLINE
  5
17B
330
1F
100
AcDbEntity
  8
0
370
    15
100
AcDbSpline
210
0.0
220
0.0
230
1.0
 70
     8
 71
     3
 72
     8
 73
     4
 74
     0
 42
0.0000000001
 43
0.0000000001
 40
0.0
 40
0.0
 40
0.0
 40
0.0
 40
1.0
 40
1.0
 40
1.0
 40
1.0
 10
-8.71049
 20
2.05865
 30
0.0
 10
-8.69368
 20
2.09435
 30
0.0
 10
-8.68497
 20
2.13332
 30
0.0
 10
-8.68497
 20
2.17278
 30
0.0
  0
SPLINE
  5
17C
330
1F
100
AcDbEntity
  8
0
370
    15
100
AcDbSpline
210
0.0
220
0.0
230
1.0
 70
    24
 71
     3
 72
     8
 73
     4
 74
     0
 42
0.0000000001
 43
0.0000000001
 40
0.0
 40
0.0
 40
0.0
 40
0.0
 40
1.0
 40
1.0
 40
1.0
 40
1.0
 10
-8.68497
 20
3.32836
 30
0.0
 10
-8.68497
 20
3.32836
 30
0.0
 10
-8.68497
 20
2.17278
 30
0.0
 10
-8.68497
 20
2.17278
 30
0.0
  0
SPLINE
  5
17D
330
1F
100
AcDbEntity
  8
0
370
    15
100
AcDbSpline
210
0.0
220
0.0
230
1.0
 70
     8
 71
     3
 72
     8
 73
     4
 74
     0
 42
0.0000000001
 43
0.0000000001
 40
0.0
 40
0.0
 40
0.0
 40
0.0
 40
1.0
 40
1.0
 40
1.0
 40
1.0
 10
-8.75291
 20
1.26987
 30
0.0
 10
-8.74853
 20
0.39239
 30
0.0
 10
-8.07701
 20
-0.33759
 30
0.0
 10
-7.20293
 20
-0.41501
 30
0.0
  0
SPLINE
  5
17E
330
1F
100
AcDbEntity
  8
0
370
    15
100
AcDbSpline
210
0.0
220
0.0
230
1.0
 70
    24
 71
     3
 72
     8
 73
     4
 74
     0
 42
0.0000000001
 43
0.0000000001
 40
0.0
 40
0.0
 40
0.0
 40
0.0
 40
1.0
 40
1.0
 40
1.0
 40
1.0
 10
-8.70878
 20
2.17278
 30
0.0
 10
-8.70878
 20
2.17278
 30
0.0
 10
-8.70878
 20
3.32836
 30
0.0
 10
-8.70878
 20
3.32836
 30
0.0
  0
SPLINE
  5
17F
330
1F
100
AcDbEntity
  8
0
370
    15
100
AcDbSpline
210
0.0
220
0.0
230
1.0
 70
    24
 71
     3
 72
     8
 73
     4
 74
     0
 42
0.0000000001
 43
0.0000000001
 40
0.0
 40
0.0
 40
0.0
 40
0.0
 40
1.0
 40
1.0
 40
1.0
 40
1.0
 10
-8.70878
 20
2.17278
 30
0.0
 10
-8.70878
 20
2.17278
 30
0.0
 10
-8.68497
 20
2.17278
 30
0.0
 10
-8.68497
 20
2.17278
 30
0.0
  0
SPLINE
  5
180
330
1F
100
AcDbEntity
  8
0
370
    15
100
AcDbSpline
210
0.0
220
0.0
230
1.0
 70
    24
 71
     3
 72
     8
 73
     4
 74
     0
 42
0.0000000001
 43
0.0000000001
 40
0.0
 40
0.0
 40
0.0
 40
0.0
 40
1.0
 40
1.0
 40
1.0
 40
1.0
 10
-5.39708
 20
3.32836
 30
0.0
 10
-5.39708
 20
3.32836
 30
0.0
 10
-5.39708
 20
2.17278
 30
0.0
 10
-5.39708
 20
2.17278
 30
0.0
  0
SPLINE
  5
181
330
1F
100
AcDbEntity
  8
0
370
    15
100
AcDbSpline
210
0.0
220
0.0
230
1.0
 70
    24
 71
     3
 72
     8
 73
     4
 74
     0
 42
0.0000000001
 43
0.0000000001
 40
0.0
 40
0.0
 40
0.0
 40
0.0
 40
1.0
 40
1.0
 40
1.0
 40
1.0
 10
-5.39708
 20
2.17278
 30
0.0
 10
-5.39708
 20
2.17278
 30
0.0
 10
-5.4209
 20
2.17278
 30
0.0
 10
-5.4209
 20
2.17278
 30
0.0
  0
SPLINE
  5
182
330
1F
100
AcDbEntity
  8
0
370
    15
100
AcDbSpline
210
0.0
220
0.0
230
1.0
 70
     8
 71
     3
 72
     8
 73
     4
 74
     0
 42
0.0000000001
 43
0.0000000001
 40
0.0
 40
0.0
 40
0.0
 40
0.0
 40
1.0
 40
1.0
 40
1.0
 40
1.0
 10
-5.39708
 20
2.17278
 30
0.0
 10
-5.39708
 20
2.13683
 30
0.0
 10
-5.38914
 20
2.10132
 30
0.0
 10
-5.37383
 20
2.0688
 30
0.0
  0
SPLINE
  5
183
330
1F
100
AcDbEntity
  8
0
370
    15
100
AcDbSpline
210
0.0
220
0.0
230
1.0
 70
    24
 71
     3
 72
     8
 73
     4
 74
     0
 42
0.0000000001
 43
0.0000000001
 40
0.0
 40
0.0
 40
0.0
 40
0.0
 40
1.0
 40
1.0
 40
1.0
 40
1.0
 10
-5.37383
 20
2.0688
 30
0.0
 10
-5.37383
 20
2.0688
 30
0.0
 10
-5.39538
 20
2.05865
 30
0.0
 10
-5.39538
 20
2.05865
 30
0.0
  0
SPLINE
  5
184
330
1F
100
AcDbEntity
  8
0
370
    15
100
AcDbSpline
210
0.0
220
0.0
230
1.0
 70
     8
 71
     3
 72
     8
 73
     4
 74
     0
 42
0.0000000001
 43
0.0000000001
 40
0.0
 40
0.0
 40
0.0
 40
0.0
 40
1.0
 40
1.0
 40
1.0
 40
1.0
 10
-8.73204
 20
2.0688
 30
0.0
 10
-8.71672
 20
2.10132
 30
0.0
 10
-8.70878
 20
2.13683
 30
0.0
 10
-8.70878
 20
2.17278
 30
0.0
  0
SPLINE
  5
185
330
1F
100
AcDbEntity
  8
0
370
    15
100
AcDbSpline
210
0.0
220
0.0
230
1.0
 70
    24
 71
     3
 72
     8
 73
     4
 74
     0
 42
0.0000000001
 43
0.0000000001
 40
0.0
 40
0.0
 40
0.0
 40
0.0
 40
1.0
 40
1.0
 40
1.0
 40
1.0
 10
-8.73204
 20
2.0688
 30
0.0
 10
-8.73204
 20
2.0688
 30
0.0
 10
-8.71049
 20
2.05865
 30
0.0
 10
-8.71049
 20
2.05865
 30
0.0
  0
SPLINE
  5
186
330
1F
100
AcDbEntity
  8
0
370
    15
100
AcDbSpline
210
0.0
220
0.0
230
1.0
 70
     8
 71
     3
 72
     8
 73
     4
 74
     0
 42
0.0000000001
 43
0.0000000001
 40
0.0
 40
0.0
 40
0.0
 40
0.0
 40
1.0
 40
1.0
 40
1.0
 40
1.0
 10
-5.36862
 20
3.67836
 30
0.0
 10
-5.36862
 20
3.74033
 30
0.0
 10
-5.37822
 20
3.80193
 30
0.0
 10
-5.39708
 20
3.86097
 30
0.0
  0
SPLINE
  5
187
330
1F
100
AcDbEntity
  8
0
370
    15
100
AcDbSpline
210
0.0
220
0.0
230
1.0
 70
     8
 71
     3
 72
     8
 73
     4
 74
     0
 42
0.0000000001
 43
0.0000000001
 40
0.0
 40
0.0
 40
0.0
 40
0.0
 40
1.0
 40
1.0
 40
1.0
 40
1.0
 10
-8.70878
 20
3.86097
 30
0.0
 10
-8.72765
 20
3.80193
 30
0.0
 10
-8.73725
 20
3.74033
 30
0.0
 10
-8.73725
 20
3.67836
 30
0.0
  0
SPLINE
  5
188
330
1F
100
AcDbEntity
  8
0
370
    15
100
AcDbSpline
210
0.0
220
0.0
230
1.0
 70
    24
 71
     3
 72
     8
 73
     4
 74
     0
 42
0.0000000001
 43
0.0000000001
 40
0.0
 40
0.0
 40
0.0
 40
0.0
 40
1.0
 40
1.0
 40
1.0
 40
1.0
 10
-5.60293
 20
3.74892
 30
0.0
 10
-5.60293
 20
3.74892
 30
0.0
 10
-5.60293
 20
3.75847
 30
0.0
 10
-5.60293
 20
3.75847
 30
0.0
  0
SPLINE
  5
189
330
1F
100
AcDbEntity
  8
0
370
    15
100
AcDbSpline
210
0.0
220
0.0
230
1.0
 70
     8
 71
     3
 72
    24
 73
    20
 74
     0
 42
0.0000000001
 43
0.0000000001
 40
0.0
 40
0.0
 40
0.0
 40
0.0
 40
0.1666666666666667
 40
0.1666666666666667
 40
0.1666666666666667
 40
0.1666666666666667
 40
0.3333333333333333
 40
0.3333333333333333
 40
0.3333333333333333
 40
0.3333333333333333
 40
0.5
 40
0.5
 40
0.5
 40
0.5
 40
0.6666666666666666
 40
0.6666666666666666
 40
0.6666666666666666
 40
0.6666666666666666
 40
1.0
 40
1.0
 40
1.0
 40
1.0
 10
-5.60293
 20
3.75847
 30
0.0
 10
-5.59335
 20
3.75898
 30
0.0
 10
-5.58377
 20
3.75949
 30
0.0
 10
-5.57448
 20
3.76094
 30
0.0
 10
-5.57448
 20
3.76094
 30
0.0
 10
-5.56036
 20
3.76315
 30
0.0
 10
-5.54693
 20
3.76755
 30
0.0
 10
-5.53477
 20
3.77283
 30
0.0
 10
-5.53477
 20
3.77283
 30
0.0
 10
-5.51707
 20
3.7805
 30
0.0
 10
-5.50205
 20
3.79004
 30
0.0
 10
-5.48958
 20
3.80007
 30
0.0
 10
-5.48958
 20
3.80007
 30
0.0
 10
-5.47785
 20
3.8095
 30
0.0
 10
-5.46837
 20
3.81938
 30
0.0
 10
-5.46264
 20
3.82846
 30
0.0
 10
-5.46264
 20
3.82846
 30
0.0
 10
-5.45691
 20
3.83754
 30
0.0
 10
-5.45492
 20
3.84582
 30
0.0
 10
-5.45293
 20
3.8541
 30
0.0
  0
SPLINE
  5
18A
330
1F
100
AcDbEntity
  8
0
370
    15
100
AcDbSpline
210
0.0
220
0.0
230
1.0
 70
     8
 71
     3
 72
     8
 73
     4
 74
     0
 42
0.0000000001
 43
0.0000000001
 40
0.0
 40
0.0
 40
0.0
 40
0.0
 40
1.0
 40
1.0
 40
1.0
 40
1.0
 10
-5.45293
 20
3.8541
 30
0.0
 10
-5.4527
 20
3.84743
 30
0.0
 10
-5.44711
 20
3.8422
 30
0.0
 10
-5.44043
 20
3.84242
 30
0.0
  0
SPLINE
  5
18B
330
1F
100
AcDbEntity
  8
0
370
    15
100
AcDbSpline
210
0.0
220
0.0
230
1.0
 70
     8
 71
     3
 72
     8
 73
     4
 74
     0
 42
0.0000000001
 43
0.0000000001
 40
0.0
 40
0.0
 40
0.0
 40
0.0
 40
1.0
 40
1.0
 40
1.0
 40
1.0
 10
-8.66543
 20
3.84242
 30
0.0
 10
-8.65876
 20
3.8422
 30
0.0
 10
-8.65317
 20
3.84743
 30
0.0
 10
-8.65293
 20
3.8541
 30
0.0
  0
SPLINE
  5
18C
330
1F
100
AcDbEntity
  8
0
370
    15
100
AcDbSpline
210
0.0
220
0.0
230
1.0
 70
     8
 71
     3
 72
    24
 73
    20
 74
     0
 42
0.0000000001
 43
0.0000000001
 40
0.0
 40
0.0
 40
0.0
 40
0.0
 40
0.1666666666666667
 40
0.1666666666666667
 40
0.1666666666666667
 40
0.1666666666666667
 40
0.3333333333333333
 40
0.3333333333333333
 40
0.3333333333333333
 40
0.3333333333333333
 40
0.5
 40
0.5
 40
0.5
 40
0.5
 40
0.6666666666666666
 40
0.6666666666666666
 40
0.6666666666666666
 40
0.6666666666666666
 40
1.0
 40
1.0
 40
1.0
 40
1.0
 10
-8.65293
 20
3.8541
 30
0.0
 10
-8.65081
 20
3.84549
 30
0.0
 10
-8.64868
 20
3.83688
 30
0.0
 10
-8.64251
 20
3.82742
 30
0.0
 10
-8.64251
 20
3.82742
 30
0.0
 10
-8.63664
 20
3.81842
 30
0.0
 10
-8.62711
 20
3.80865
 30
0.0
 10
-8.61546
 20
3.7994
 30
0.0
 10
-8.61546
 20
3.7994
 30
0.0
 10
-8.60591
 20
3.79181
 30
0.0
 10
-8.59493
 20
3.78458
 30
0.0
 10
-8.58235
 20
3.77809
 30
0.0
 10
-8.58235
 20
3.77809
 30
0.0
 10
-8.57114
 20
3.7723
 30
0.0
 10
-8.55865
 20
3.76711
 30
0.0
 10
-8.54519
 20
3.76394
 30
0.0
 10
-8.54519
 20
3.76394
 30
0.0
 10
-8.53175
 20
3.76077
 30
0.0
 10
-8.51734
 20
3.75962
 30
0.0
 10
-8.50293
 20
3.75847
 30
0.0
  0
SPLINE
  5
18D
330
1F
100
AcDbEntity
  8
0
370
    15
100
AcDbSpline
210
0.0
220
0.0
230
1.0
 70
    24
 71
     3
 72
     8
 73
     4
 74
     0
 42
0.0000000001
 43
0.0000000001
 40
0.0
 40
0.0
 40
0.0
 40
0.0
 40
1.0
 40
1.0
 40
1.0
 40
1.0
 10
-8.50293
 20
3.74892
 30
0.0
 10
-8.50293
 20
3.74892
 30
0.0
 10
-8.50293
 20
3.75847
 30
0.0
 10
-8.50293
 20
3.75847
 30
0.0
  0
SPLINE
  5
18E
330
1F
100
AcDbEntity
  8
0
370
    15
100
AcDbSpline
210
0.0
220
0.0
230
1.0
 70
    24
 71
     3
 72
     8
 73
     4
 74
     0
 42
0.0000000001
 43
0.0000000001
 40
0.0
 40
0.0
 40
0.0
 40
0.0
 40
1.0
 40
1.0
 40
1.0
 40
1.0
 10
-8.50293
 20
3.75847
 30
0.0
 10
-8.50293
 20
3.75847
 30
0.0
 10
-5.60293
 20
3.75847
 30
0.0
 10
-5.60293
 20
3.75847
 30
0.0
  0
SPLINE
  5
18F
330
1F
100
AcDbEntity
  8
0
370
    15
100
AcDbSpline
210
0.0
220
0.0
230
1.0
 70
    24
 71
     3
 72
     8
 73
     4
 74
     0
 42
0.0000000001
 43
0.0000000001
 40
0.0
 40
0.0
 40
0.0
 40
0.0
 40
1.0
 40
1.0
 40
1.0
 40
1.0
 10
-5.60293
 20
3.97836
 30
0.0
 10
-5.60293
 20
3.97836
 30
0.0
 10
-5.45293
 20
3.97836
 30
0.0
 10
-5.45293
 20
3.97836
 30
0.0
  0
SPLINE
  5
190
330
1F
100
AcDbEntity
  8
0
370
    15
100
AcDbSpline
210
0.0
220
0.0
230
1.0
 70
    24
 71
     3
 72
     8
 73
     4
 74
     0
 42
0.0000000001
 43
0.0000000001
 40
0.0
 40
0.0
 40
0.0
 40
0.0
 40
1.0
 40
1.0
 40
1.0
 40
1.0
 10
-5.45293
 20
3.97836
 30
0.0
 10
-5.45293
 20
3.97836
 30
0.0
 10
-5.45293
 20
3.8541
 30
0.0
 10
-5.45293
 20
3.8541
 30
0.0
  0
SPLINE
  5
191
330
1F
100
AcDbEntity
  8
0
370
    15
100
AcDbSpline
210
0.0
220
0.0
230
1.0
 70
    24
 71
     3
 72
     8
 73
     4
 74
     0
 42
0.0000000001
 43
0.0000000001
 40
0.0
 40
0.0
 40
0.0
 40
0.0
 40
1.0
 40
1.0
 40
1.0
 40
1.0
 10
-5.60293
 20
3.75847
 30
0.0
 10
-5.60293
 20
3.75847
 30
0.0
 10
-5.60293
 20
3.97836
 30
0.0
 10
-5.60293
 20
3.97836
 30
0.0
  0
SPLINE
  5
192
330
1F
100
AcDbEntity
  8
0
370
    15
100
AcDbSpline
210
0.0
220
0.0
230
1.0
 70
    24
 71
     3
 72
     8
 73
     4
 74
     0
 42
0.0000000001
 43
0.0000000001
 40
0.0
 40
0.0
 40
0.0
 40
0.0
 40
1.0
 40
1.0
 40
1.0
 40
1.0
 10
-8.50293
 20
3.97836
 30
0.0
 10
-8.50293
 20
3.97836
 30
0.0
 10
-8.50293
 20
3.75847
 30
0.0
 10
-8.50293
 20
3.75847
 30
0.0
  0
SPLINE
  5
193
330
1F
100
AcDbEntity
  8
0
370
    15
100
AcDbSpline
210
0.0
220
0.0
230
1.0
 70
    24
 71
     3
 72
     8
 73
     4
 74
     0
 42
0.0000000001
 43
0.0000000001
 40
0.0
 40
0.0
 40
0.0
 40
0.0
 40
1.0
 40
1.0
 40
1.0
 40
1.0
 10
-8.65293
 20
3.8541
 30
0.0
 10
-8.65293
 20
3.8541
 30
0.0
 10
-8.65293
 20
3.97836
 30
0.0
 10
-8.65293
 20
3.97836
 30
0.0
  0
SPLINE
  5
194
330
1F
100
AcDbEntity
  8
0
370
    15
100
AcDbSpline
210
0.0
220
0.0
230
1.0
 70
    24
 71
     3
 72
     8
 73
     4
 74
     0
 42
0.0000000001
 43
0.0000000001
 40
0.0
 40
0.0
 40
0.0
 40
0.0
 40
1.0
 40
1.0
 40
1.0
 40
1.0
 10
-8.65293
 20
3.97836
 30
0.0
 10
-8.65293
 20
3.97836
 30
0.0
 10
-8.50293
 20
3.97836
 30
0.0
 10
-8.50293
 20
3.97836
 30
0.0
  0
SPLINE
  5
195
330
1F
100
AcDbEntity
  8
0
370
    15
100
AcDbSpline
210
0.0
220
0.0
230
1.0
 70
    24
 71
     3
 72
     8
 73
     4
 74
     0
 42
0.0000000001
 43
0.0000000001
 40
0.0
 40
0.0
 40
0.0
 40
0.0
 40
1.0
 40
1.0
 40
1.0
 40
1.0
 10
-8.50293
 20
3.97836
 30
0.0
 10
-8.50293
 20
3.97836
 30
0.0
 10
-5.60293
 20
3.97836
 30
0.0
 10
-5.60293
 20
3.97836
 30
0.0
  0
SPLINE
  5
196
330
1F
100
AcDbEntity
  8
0
370
    15
100
AcDbSpline
210
0.0
220
0.0
230
1.0
 70
     8
 71
     3
 72
    12
 73
     8
 74
     0
 42
0.0000000001
 43
0.0000000001
 40
0.0
 40
0.0
 40
0.0
 40
0.0
 40
0.3333333333333333
 40
0.3333333333333333
 40
0.3333333333333333
 40
0.3333333333333333
 40
1.0
 40
1.0
 40
1.0
 40
1.0
 10
-5.45293
 20
3.89086
 30
0.0
 10
-5.45293
 20
3.88754
 30
0.0
 10
-5.45162
 20
3.88436
 30
0.0
 10
-5.44927
 20
3.88202
 30
0.0
 10
-5.44927
 20
3.88202
 30
0.0
 10
-5.44693
 20
3.87967
 30
0.0
 10
-5.44375
 20
3.87836
 30
0.0
 10
-5.44043
 20
3.87836
 30
0.0
  0
SPLINE
  5
197
330
1F
100
AcDbEntity
  8
0
370
    15
100
AcDbSpline
210
0.0
220
0.0
230
1.0
 70
     8
 71
     3
 72
     8
 73
     4
 74
     0
 42
0.0000000001
 43
0.0000000001
 40
0.0
 40
0.0
 40
0.0
 40
0.0
 40
1.0
 40
1.0
 40
1.0
 40
1.0
 10
-8.66543
 20
3.87836
 30
0.0
 10
-8.65853
 20
3.87836
 30
0.0
 10
-8.65293
 20
3.88395
 30
0.0
 10
-8.65293
 20
3.89086
 30
0.0
  0
SPLINE
  5
198
330
1F
100
AcDbEntity
  8
0
370
    15
100
AcDbSpline
210
0.0
220
0.0
230
1.0
 70
    24
 71
     3
 72
     8
 73
     4
 74
     0
 42
0.0000000001
 43
0.0000000001
 40
0.0
 40
0.0
 40
0.0
 40
0.0
 40
1.0
 40
1.0
 40
1.0
 40
1.0
 10
-5.77897
 20
3.99336
 30
0.0
 10
-5.77897
 20
3.99336
 30
0.0
 10
-5.76543
 20
3.99336
 30
0.0
 10
-5.76543
 20
3.99336
 30
0.0
  0
SPLINE
  5
199
330
1F
100
AcDbEntity
  8
0
370
    15
100
AcDbSpline
210
0.0
220
0.0
230
1.0
 70
    24
 71
     3
 72
     8
 73
     4
 74
     0
 42
0.0000000001
 43
0.0000000001
 40
0.0
 40
0.0
 40
0.0
 40
0.0
 40
1.0
 40
1.0
 40
1.0
 40
1.0
 10
-5.76543
 20
3.97836
 30
0.0
 10
-5.76543
 20
3.97836
 30
0.0
 10
-5.76543
 20
3.99336
 30
0.0
 10
-5.76543
 20
3.99336
 30
0.0
  0
SPLINE
  5
19A
330
1F
100
AcDbEntity
  8
0
370
    15
100
AcDbSpline
210
0.0
220
0.0
230
1.0
 70
    24
 71
     3
 72
     8
 73
     4
 74
     0
 42
0.0000000001
 43
0.0000000001
 40
0.0
 40
0.0
 40
0.0
 40
0.0
 40
1.0
 40
1.0
 40
1.0
 40
1.0
 10
-5.77897
 20
3.97836
 30
0.0
 10
-5.77897
 20
3.97836
 30
0.0
 10
-5.77897
 20
3.99336
 30
0.0
 10
-5.77897
 20
3.99336
 30
0.0
  0
SPLINE
  5
19B
330
1F
100
AcDbEntity
  8
0
370
    15
100
AcDbSpline
210
0.0
220
0.0
230
1.0
 70
    24
 71
     3
 72
     8
 73
     4
 74
     0
 42
0.0000000001
 43
0.0000000001
 40
0.0
 40
0.0
 40
0.0
 40
0.0
 40
1.0
 40
1.0
 40
1.0
 40
1.0
 10
-8.3269
 20
3.99336
 30
0.0
 10
-8.3269
 20
3.99336
 30
0.0
 10
-8.34043
 20
3.99336
 30
0.0
 10
-8.34043
 20
3.99336
 30
0.0
  0
SPLINE
  5
19C
330
1F
100
AcDbEntity
  8
0
370
    15
100
AcDbSpline
210
0.0
220
0.0
230
1.0
 70
    24
 71
     3
 72
     8
 73
     4
 74
     0
 42
0.0000000001
 43
0.0000000001
 40
0.0
 40
0.0
 40
0.0
 40
0.0
 40
1.0
 40
1.0
 40
1.0
 40
1.0
 10
-8.3269
 20
3.99336
 30
0.0
 10
-8.3269
 20
3.99336
 30
0.0
 10
-8.3269
 20
3.97836
 30
0.0
 10
-8.3269
 20
3.97836
 30
0.0
  0
SPLINE
  5
19D
330
1F
100
AcDbEntity
  8
0
370
    15
100
AcDbSpline
210
0.0
220
0.0
230
1.0
 70
    24
 71
     3
 72
     8
 73
     4
 74
     0
 42
0.0000000001
 43
0.0000000001
 40
0.0
 40
0.0
 40
0.0
 40
0.0
 40
1.0
 40
1.0
 40
1.0
 40
1.0
 10
-8.34043
 20
3.99336
 30
0.0
 10
-8.34043
 20
3.99336
 30
0.0
 10
-8.34043
 20
3.97836
 30
0.0
 10
-8.34043
 20
3.97836
 30
0.0
  0
SPLINE
  5
19E
330
1F
100
AcDbEntity
  8
0
370
    15
100
AcDbSpline
210
0.0
220
0.0
230
1.0
 70
    24
 71
     3
 72
     8
 73
     4
 74
     0
 42
0.0000000001
 43
0.0000000001
 40
0.0
 40
0.0
 40
0.0
 40
0.0
 40
1.0
 40
1.0
 40
1.0
 40
1.0
 10
-5.77897
 20
3.99336
 30
0.0
 10
-5.77897
 20
3.99336
 30
0.0
 10
-8.3269
 20
3.99336
 30
0.0
 10
-8.3269
 20
3.99336
 30
0.0
  0
SPLINE
  5
19F
330
1F
100
AcDbEntity
  8
0
 62
     8
370
    15
100
AcDbSpline
210
0.0
220
0.0
230
1.0
 70
     8
 71
     3
 72
    20
 73
    16
 74
     0
 42
0.0000000001
 43
0.0000000001
 40
0.0
 40
0.0
 40
0.0
 40
0.0
 40
0.2
 40
0.2
 40
0.2
 40
0.2
 40
0.4
 40
0.4
 40
0.4
 40
0.4
 40
0.6
 40
0.6
 40
0.6
 40
0.6
 40
1.0
 40
1.0
 40
1.0
 40
1.0
 10
-6.90293
 20
0.47982
 30
0.0
 10
-6.4906
 20
0.55728
 30
0.0
 10
-6.20504
 20
0.93594
 30
0.0
 10
-6.24393
 20
1.35368
 30
0.0
 10
-6.24393
 20
1.35368
 30
0.0
 10
-6.28283
 20
1.77142
 30
0.0
 10
-6.63338
 20
2.09086
 30
0.0
 10
-7.05293
 20
2.09086
 30
0.0
 10
-7.05293
 20
2.09086
 30
0.0
 10
-7.47248
 20
2.09086
 30
0.0
 10
-7.82304
 20
1.77143
 30
0.0
 10
-7.86193
 20
1.35368
 30
0.0
 10
-7.86193
 20
1.35368
 30
0.0
 10
-7.90083
 20
0.93594
 30
0.0
 10
-7.61527
 20
0.55728
 30
0.0
 10
-7.20294
 20
0.47982
 30
0.0
  0
SPLINE
  5
1A0
330
1F
100
AcDbEntity
  8
0
 62
     8
370
    15
100
AcDbSpline
210
0.0
220
0.0
230
1.0
 70
     8
 71
     3
 72
     8
 73
     4
 74
     0
 42
0.0000000001
 43
0.0000000001
 40
0.0
 40
0.0
 40
0.0
 40
0.0
 40
1.0
 40
1.0
 40
1.0
 40
1.0
 10
-8.72791
 20
1.27
 30
0.0
 10
-8.7236
 20
0.40626
 30
0.0
 10
-8.06321
 20
-0.31256
 30
0.0
 10
-7.20293
 20
-0.38991
 30
0.0
  0
SPLINE
  5
1A1
330
1F
100
AcDbEntity
  8
0
 62
     8
370
    15
100
AcDbSpline
210
0.0
220
0.0
230
1.0
 70
     8
 71
     3
 72
    16
 73
    12
 74
     0
 42
0.0000000001
 43
0.0000000001
 40
0.0
 40
0.0
 40
0.0
 40
0.0
 40
0.25
 40
0.25
 40
0.25
 40
0.25
 40
0.5
 40
0.5
 40
0.5
 40
0.5
 40
1.0
 40
1.0
 40
1.0
 40
1.0
 10
-6.90293
 20
-0.38991
 30
0.0
 10
-5.99991
 20
-0.30872
 30
0.0
 10
-5.32542
 20
0.47626
 30
0.0
 10
-5.38109
 20
1.38121
 30
0.0
 10
-5.38109
 20
1.38121
 30
0.0
 10
-5.43677
 20
2.28616
 30
0.0
 10
-6.20239
 20
2.98254
 30
0.0
 10
-7.10856
 20
2.95243
 30
0.0
 10
-7.10856
 20
2.95243
 30
0.0
 10
-8.01472
 20
2.92232
 30
0.0
 10
-8.73243
 20
2.17666
 30
0.0
 10
-8.72791
 20
1.27001
 30
0.0
  0
SPLINE
  5
1A2
330
1F
100
AcDbEntity
  8
0
 62
     8
370
    15
100
AcDbSpline
210
0.0
220
0.0
230
1.0
 70
     8
 71
     3
 72
    12
 73
     8
 74
     0
 42
0.0000000001
 43
0.0000000001
 40
0.0
 40
0.0
 40
0.0
 40
0.0
 40
0.3333333333333333
 40
0.3333333333333333
 40
0.3333333333333333
 40
0.3333333333333333
 40
1.0
 40
1.0
 40
1.0
 40
1.0
 10
-8.71049
 20
2.05865
 30
0.0
 10
-8.96631
 20
1.51523
 30
0.0
 10
-8.93951
 20
0.88093
 30
0.0
 10
-8.63876
 20
0.36103
 30
0.0
 10
-8.63876
 20
0.36103
 30
0.0
 10
-8.33802
 20
-0.15888
 30
0.0
 10
-7.80154
 20
-0.49835
 30
0.0
 10
-7.20293
 20
-0.54753
 30
0.0
  0
SPLINE
  5
1A3
330
1F
100
AcDbEntity
  8
0
 62
     8
370
    15
100
AcDbSpline
210
0.0
220
0.0
230
1.0
 70
     8
 71
     3
 72
    12
 73
     8
 74
     0
 42
0.0000000001
 43
0.0000000001
 40
0.0
 40
0.0
 40
0.0
 40
0.0
 40
0.3333333333333333
 40
0.3333333333333333
 40
0.3333333333333333
 40
0.3333333333333333
 40
1.0
 40
1.0
 40
1.0
 40
1.0
 10
-6.90293
 20
-0.54753
 30
0.0
 10
-6.30433
 20
-0.49835
 30
0.0
 10
-5.76785
 20
-0.15888
 30
0.0
 10
-5.4671
 20
0.36102
 30
0.0
 10
-5.4671
 20
0.36102
 30
0.0
 10
-5.16636
 20
0.88093
 30
0.0
 10
-5.13956
 20
1.51522
 30
0.0
 10
-5.39537
 20
2.05865
 30
0.0
  0
SPLINE
  5
1A4
330
1F
100
AcDbEntity
  8
0
 62
     8
370
    15
100
AcDbSpline
210
0.0
220
0.0
230
1.0
 70
     8
 71
     3
 72
    12
 73
     8
 74
     0
 42
0.0000000001
 43
0.0000000001
 40
0.0
 40
0.0
 40
0.0
 40
0.0
 40
0.3333333333333333
 40
0.3333333333333333
 40
0.3333333333333333
 40
0.3333333333333333
 40
1.0
 40
1.0
 40
1.0
 40
1.0
 10
-6.90293
 20
-0.57142
 30
0.0
 10
-6.29615
 20
-0.52222
 30
0.0
 10
-5.75208
 20
-0.17855
 30
0.0
 10
-5.44698
 20
0.34825
 30
0.0
 10
-5.44698
 20
0.34825
 30
0.0
 10
-5.14188
 20
0.87505
 30
0.0
 10
-5.11454
 20
1.51799
 30
0.0
 10
-5.37383
 20
2.06879
 30
0.0
  0
SPLINE
  5
1A5
330
1F
100
AcDbEntity
  8
0
 62
     8
370
    15
100
AcDbSpline
210
0.0
220
0.0
230
1.0
 70
     8
 71
     3
 72
    12
 73
     8
 74
     0
 42
0.0000000001
 43
0.0000000001
 40
0.0
 40
0.0
 40
0.0
 40
0.0
 40
0.3333333333333333
 40
0.3333333333333333
 40
0.3333333333333333
 40
0.3333333333333333
 40
1.0
 40
1.0
 40
1.0
 40
1.0
 10
-8.73204
 20
2.0688
 30
0.0
 10
-8.99132
 20
1.518
 30
0.0
 10
-8.96399
 20
0.87506
 30
0.0
 10
-8.65889
 20
0.34826
 30
0.0
 10
-8.65889
 20
0.34826
 30
0.0
 10
-8.35379
 20
-0.17855
 30
0.0
 10
-7.80972
 20
-0.52222
 30
0.0
 10
-7.20293
 20
-0.57142
 30
0.0
  0
SPLINE
  5
1A6
330
1F
100
AcDbEntity
  8
0
 62
     8
370
    15
100
AcDbSpline
210
0.0
220
0.0
230
1.0
 70
    24
 71
     3
 72
     8
 73
     4
 74
     0
 42
0.0000000001
 43
0.0000000001
 40
0.0
 40
0.0
 40
0.0
 40
0.0
 40
1.0
 40
1.0
 40
1.0
 40
1.0
 10
-5.39708
 20
3.32836
 30
0.0
 10
-5.39708
 20
3.32836
 30
0.0
 10
-5.36862
 20
3.32836
 30
0.0
 10
-5.36862
 20
3.32836
 30
0.0
  0
SPLINE
  5
1A7
330
1F
100
AcDbEntity
  8
0
 62
     8
370
    15
100
AcDbSpline
210
0.0
220
0.0
230
1.0
 70
    24
 71
     3
 72
     8
 73
     4
 74
     0
 42
0.0000000001
 43
0.0000000001
 40
0.0
 40
0.0
 40
0.0
 40
0.0
 40
1.0
 40
1.0
 40
1.0
 40
1.0
 10
-8.70878
 20
3.32836
 30
0.0
 10
-8.70878
 20
3.32836
 30
0.0
 10
-8.73725
 20
3.32836
 30
0.0
 10
-8.73725
 20
3.32836
 30
0.0
  0
SPLINE
  5
1A8
330
1F
100
AcDbEntity
  8
0
 62
     8
370
    15
100
AcDbSpline
210
0.0
220
0.0
230
1.0
 70
    24
 71
     3
 72
     8
 73
     4
 74
     0
 42
0.0000000001
 43
0.0000000001
 40
0.0
 40
0.0
 40
0.0
 40
0.0
 40
1.0
 40
1.0
 40
1.0
 40
1.0
 10
-5.39708
 20
2.17278
 30
0.0
 10
-5.39708
 20
2.17278
 30
0.0
 10
-5.36862
 20
2.17278
 30
0.0
 10
-5.36862
 20
2.17278
 30
0.0
  0
SPLINE
  5
1A9
330
1F
100
AcDbEntity
  8
0
 62
     8
370
    15
100
AcDbSpline
210
0.0
220
0.0
230
1.0
 70
    24
 71
     3
 72
     8
 73
     4
 74
     0
 42
0.0000000001
 43
0.0000000001
 40
0.0
 40
0.0
 40
0.0
 40
0.0
 40
1.0
 40
1.0
 40
1.0
 40
1.0
 10
-8.70878
 20
2.17278
 30
0.0
 10
-8.70878
 20
2.17278
 30
0.0
 10
-8.73725
 20
2.17278
 30
0.0
 10
-8.73725
 20
2.17278
 30
0.0
  0
SPLINE
  5
1AA
330
1F
100
AcDbEntity
  8
0
 62
     8
370
    15
100
AcDbSpline
210
0.0
220
0.0
230
1.0
 70
    24
 71
     3
 72
     8
 73
     4
 74
     0
 42
0.0000000001
 43
0.0000000001
 40
0.0
 40
0.0
 40
0.0
 40
0.0
 40
1.0
 40
1.0
 40
1.0
 40
1.0
 10
-5.37383
 20
2.0688
 30
0.0
 10
-5.37383
 20
2.0688
 30
0.0
 10
-5.34808
 20
2.08092
 30
0.0
 10
-5.34808
 20
2.08092
 30
0.0
  0
SPLINE
  5
1AB
330
1F
100
AcDbEntity
  8
0
 62
     8
370
    15
100
AcDbSpline
210
0.0
220
0.0
230
1.0
 70
    24
 71
     3
 72
     8
 73
     4
 74
     0
 42
0.0000000001
 43
0.0000000001
 40
0.0
 40
0.0
 40
0.0
 40
0.0
 40
1.0
 40
1.0
 40
1.0
 40
1.0
 10
-8.73204
 20
2.0688
 30
0.0
 10
-8.73204
 20
2.0688
 30
0.0
 10
-8.75779
 20
2.08092
 30
0.0
 10
-8.75779
 20
2.08092
 30
0.0
  0
ENDSEC
  0
SECTION
  2
OBJECTS
  0
DICTIONARY
  5
C
330
0
100
AcDbDictionary
281
     1
  3
ACAD_GROUP
350
D
  3
ACAD_LAYOUT
350
1A
  3
ACAD_MATERIAL
350
3B
  3
ACAD_MLEADERSTYLE
350
1CD
  3
ACAD_MLINESTYLE
350
17
  3
ACAD_PLOTSETTINGS
350
19
  3
ACAD_PLOTSTYLENAME
350
E
  3
ACAD_TABLESTYLE
350
1CC
  3
ACAD_VISUALSTYLE
350
2A
  0
DICTIONARY
  5
D
102
{ACAD_REACTORS
330
C
102
}
330
C
100
AcDbDictionary
281
     1
  0
DICTIONARY
  5
1A
102
{ACAD_REACTORS
330
C
102
}
330
C
100
AcDbDictionary
281
     1
  3
Layout1
350
1E
  3
Layout2
350
26
  3
Model
350
22
  0
DICTIONARY
  5
3B
102
{ACAD_REACTORS
330
C
102
}
330
C
100
AcDbDictionary
281
     1
  3
ByBlock
350
3D
  3
ByLayer
350
3C
  3
Global
350
3E
  0
DICTIONARY
  5
1CD
102
{ACAD_REACTORS
330
C
102
}
330
C
100
AcDbDictionary
281
     1
  0
DICTIONARY
  5
17
102
{ACAD_REACTORS
330
C
102
}
330
C
100
AcDbDictionary
281
     1
  3
Standard
350
18
  0
DICTIONARY
  5
19
102
{ACAD_REACTORS
330
C
102
}
330
C
100
AcDbDictionary
281
     1
  0
ACDBDICTIONARYWDFLT
  5
E
102
{ACAD_REACTORS
330
C
102
}
330
C
100
AcDbDictionary
281
     1
  3
Normal
350
F
100
AcDbDictionaryWithDefault
340
F
  0
DICTIONARY
  5
1CC
102
{ACAD_REACTORS
330
C
102
}
330
C
100
AcDbDictionary
281
     1
  0
DICTIONARY
  5
2A
102
{ACAD_REACTORS
330
C
102
}
330
C
100
AcDbDictionary
281
     1
  3
2dWireframe
350
2F
  3
3D Hidden
350
31
  3
3dWireframe
350
30
  3
Basic
350
32
  3
Brighten
350
36
  3
ColorChange
350
3A
  3
Conceptual
350
34
  3
Dim
350
35
  3
Facepattern
350
39
  3
Flat
350
2B
  3
FlatWithEdges
350
2C
  3
Gouraud
350
2D
  3
GouraudWithEdges
350
2E
  3
Linepattern
350
38
  3
Realistic
350
33
  3
Thicken
350
37
  0
LAYOUT
  5
1E
102
{ACAD_REACTORS
330
1A
102
}
330
1A
100
AcDbPlotSettings
  1

  2
none_device
  4

  6

 40
0.0
 41
0.0
 42
0.0
 43
0.0
 44
0.0
 45
0.0
 46
0.0
 47
0.0
 48
0.0
 49
0.0
140
0.0
141
0.0
142
1.0
143
1.0
 70
   688
 72
     0
 73
     0
 74
     5
  7

 75
    16
 76
     0
 77
     2
 78
   300
147
1.0
148
0.0
149
0.0
100
AcDbLayout
  1
Layout1
 70
     1
 71
     1
 10
0.0
 20
0.0
 11
12.0
 21
9.0
 12
0.0
 22
0.0
 32
0.0
 14
1.000000000000000E+20
 24
1.000000000000000E+20
 34
1.000000000000000E+20
 15
-1.000000000000000E+20
 25
-1.000000000000000E+20
 35
-1.000000000000000E+20
146
0.0
 13
0.0
 23
0.0
 33
0.0
 16
1.0
 26
0.0
 36
0.0
 17
0.0
 27
1.0
 37
0.0
 76
     0
330
1B
  0
LAYOUT
  5
26
102
{ACAD_REACTORS
330
1A
102
}
330
1A
100
AcDbPlotSettings
  1

  2
none_device
  4

  6

 40
0.0
 41
0.0
 42
0.0
 43
0.0
 44
0.0
 45
0.0
 46
0.0
 47
0.0
 48
0.0
 49
0.0
140
0.0
141
0.0
142
1.0
143
1.0
 70
   688
 72
     0
 73
     0
 74
     5
  7

 75
    16
 76
     0
 77
     2
 78
   300
147
1.0
148
0.0
149
0.0
100
AcDbLayout
  1
Layout2
 70
     1
 71
     2
 10
0.0
 20
0.0
 11
0.0
 21
0.0
 12
0.0
 22
0.0
 32
0.0
 14
0.0
 24
0.0
 34
0.0
 15
0.0
 25
0.0
 35
0.0
146
0.0
 13
0.0
 23
0.0
 33
0.0
 16
1.0
 26
0.0
 36
0.0
 17
0.0
 27
1.0
 37
0.0
 76
     0
330
23
  0
LAYOUT
  5
22
102
{ACAD_REACTORS
330
1A
102
}
330
1A
100
AcDbPlotSettings
  1

  2
none_device
  4

  6

 40
0.0
 41
0.0
 42
0.0
 43
0.0
 44
0.0
 45
0.0
 46
0.0
 47
0.0
 48
0.0
 49
0.0
140
0.0
141
0.0
142
1.0
143
1.0
 70
  1712
 72
     0
 73
     0
 74
     0
  7

 75
     0
 76
     0
 77
     2
 78
   300
147
1.0
148
0.0
149
0.0
100
AcDbLayout
  1
Model
 70
     1
 71
     0
 10
0.0
 20
0.0
 11
12.0
 21
9.0
 12
0.0
 22
0.0
 32
0.0
 14
-8.94475
 24
-1.47914
 34
0.0
 15
9.60012
 25
14.11643
 35
0.0
146
0.0
 13
0.0
 23
0.0
 33
0.0
 16
1.0
 26
0.0
 36
0.0
 17
0.0
 27
1.0
 37
0.0
 76
     0
330
1F
331
29
  0
MATERIAL
  5
3D
102
{ACAD_REACTORS
330
3B
102
}
330
3B
100
AcDbMaterial
  1
ByBlock
 72
     1
 94
      127
  0
MATERIAL
  5
3C
102
{ACAD_REACTORS
330
3B
102
}
330
3B
100
AcDbMaterial
  1
ByLayer
 72
     1
 94
      127
  0
MATERIAL
  5
3E
102
{ACAD_REACTORS
330
3B
102
}
330
3B
100
AcDbMaterial
  1
Global
 72
     1
 94
      127
  0
MLINESTYLE
  5
18
102
{ACAD_REACTORS
330
17
102
}
330
17
100
AcDbMlineStyle
  2
Standard
 70
     0
  3

 62
   256
 51
90.0
 52
90.0
 71
     2
 49
0.5
 62
   256
  6
BYLAYER
 49
-0.5
 62
   256
  6
BYLAYER
  0
ACDBPLACEHOLDER
  5
F
102
{ACAD_REACTORS
330
E
102
}
330
E
  0
VISUALSTYLE
  5
2F
102
{ACAD_REACTORS
330
2A
102
}
102
{ACAD_XDICTIONARY
360
1B4
102
}
330
2A
100
AcDbVisualStyle
  2
2dWireframe
 70
     4
 71
     0
 72
     2
 73
     0
 90
        0
 40
-0.6
 41
-30.0
 62
     5
 63
     7
421
 16777215
 74
     1
 91
        4
 64
     7
 65
   257
 75
     1
175
     1
 42
1.0
 92
        0
 66
   257
 43
1.0
 76
     1
 77
     6
 78
     2
 67
     7
 79
     5
170
     0
171
     0
290
     0
174
     0
 93
        1
 44
0.0
173
     0
291
     0
 45
0.0
  0
VISUALSTYLE
  5
31
102
{ACAD_REACTORS
330
2A
102
}
102
{ACAD_XDICTIONARY
360
1B8
102
}
330
2A
100
AcDbVisualStyle
  2
3D Hidden
 70
     6
 71
     1
 72
     2
 73
     2
 90
        0
 40
-0.6
 41
-30.0
 62
     5
 63
     7
421
 16777215
 74
     2
 91
        2
 64
     7
 65
   257
 75
     2
175
     1
 42
40.0
 92
        0
 66
   257
 43
1.0
 76
     1
 77
     6
 78
     2
 67
     7
 79
     3
170
     0
171
     0
290
     0
174
     0
 93
        1
 44
0.0
173
     0
291
     0
 45
0.0
  0
VISUALSTYLE
  5
30
102
{ACAD_REACTORS
330
2A
102
}
102
{ACAD_XDICTIONARY
360
1B6
102
}
330
2A
100
AcDbVisualStyle
  2
3dWireframe
 70
     5
 71
     0
 72
     2
 73
     0
 90
        0
 40
-0.6
 41
-30.0
 62
     5
 63
     7
421
 16777215
 74
     1
 91
        4
 64
     7
 65
   257
 75
     1
175
     1
 42
1.0
 92
        0
 66
   257
 43
1.0
 76
     1
 77
     6
 78
     2
 67
     7
 79
     5
170
     0
171
     0
290
     0
174
     0
 93
        1
 44
0.0
173
     0
291
     0
 45
0.0
  0
VISUALSTYLE
  5
32
102
{ACAD_REACTORS
330
2A
102
}
102
{ACAD_XDICTIONARY
360
1BA
102
}
330
2A
100
AcDbVisualStyle
  2
Basic
 70
     7
 71
     1
 72
     0
 73
     1
 90
        0
 40
-0.6
 41
-30.0
 62
     5
 63
     7
421
 16777215
 74
     0
 91
        4
 64
     7
 65
   257
 75
     1
175
     1
 42
1.0
 92
        8
 66
     7
 43
1.0
 76
     1
 77
     6
 78
     2
 67
     7
 79
     5
170
     0
171
     0
290
     0
174
     0
 93
        1
 44
0.0
173
     0
291
     1
 45
0.0
  0
VISUALSTYLE
  5
36
102
{ACAD_REACTORS
330
2A
102
}
102
{ACAD_XDICTIONARY
360
1C2
102
}
330
2A
100
AcDbVisualStyle
  2
Brighten
 70
    12
 71
     2
 72
     2
 73
     0
 90
        0
 40
-0.6
 41
-30.0
 62
     5
 63
     7
421
 16777215
 74
     1
 91
        4
 64
     7
 65
   257
 75
     1
175
     1
 42
1.0
 92
        8
 66
     7
 43
1.0
 76
     1
 77
     6
 78
     2
 67
     7
 79
     5
170
     0
171
     0
290
     0
174
     0
 93
        1
 44
50.0
173
     0
291
     1
 45
0.0
  0
VISUALSTYLE
  5
3A
102
{ACAD_REACTORS
330
2A
102
}
102
{ACAD_XDICTIONARY
360
1CA
102
}
330
2A
100
AcDbVisualStyle
  2
ColorChange
 70
    16
 71
     2
 72
     2
 73
     3
 90
        0
 40
-0.6
 41
-30.0
 62
     5
 63
     8
421
  8421504
 74
     1
 91
        4
 64
     7
 65
   257
 75
     1
175
     1
 42
1.0
 92
        8
 66
     8
424
  8421504
 43
1.0
 76
     1
 77
     6
 78
     2
 67
     7
 79
     5
170
     0
171
     0
290
     0
174
     0
 93
        1
 44
0.0
173
     0
291
     1
 45
0.0
  0
VISUALSTYLE
  5
34
102
{ACAD_REACTORS
330
2A
102
}
102
{ACAD_XDICTIONARY
360
1BE
102
}
330
2A
100
AcDbVisualStyle
  2
Conceptual
 70
     9
 71
     3
 72
     2
 73
     0
 90
        0
 40
-0.6
 41
-30.0
 62
     5
 63
     7
421
 16777215
 74
     2
 91
        2
 64
     7
 65
   257
 75
     1
175
     1
 42
40.0
 92
        8
 66
     7
 43
1.0
 76
     1
 77
     6
 78
     2
 67
     7
 79
     3
170
     0
171
     0
290
     0
174
     0
 93
        1
 44
0.0
173
     0
291
     0
 45
0.0
  0
VISUALSTYLE
  5
35
102
{ACAD_REACTORS
330
2A
102
}
102
{ACAD_XDICTIONARY
360
1C0
102
}
330
2A
100
AcDbVisualStyle
  2
Dim
 70
    11
 71
     2
 72
     2
 73
     0
 90
        0
 40
-0.6
 41
-30.0
 62
     5
 63
     7
421
 16777215
 74
     1
 91
        4
 64
     7
 65
   257
 75
     1
175
     1
 42
1.0
 92
        8
 66
     7
 43
1.0
 76
     1
 77
     6
 78
     2
 67
     7
 79
     5
170
     0
171
     0
290
     0
174
     0
 93
        1
 44
-50.0
173
     0
291
     1
 45
0.0
  0
VISUALSTYLE
  5
39
102
{ACAD_REACTORS
330
2A
102
}
102
{ACAD_XDICTIONARY
360
1C8
102
}
330
2A
100
AcDbVisualStyle
  2
Facepattern
 70
    15
 71
     2
 72
     2
 73
     0
 90
        0
 40
-0.6
 41
-30.0
 62
     5
 63
     7
421
 16777215
 74
     1
 91
        4
 64
     7
 65
   257
 75
     1
175
     1
 42
1.0
 92
        8
 66
     7
 43
1.0
 76
     1
 77
     6
 78
     2
 67
     7
 79
     5
170
     0
171
     0
290
     0
174
     0
 93
        1
 44
0.0
173
     0
291
     1
 45
0.0
  0
VISUALSTYLE
  5
2B
102
{ACAD_REACTORS
330
2A
102
}
102
{ACAD_XDICTIONARY
360
1AC
102
}
330
2A
100
AcDbVisualStyle
  2
Flat
 70
     0
 71
     2
 72
     1
 73
     1
 90
        2
 40
-0.6
 41
30.0
 62
     5
 63
     7
421
 16777215
 74
     0
 91
        4
 64
     7
 65
   257
 75
     1
175
     1
 42
1.0
 92
        8
 66
     7
 43
1.0
 76
     1
 77
     6
 78
     2
 67
     7
 79
     5
170
     0
171
     0
290
     0
174
     0
 93
       13
 44
0.0
173
     0
291
     1
 45
0.0
  0
VISUALSTYLE
  5
2C
102
{ACAD_REACTORS
330
2A
102
}
102
{ACAD_XDICTIONARY
360
1AE
102
}
330
2A
100
AcDbVisualStyle
  2
FlatWithEdges
 70
     1
 71
     2
 72
     1
 73
     1
 90
        2
 40
-0.6
 41
30.0
 62
     5
 63
     7
421
 16777215
 74
     1
 91
        4
 64
     7
 65
   257
 75
     1
175
     1
 42
1.0
 92
        0
 66
   257
 43
1.0
 76
     1
 77
     6
 78
     2
 67
     7
 79
     5
170
     0
171
     0
290
     0
174
     0
 93
       13
 44
0.0
173
     0
291
     1
 45
0.0
  0
VISUALSTYLE
  5
2D
102
{ACAD_REACTORS
330
2A
102
}
102
{ACAD_XDICTIONARY
360
1B0
102
}
330
2A
100
AcDbVisualStyle
  2
Gouraud
 70
     2
 71
     2
 72
     2
 73
     1
 90
        2
 40
-0.6
 41
30.0
 62
     5
 63
     7
421
 16777215
 74
     0
 91
        4
 64
     7
 65
   257
 75
     1
175
     1
 42
1.0
 92
        0
 66
     7
 43
1.0
 76
     1
 77
     6
 78
     2
 67
     7
 79
     5
170
     0
171
     0
290
     0
174
     0
 93
       13
 44
0.0
173
     0
291
     1
 45
0.0
  0
VISUALSTYLE
  5
2E
102
{ACAD_REACTORS
330
2A
102
}
102
{ACAD_XDICTIONARY
360
1B2
102
}
330
2A
100
AcDbVisualStyle
  2
GouraudWithEdges
 70
     3
 71
     2
 72
     2
 73
     1
 90
        2
 40
-0.6
 41
30.0
 62
     5
 63
     7
421
 16777215
 74
     1
 91
        4
 64
     7
 65
   257
 75
     1
175
     1
 42
1.0
 92
        0
 66
   257
 43
1.0
 76
     1
 77
     6
 78
     2
 67
     7
 79
     5
170
     0
171
     0
290
     0
174
     0
 93
       13
 44
0.0
173
     0
291
     1
 45
0.0
  0
VISUALSTYLE
  5
38
102
{ACAD_REACTORS
330
2A
102
}
102
{ACAD_XDICTIONARY
360
1C6
102
}
330
2A
100
AcDbVisualStyle
  2
Linepattern
 70
    14
 71
     2
 72
     2
 73
     0
 90
        0
 40
-0.6
 41
-30.0
 62
     5
 63
     7
421
 16777215
 74
     1
 91
        4
 64
     7
 65
   257
 75
     7
175
     7
 42
1.0
 92
        8
 66
     7
 43
1.0
 76
     1
 77
     6
 78
     2
 67
     7
 79
     5
170
     0
171
     0
290
     0
174
     0
 93
        1
 44
0.0
173
     0
291
     1
 45
0.0
  0
VISUALSTYLE
  5
33
102
{ACAD_REACTORS
330
2A
102
}
102
{ACAD_XDICTIONARY
360
1BC
102
}
330
2A
100
AcDbVisualStyle
  2
Realistic
 70
     8
 71
     2
 72
     2
 73
     0
 90
        0
 40
-0.6
 41
-30.0
 62
     5
 63
     7
421
 16777215
 74
     1
 91
        0
 64
     7
 65
   257
 75
     1
175
     1
 42
1.0
 92
        8
 66
     8
424
  7895160
 43
1.0
 76
     1
 77
     6
 78
     2
 67
     7
 79
     5
170
     0
171
     0
290
     0
174
     0
 93
       13
 44
0.0
173
     0
291
     0
 45
0.0
  0
VISUALSTYLE
  5
37
102
{ACAD_REACTORS
330
2A
102
}
102
{ACAD_XDICTIONARY
360
1C4
102
}
330
2A
100
AcDbVisualStyle
  2
Thicken
 70
    13
 71
     2
 72
     2
 73
     0
 90
        0
 40
-0.6
 41
-30.0
 62
     5
 63
     7
421
 16777215
 74
     1
 91
        4
 64
     7
 65
   257
 75
     1
175
     1
 42
1.0
 92
       12
 66
     7
 43
1.0
 76
     1
 77
     6
 78
     2
 67
     7
 79
     5
170
     0
171
     0
290
     0
174
     0
 93
        1
 44
0.0
173
     0
291
     1
 45
0.0
  0
DICTIONARY
  5
1B4
330
2F
100
AcDbDictionary
280
     1
281
     1
  3
ACAD_XREC_ROUNDTRIP
360
1B5
  0
DICTIONARY
  5
1B8
330
31
100
AcDbDictionary
280
     1
281
     1
  3
ACAD_XREC_ROUNDTRIP
360
1B9
  0
DICTIONARY
  5
1B6
330
30
100
AcDbDictionary
280
     1
281
     1
  3
ACAD_XREC_ROUNDTRIP
360
1B7
  0
DICTIONARY
  5
1BA
330
32
100
AcDbDictionary
280
     1
281
     1
  3
ACAD_XREC_ROUNDTRIP
360
1BB
  0
DICTIONARY
  5
1C2
330
36
100
AcDbDictionary
280
     1
281
     1
  3
ACAD_XREC_ROUNDTRIP
360
1C3
  0
DICTIONARY
  5
1CA
330
3A
100
AcDbDictionary
280
     1
281
     1
  3
ACAD_XREC_ROUNDTRIP
360
1CB
  0
DICTIONARY
  5
1BE
330
34
100
AcDbDictionary
280
     1
281
     1
  3
ACAD_XREC_ROUNDTRIP
360
1BF
  0
DICTIONARY
  5
1C0
330
35
100
AcDbDictionary
280
     1
281
     1
  3
ACAD_XREC_ROUNDTRIP
360
1C1
  0
DICTIONARY
  5
1C8
330
39
100
AcDbDictionary
280
     1
281
     1
  3
ACAD_XREC_ROUNDTRIP
360
1C9
  0
DICTIONARY
  5
1AC
330
2B
100
AcDbDictionary
280
     1
281
     1
  3
ACAD_XREC_ROUNDTRIP
360
1AD
  0
DICTIONARY
  5
1AE
330
2C
100
AcDbDictionary
280
     1
281
     1
  3
ACAD_XREC_ROUNDTRIP
360
1AF
  0
DICTIONARY
  5
1B0
330
2D
100
AcDbDictionary
280
     1
281
     1
  3
ACAD_XREC_ROUNDTRIP
360
1B1
  0
DICTIONARY
  5
1B2
330
2E
100
AcDbDictionary
280
     1
281
     1
  3
ACAD_XREC_ROUNDTRIP
360
1B3
  0
DICTIONARY
  5
1C6
330
38
100
AcDbDictionary
280
     1
281
     1
  3
ACAD_XREC_ROUNDTRIP
360
1C7
  0
DICTIONARY
  5
1BC
330
33
100
AcDbDictionary
280
     1
281
     1
  3
ACAD_XREC_ROUNDTRIP
360
1BD
  0
DICTIONARY
  5
1C4
330
37
100
AcDbDictionary
280
     1
281
     1
  3
ACAD_XREC_ROUNDTRIP
360
1C5
  0
XRECORD
  5
1B5
102
{ACAD_REACTORS
330
1B4
102
}
330
1B4
100
AcDbXrecord
280
     1
102
RTVSPropertyOp0
 70
     1
102
RTVSPropertyOp1
 70
     1
102
RTVSPropertyOp2
 70
     1
102
RTVSPropertyOp3
 70
     1
102
RTVSPropertyOp4
 70
     1
102
RTVSPropertyOp5
 70
     1
102
RTVSPropertyOp6
 70
     1
102
RTVSPropertyOp7
 70
     1
102
RTVSPropertyOp8
 70
     1
102
RTVSPropertyOp9
 70
     1
102
RTVSPropertyOp10
 70
     1
102
RTVSPropertyOp11
 70
     1
102
RTVSPropertyOp12
 70
     1
102
RTVSPropertyOp13
 70
     1
102
RTVSPropertyOp14
 70
     1
102
RTVSPropertyOp15
 70
     1
102
RTVSPropertyOp16
 70
     1
102
RTVSPropertyOp17
 70
     1
102
RTVSPropertyOp18
 70
     1
102
RTVSPropertyOp19
 70
     1
102
RTVSPropertyOp20
 70
     1
102
RTVSPropertyOp21
 70
     1
102
RTVSPropertyOp22
 70
     1
102
RTVSPropertyOp23
 70
     1
102
RTVSPropertyOp24
 70
     1
102
RTVSPropertyOp25
 70
     1
102
RTVSPropertyOp26
 70
     1
102
RTVSPropertyOp27
 70
     1
  0
XRECORD
  5
1B9
102
{ACAD_REACTORS
330
1B8
102
}
330
1B8
100
AcDbXrecord
280
     1
102
RTVSPropertyOp0
 70
     1
102
RTVSPropertyOp1
 70
     1
102
RTVSPropertyOp2
 70
     1
102
RTVSPropertyOp3
 70
     1
102
RTVSPropertyOp4
 70
     1
102
RTVSPropertyOp5
 70
     1
102
RTVSPropertyOp6
 70
     1
102
RTVSPropertyOp7
 70
     1
102
RTVSPropertyOp8
 70
     1
102
RTVSPropertyOp9
 70
     1
102
RTVSPropertyOp10
 70
     1
102
RTVSPropertyOp11
 70
     1
102
RTVSPropertyOp12
 70
     1
102
RTVSPropertyOp13
 70
     1
102
RTVSPropertyOp14
 70
     1
102
RTVSPropertyOp15
 70
     1
102
RTVSPropertyOp16
 70
     1
102
RTVSPropertyOp17
 70
     1
102
RTVSPropertyOp18
 70
     1
102
RTVSPropertyOp19
 70
     1
102
RTVSPropertyOp20
 70
     1
102
RTVSPropertyOp21
 70
     1
102
RTVSPropertyOp22
 70
     1
102
RTVSPropertyOp23
 70
     1
102
RTVSPropertyOp24
 70
     1
102
RTVSPropertyOp25
 70
     1
102
RTVSPropertyOp26
 70
     1
102
RTVSPropertyOp27
 70
     1
  0
XRECORD
  5
1B7
102
{ACAD_REACTORS
330
1B6
102
}
330
1B6
100
AcDbXrecord
280
     1
102
RTVSPropertyOp0
 70
     1
102
RTVSPropertyOp1
 70
     1
102
RTVSPropertyOp2
 70
     1
102
RTVSPropertyOp3
 70
     1
102
RTVSPropertyOp4
 70
     1
102
RTVSPropertyOp5
 70
     1
102
RTVSPropertyOp6
 70
     1
102
RTVSPropertyOp7
 70
     1
102
RTVSPropertyOp8
 70
     1
102
RTVSPropertyOp9
 70
     1
102
RTVSPropertyOp10
 70
     1
102
RTVSPropertyOp11
 70
     1
102
RTVSPropertyOp12
 70
     1
102
RTVSPropertyOp13
 70
     1
102
RTVSPropertyOp14
 70
     1
102
RTVSPropertyOp15
 70
     1
102
RTVSPropertyOp16
 70
     1
102
RTVSPropertyOp17
 70
     1
102
RTVSPropertyOp18
 70
     1
102
RTVSPropertyOp19
 70
     1
102
RTVSPropertyOp20
 70
     1
102
RTVSPropertyOp21
 70
     1
102
RTVSPropertyOp22
 70
     1
102
RTVSPropertyOp23
 70
     1
102
RTVSPropertyOp24
 70
     1
102
RTVSPropertyOp25
 70
     1
102
RTVSPropertyOp26
 70
     1
102
RTVSPropertyOp27
 70
     1
  0
XRECORD
  5
1BB
102
{ACAD_REACTORS
330
1BA
102
}
330
1BA
100
AcDbXrecord
280
     1
102
RTVSPropertyOp0
 70
     1
102
RTVSPropertyOp1
 70
     1
102
RTVSPropertyOp2
 70
     1
102
RTVSPropertyOp3
 70
     1
102
RTVSPropertyOp4
 70
     1
102
RTVSPropertyOp5
 70
     1
102
RTVSPropertyOp6
 70
     1
102
RTVSPropertyOp7
 70
     1
102
RTVSPropertyOp8
 70
     1
102
RTVSPropertyOp9
 70
     1
102
RTVSPropertyOp10
 70
     1
102
RTVSPropertyOp11
 70
     1
102
RTVSPropertyOp12
 70
     1
102
RTVSPropertyOp13
 70
     1
102
RTVSPropertyOp14
 70
     1
102
RTVSPropertyOp15
 70
     1
102
RTVSPropertyOp16
 70
     1
102
RTVSPropertyOp17
 70
     1
102
RTVSPropertyOp18
 70
     1
102
RTVSPropertyOp19
 70
     1
102
RTVSPropertyOp20
 70
     1
102
RTVSPropertyOp21
 70
     1
102
RTVSPropertyOp22
 70
     1
102
RTVSPropertyOp23
 70
     1
102
RTVSPropertyOp24
 70
     1
102
RTVSPropertyOp25
 70
     1
102
RTVSPropertyOp26
 70
     1
102
RTVSPropertyOp27
 70
     1
  0
XRECORD
  5
1C3
102
{ACAD_REACTORS
330
1C2
102
}
330
1C2
100
AcDbXrecord
280
     1
102
RTVSPropertyOp0
 70
     1
102
RTVSPropertyOp1
 70
     1
102
RTVSPropertyOp2
 70
     1
102
RTVSPropertyOp3
 70
     1
102
RTVSPropertyOp4
 70
     1
102
RTVSPropertyOp5
 70
     1
102
RTVSPropertyOp6
 70
     1
102
RTVSPropertyOp7
 70
     1
102
RTVSPropertyOp8
 70
     1
102
RTVSPropertyOp9
 70
     1
102
RTVSPropertyOp10
 70
     1
102
RTVSPropertyOp11
 70
     1
102
RTVSPropertyOp12
 70
     1
102
RTVSPropertyOp13
 70
     1
102
RTVSPropertyOp14
 70
     1
102
RTVSPropertyOp15
 70
     1
102
RTVSPropertyOp16
 70
     1
102
RTVSPropertyOp17
 70
     1
102
RTVSPropertyOp18
 70
     1
102
RTVSPropertyOp19
 70
     1
102
RTVSPropertyOp20
 70
     1
102
RTVSPropertyOp21
 70
     1
102
RTVSPropertyOp22
 70
     1
102
RTVSPropertyOp23
 70
     1
102
RTVSPropertyOp24
 70
     1
102
RTVSPropertyOp25
 70
     1
102
RTVSPropertyOp26
 70
     1
102
RTVSPropertyOp27
 70
     1
  0
XRECORD
  5
1CB
102
{ACAD_REACTORS
330
1CA
102
}
330
1CA
100
AcDbXrecord
280
     1
102
RTVSPropertyOp0
 70
     1
102
RTVSPropertyOp1
 70
     1
102
RTVSPropertyOp2
 70
     1
102
RTVSPropertyOp3
 70
     1
102
RTVSPropertyOp4
 70
     1
102
RTVSPropertyOp5
 70
     1
102
RTVSPropertyOp6
 70
     1
102
RTVSPropertyOp7
 70
     1
102
RTVSPropertyOp8
 70
     1
102
RTVSPropertyOp9
 70
     1
102
RTVSPropertyOp10
 70
     1
102
RTVSPropertyOp11
 70
     1
102
RTVSPropertyOp12
 70
     1
102
RTVSPropertyOp13
 70
     1
102
RTVSPropertyOp14
 70
     1
102
RTVSPropertyOp15
 70
     1
102
RTVSPropertyOp16
 70
     1
102
RTVSPropertyOp17
 70
     1
102
RTVSPropertyOp18
 70
     1
102
RTVSPropertyOp19
 70
     1
102
RTVSPropertyOp20
 70
     1
102
RTVSPropertyOp21
 70
     1
102
RTVSPropertyOp22
 70
     1
102
RTVSPropertyOp23
 70
     1
102
RTVSPropertyOp24
 70
     1
102
RTVSPropertyOp25
 70
     1
102
RTVSPropertyOp26
 70
     1
102
RTVSPropertyOp27
 70
     1
  0
XRECORD
  5
1BF
102
{ACAD_REACTORS
330
1BE
102
}
330
1BE
100
AcDbXrecord
280
     1
102
RTVSPropertyOp0
 70
     1
102
RTVSPropertyOp1
 70
     1
102
RTVSPropertyOp2
 70
     1
102
RTVSPropertyOp3
 70
     1
102
RTVSPropertyOp4
 70
     1
102
RTVSPropertyOp5
 70
     1
102
RTVSPropertyOp6
 70
     1
102
RTVSPropertyOp7
 70
     1
102
RTVSPropertyOp8
 70
     1
102
RTVSPropertyOp9
 70
     1
102
RTVSPropertyOp10
 70
     1
102
RTVSPropertyOp11
 70
     1
102
RTVSPropertyOp12
 70
     1
102
RTVSPropertyOp13
 70
     1
102
RTVSPropertyOp14
 70
     1
102
RTVSPropertyOp15
 70
     1
102
RTVSPropertyOp16
 70
     1
102
RTVSPropertyOp17
 70
     1
102
RTVSPropertyOp18
 70
     1
102
RTVSPropertyOp19
 70
     1
102
RTVSPropertyOp20
 70
     1
102
RTVSPropertyOp21
 70
     1
102
RTVSPropertyOp22
 70
     1
102
RTVSPropertyOp23
 70
     1
102
RTVSPropertyOp24
 70
     1
102
RTVSPropertyOp25
 70
     1
102
RTVSPropertyOp26
 70
     1
102
RTVSPropertyOp27
 70
     1
  0
XRECORD
  5
1C1
102
{ACAD_REACTORS
330
1C0
102
}
330
1C0
100
AcDbXrecord
280
     1
102
RTVSPropertyOp0
 70
     1
102
RTVSPropertyOp1
 70
     1
102
RTVSPropertyOp2
 70
     1
102
RTVSPropertyOp3
 70
     1
102
RTVSPropertyOp4
 70
     1
102
RTVSPropertyOp5
 70
     1
102
RTVSPropertyOp6
 70
     1
102
RTVSPropertyOp7
 70
     1
102
RTVSPropertyOp8
 70
     1
102
RTVSPropertyOp9
 70
     1
102
RTVSPropertyOp10
 70
     1
102
RTVSPropertyOp11
 70
     1
102
RTVSPropertyOp12
 70
     1
102
RTVSPropertyOp13
 70
     1
102
RTVSPropertyOp14
 70
     1
102
RTVSPropertyOp15
 70
     1
102
RTVSPropertyOp16
 70
     1
102
RTVSPropertyOp17
 70
     1
102
RTVSPropertyOp18
 70
     1
102
RTVSPropertyOp19
 70
     1
102
RTVSPropertyOp20
 70
     1
102
RTVSPropertyOp21
 70
     1
102
RTVSPropertyOp22
 70
     1
102
RTVSPropertyOp23
 70
     1
102
RTVSPropertyOp24
 70
     1
102
RTVSPropertyOp25
 70
     1
102
RTVSPropertyOp26
 70
     1
102
RTVSPropertyOp27
 70
     1
  0
XRECORD
  5
1C9
102
{ACAD_REACTORS
330
1C8
102
}
330
1C8
100
AcDbXrecord
280
     1
102
RTVSPropertyOp0
 70
     1
102
RTVSPropertyOp1
 70
     1
102
RTVSPropertyOp2
 70
     1
102
RTVSPropertyOp3
 70
     1
102
RTVSPropertyOp4
 70
     1
102
RTVSPropertyOp5
 70
     1
102
RTVSPropertyOp6
 70
     1
102
RTVSPropertyOp7
 70
     1
102
RTVSPropertyOp8
 70
     1
102
RTVSPropertyOp9
 70
     1
102
RTVSPropertyOp10
 70
     1
102
RTVSPropertyOp11
 70
     1
102
RTVSPropertyOp12
 70
     1
102
RTVSPropertyOp13
 70
     1
102
RTVSPropertyOp14
 70
     1
102
RTVSPropertyOp15
 70
     1
102
RTVSPropertyOp16
 70
     1
102
RTVSPropertyOp17
 70
     1
102
RTVSPropertyOp18
 70
     1
102
RTVSPropertyOp19
 70
     1
102
RTVSPropertyOp20
 70
     1
102
RTVSPropertyOp21
 70
     1
102
RTVSPropertyOp22
 70
     1
102
RTVSPropertyOp23
 70
     1
102
RTVSPropertyOp24
 70
     1
102
RTVSPropertyOp25
 70
     1
102
RTVSPropertyOp26
 70
     1
102
RTVSPropertyOp27
 70
     1
  0
XRECORD
  5
1AD
102
{ACAD_REACTORS
330
1AC
102
}
330
1AC
100
AcDbXrecord
280
     1
102
RTVSPropertyOp0
 70
     1
102
RTVSPropertyOp1
 70
     1
102
RTVSPropertyOp2
 70
     1
102
RTVSPropertyOp3
 70
     1
102
RTVSPropertyOp4
 70
     1
102
RTVSPropertyOp5
 70
     1
102
RTVSPropertyOp6
 70
     1
102
RTVSPropertyOp7
 70
     1
102
RTVSPropertyOp8
 70
     1
102
RTVSPropertyOp9
 70
     1
102
RTVSPropertyOp10
 70
     1
102
RTVSPropertyOp11
 70
     1
102
RTVSPropertyOp12
 70
     1
102
RTVSPropertyOp13
 70
     1
102
RTVSPropertyOp14
 70
     1
102
RTVSPropertyOp15
 70
     1
102
RTVSPropertyOp16
 70
     1
102
RTVSPropertyOp17
 70
     1
102
RTVSPropertyOp18
 70
     1
102
RTVSPropertyOp19
 70
     1
102
RTVSPropertyOp20
 70
     1
102
RTVSPropertyOp21
 70
     1
102
RTVSPropertyOp22
 70
     1
102
RTVSPropertyOp23
 70
     1
102
RTVSPropertyOp24
 70
     1
102
RTVSPropertyOp25
 70
     1
102
RTVSPropertyOp26
 70
     1
102
RTVSPropertyOp27
 70
     1
  0
XRECORD
  5
1AF
102
{ACAD_REACTORS
330
1AE
102
}
330
1AE
100
AcDbXrecord
280
     1
102
RTVSPropertyOp0
 70
     1
102
RTVSPropertyOp1
 70
     1
102
RTVSPropertyOp2
 70
     1
102
RTVSPropertyOp3
 70
     1
102
RTVSPropertyOp4
 70
     1
102
RTVSPropertyOp5
 70
     1
102
RTVSPropertyOp6
 70
     1
102
RTVSPropertyOp7
 70
     1
102
RTVSPropertyOp8
 70
     1
102
RTVSPropertyOp9
 70
     1
102
RTVSPropertyOp10
 70
     1
102
RTVSPropertyOp11
 70
     1
102
RTVSPropertyOp12
 70
     1
102
RTVSPropertyOp13
 70
     1
102
RTVSPropertyOp14
 70
     1
102
RTVSPropertyOp15
 70
     1
102
RTVSPropertyOp16
 70
     1
102
RTVSPropertyOp17
 70
     1
102
RTVSPropertyOp18
 70
     1
102
RTVSPropertyOp19
 70
     1
102
RTVSPropertyOp20
 70
     1
102
RTVSPropertyOp21
 70
     1
102
RTVSPropertyOp22
 70
     1
102
RTVSPropertyOp23
 70
     1
102
RTVSPropertyOp24
 70
     1
102
RTVSPropertyOp25
 70
     1
102
RTVSPropertyOp26
 70
     1
102
RTVSPropertyOp27
 70
     1
  0
XRECORD
  5
1B1
102
{ACAD_REACTORS
330
1B0
102
}
330
1B0
100
AcDbXrecord
280
     1
102
RTVSPropertyOp0
 70
     1
102
RTVSPropertyOp1
 70
     1
102
RTVSPropertyOp2
 70
     1
102
RTVSPropertyOp3
 70
     1
102
RTVSPropertyOp4
 70
     1
102
RTVSPropertyOp5
 70
     1
102
RTVSPropertyOp6
 70
     1
102
RTVSPropertyOp7
 70
     1
102
RTVSPropertyOp8
 70
     1
102
RTVSPropertyOp9
 70
     1
102
RTVSPropertyOp10
 70
     1
102
RTVSPropertyOp11
 70
     1
102
RTVSPropertyOp12
 70
     1
102
RTVSPropertyOp13
 70
     1
102
RTVSPropertyOp14
 70
     1
102
RTVSPropertyOp15
 70
     1
102
RTVSPropertyOp16
 70
     1
102
RTVSPropertyOp17
 70
     1
102
RTVSPropertyOp18
 70
     1
102
RTVSPropertyOp19
 70
     1
102
RTVSPropertyOp20
 70
     1
102
RTVSPropertyOp21
 70
     1
102
RTVSPropertyOp22
 70
     1
102
RTVSPropertyOp23
 70
     1
102
RTVSPropertyOp24
 70
     1
102
RTVSPropertyOp25
 70
     1
102
RTVSPropertyOp26
 70
     1
102
RTVSPropertyOp27
 70
     1
  0
XRECORD
  5
1B3
102
{ACAD_REACTORS
330
1B2
102
}
330
1B2
100
AcDbXrecord
280
     1
102
RTVSPropertyOp0
 70
     1
102
RTVSPropertyOp1
 70
     1
102
RTVSPropertyOp2
 70
     1
102
RTVSPropertyOp3
 70
     1
102
RTVSPropertyOp4
 70
     1
102
RTVSPropertyOp5
 70
     1
102
RTVSPropertyOp6
 70
     1
102
RTVSPropertyOp7
 70
     1
102
RTVSPropertyOp8
 70
     1
102
RTVSPropertyOp9
 70
     1
102
RTVSPropertyOp10
 70
     1
102
RTVSPropertyOp11
 70
     1
102
RTVSPropertyOp12
 70
     1
102
RTVSPropertyOp13
 70
     1
102
RTVSPropertyOp14
 70
     1
102
RTVSPropertyOp15
 70
     1
102
RTVSPropertyOp16
 70
     1
102
RTVSPropertyOp17
 70
     1
102
RTVSPropertyOp18
 70
     1
102
RTVSPropertyOp19
 70
     1
102
RTVSPropertyOp20
 70
     1
102
RTVSPropertyOp21
 70
     1
102
RTVSPropertyOp22
 70
     1
102
RTVSPropertyOp23
 70
     1
102
RTVSPropertyOp24
 70
     1
102
RTVSPropertyOp25
 70
     1
102
RTVSPropertyOp26
 70
     1
102
RTVSPropertyOp27
 70
     1
  0
XRECORD
  5
1C7
102
{ACAD_REACTORS
330
1C6
102
}
330
1C6
100
AcDbXrecord
280
     1
102
RTVSPropertyOp0
 70
     1
102
RTVSPropertyOp1
 70
     1
102
RTVSPropertyOp2
 70
     1
102
RTVSPropertyOp3
 70
     1
102
RTVSPropertyOp4
 70
     1
102
RTVSPropertyOp5
 70
     1
102
RTVSPropertyOp6
 70
     1
102
RTVSPropertyOp7
 70
     1
102
RTVSPropertyOp8
 70
     1
102
RTVSPropertyOp9
 70
     1
102
RTVSPropertyOp10
 70
     1
102
RTVSPropertyOp11
 70
     1
102
RTVSPropertyOp12
 70
     1
102
RTVSPropertyOp13
 70
     1
102
RTVSPropertyOp14
 70
     1
102
RTVSPropertyOp15
 70
     1
102
RTVSPropertyOp16
 70
     1
102
RTVSPropertyOp17
 70
     1
102
RTVSPropertyOp18
 70
     1
102
RTVSPropertyOp19
 70
     1
102
RTVSPropertyOp20
 70
     1
102
RTVSPropertyOp21
 70
     1
102
RTVSPropertyOp22
 70
     1
102
RTVSPropertyOp23
 70
     1
102
RTVSPropertyOp24
 70
     1
102
RTVSPropertyOp25
 70
     1
102
RTVSPropertyOp26
 70
     1
102
RTVSPropertyOp27
 70
     1
  0
XRECORD
  5
1BD
102
{ACAD_REACTORS
330
1BC
102
}
330
1BC
100
AcDbXrecord
280
     1
102
RTVSPropertyOp0
 70
     1
102
RTVSPropertyOp1
 70
     1
102
RTVSPropertyOp2
 70
     1
102
RTVSPropertyOp3
 70
     1
102
RTVSPropertyOp4
 70
     1
102
RTVSPropertyOp5
 70
     1
102
RTVSPropertyOp6
 70
     1
102
RTVSPropertyOp7
 70
     1
102
RTVSPropertyOp8
 70
     1
102
RTVSPropertyOp9
 70
     1
102
RTVSPropertyOp10
 70
     1
102
RTVSPropertyOp11
 70
     1
102
RTVSPropertyOp12
 70
     1
102
RTVSPropertyOp13
 70
     1
102
RTVSPropertyOp14
 70
     1
102
RTVSPropertyOp15
 70
     1
102
RTVSPropertyOp16
 70
     1
102
RTVSPropertyOp17
 70
     1
102
RTVSPropertyOp18
 70
     1
102
RTVSPropertyOp19
 70
     1
102
RTVSPropertyOp20
 70
     1
102
RTVSPropertyOp21
 70
     1
102
RTVSPropertyOp22
 70
     1
102
RTVSPropertyOp23
 70
     1
102
RTVSPropertyOp24
 70
     1
102
RTVSPropertyOp25
 70
     1
102
RTVSPropertyOp26
 70
     1
102
RTVSPropertyOp27
 70
     1
  0
XRECORD
  5
1C5
102
{ACAD_REACTORS
330
1C4
102
}
330
1C4
100
AcDbXrecord
280
     1
102
RTVSPropertyOp0
 70
     1
102
RTVSPropertyOp1
 70
     1
102
RTVSPropertyOp2
 70
     1
102
RTVSPropertyOp3
 70
     1
102
RTVSPropertyOp4
 70
     1
102
RTVSPropertyOp5
 70
     1
102
RTVSPropertyOp6
 70
     1
102
RTVSPropertyOp7
 70
     1
102
RTVSPropertyOp8
 70
     1
102
RTVSPropertyOp9
 70
     1
102
RTVSPropertyOp10
 70
     1
102
RTVSPropertyOp11
 70
     1
102
RTVSPropertyOp12
 70
     1
102
RTVSPropertyOp13
 70
     1
102
RTVSPropertyOp14
 70
     1
102
RTVSPropertyOp15
 70
     1
102
RTVSPropertyOp16
 70
     1
102
RTVSPropertyOp17
 70
     1
102
RTVSPropertyOp18
 70
     1
102
RTVSPropertyOp19
 70
     1
102
RTVSPropertyOp20
 70
     1
102
RTVSPropertyOp21
 70
     1
102
RTVSPropertyOp22
 70
     1
102
RTVSPropertyOp23
 70
     1
102
RTVSPropertyOp24
 70
     1
102
RTVSPropertyOp25
 70
     1
102
RTVSPropertyOp26
 70
     1
102
RTVSPropertyOp27
 70
     1
  0
ENDSEC
  0
EOF
