  0
SECTION
  2
HEADER
  9
$ACADVER
  1
AC1024
  9
$ACADMAINTVER
 70
     6
  9
$DWGCODEPAGE
  3
ANSI_1252
  9
$LASTSAVEDBY
  1
p.perez
  9
$INSBASE
 10
0.0
 20
0.0
 30
0.0
  9
$EXTMIN
 10
0.0
 20
0.0
 30
0.0
  9
$EXTMAX
 10
210.0
 20
297.0
 30
0.0
  9
$LIMMIN
 10
0.0
 20
0.0
  9
$LIMMAX
 10
210.0
 20
297.0
  9
$ORTHOMODE
 70
     0
  9
$REGENMODE
 70
     1
  9
$FILLMODE
 70
     1
  9
$QTEXTMODE
 70
     0
  9
$MIRRTEXT
 70
     1
  9
$LTSCALE
 40
1.0
  9
$ATTMODE
 70
     1
  9
$TEXTSIZE
 40
3.5
  9
$TRACEWID
 40
1.0
  9
$TEXTSTYLE
  7
STANDARD
  9
$CLAYER
  8
0
  9
$CELTYPE
  6
ByLayer
  9
$CECOLOR
 62
   256
  9
$CELTSCALE
 40
1.0
  9
$DISPSILH
 70
     0
  9
$DIMSCALE
 40
1.0
  9
$DIMASZ
 40
3.302
  9
$DIMEXO
 40
1.0
  9
$DIMDLI
 40
3.75
  9
$DIMRND
 40
0.0
  9
$DIMDLE
 40
0.0
  9
$DIMEXE
 40
1.0
  9
$DIMTP
 40
0.0
  9
$DIMTM
 40
0.0
  9
$DIMTXT
 40
3.5
  9
$DIMCEN
 40
2.5
  9
$DIMTSZ
 40
0.0
  9
$DIMTOL
 70
     0
  9
$DIMLIM
 70
     0
  9
$DIMTIH
 70
     1
  9
$DIMTOH
 70
     1
  9
$DIMSE1
 70
     0
  9
$DIMSE2
 70
     0
  9
$DIMTAD
 70
     1
  9
$DIMZIN
 70
     0
  9
$DIMBLK
  1

  9
$DIMASO
 70
     1
  9
$DIMSHO
 70
     1
  9
$DIMPOST
  1

  9
$DIMAPOST
  1

  9
$DIMALT
 70
     0
  9
$DIMALTD
 70
     3
  9
$DIMALTF
 40
0.0393700787
  9
$DIMLFAC
 40
1.0
  9
$DIMTOFL
 70
     1
  9
$DIMTVP
 40
0.0
  9
$DIMTIX
 70
     0
  9
$DIMSOXD
 70
     0
  9
$DIMSAH
 70
     0
  9
$DIMBLK1
  1

  9
$DIMBLK2
  1

  9
$DIMSTYLE
  2
ISO-25
  9
$DIMCLRD
 70
     0
  9
$DIMCLRE
 70
     0
  9
$DIMCLRT
 70
     0
  9
$DIMTFAC
 40
1.0
  9
$DIMGAP
 40
1.524
  9
$DIMJUST
 70
     0
  9
$DIMSD1
 70
     0
  9
$DIMSD2
 70
     0
  9
$DIMTOLJ
 70
     0
  9
$DIMTZIN
 70
     0
  9
$DIMALTZ
 70
     0
  9
$DIMALTTZ
 70
     0
  9
$DIMUPT
 70
     0
  9
$DIMDEC
 70
     2
  9
$DIMTDEC
 70
     2
  9
$DIMALTU
 70
     2
  9
$DIMALTTD
 70
     3
  9
$DIMTXSTY
  7
STANDARD
  9
$DIMAUNIT
 70
     0
  9
$DIMADEC
 70
     2
  9
$DIMALTRND
 40
0.0
  9
$DIMAZIN
 70
     0
  9
$DIMDSEP
 70
    44
  9
$DIMATFIT
 70
     3
  9
$DIMFRAC
 70
     0
  9
$DIMLDRBLK
  1

  9
$DIMLUNIT
 70
     2
  9
$DIMLWD
 70
    -2
  9
$DIMLWE
 70
    -2
  9
$DIMTMOVE
 70
     0
  9
$DIMFXL
 40
1.0
  9
$DIMFXLON
 70
     0
  9
$DIMJOGANG
 40
0.7853981634
  9
$DIMTFILL
 70
     0
  9
$DIMTFILLCLR
 70
     0
  9
$DIMARCSYM
 70
     0
  9
$DIMLTYPE
  6

  9
$DIMLTEX1
  6

  9
$DIMLTEX2
  6

  9
$DIMTXTDIRECTION
 70
     0
  9
$LUNITS
 70
     2
  9
$LUPREC
 70
     2
  9
$SKETCHINC
 40
1.0
  9
$FILLETRAD
 40
10.0
  9
$AUNITS
 70
     0
  9
$AUPREC
 70
     2
  9
$MENU
  1
.
  9
$ELEVATION
 40
0.0
  9
$PELEVATION
 40
0.0
  9
$THICKNESS
 40
0.0
  9
$LIMCHECK
 70
     0
  9
$CHAMFERA
 40
0.0
  9
$CHAMFERB
 40
0.0
  9
$CHAMFERC
 40
0.0
  9
$CHAMFERD
 40
0.0
  9
$SKPOLY
 70
     0
  9
$TDCREATE
 40
2459074.648340312
  9
$TDUCREATE
 40
2459074.565006979
  9
$TDUPDATE
 40
2459074.648340706
  9
$TDUUPDATE
 40
2459074.565007373
  9
$TDINDWG
 40
0.0000000116
  9
$TDUSRTIMER
 40
0.0000000116
  9
$USRTIMER
 70
     1
  9
$ANGBASE
 50
0.0
  9
$ANGDIR
 70
     0
  9
$PDMODE
 70
     0
  9
$PDSIZE
 40
-1.0
  9
$PLINEWID
 40
0.0
  9
$SPLFRAME
 70
     0
  9
$SPLINETYPE
 70
     6
  9
$SPLINESEGS
 70
     8
  9
$HANDSEED
  5
208
  9
$SURFTAB1
 70
     6
  9
$SURFTAB2
 70
     6
  9
$SURFTYPE
 70
     6
  9
$SURFU
 70
     6
  9
$SURFV
 70
     6
  9
$UCSBASE
  2

  9
$UCSNAME
  2

  9
$UCSORG
 10
0.0
 20
0.0
 30
0.0
  9
$UCSXDIR
 10
1.0
 20
0.0
 30
0.0
  9
$UCSYDIR
 10
0.0
 20
1.0
 30
0.0
  9
$UCSORTHOREF
  2

  9
$UCSORTHOVIEW
 70
     0
  9
$UCSORGTOP
 10
0.0
 20
0.0
 30
0.0
  9
$UCSORGBOTTOM
 10
0.0
 20
0.0
 30
0.0
  9
$UCSORGLEFT
 10
0.0
 20
0.0
 30
0.0
  9
$UCSORGRIGHT
 10
0.0
 20
0.0
 30
0.0
  9
$UCSORGFRONT
 10
0.0
 20
0.0
 30
0.0
  9
$UCSORGBACK
 10
0.0
 20
0.0
 30
0.0
  9
$PUCSBASE
  2

  9
$PUCSNAME
  2

  9
$PUCSORG
 10
0.0
 20
0.0
 30
0.0
  9
$PUCSXDIR
 10
1.0
 20
0.0
 30
0.0
  9
$PUCSYDIR
 10
0.0
 20
1.0
 30
0.0
  9
$PUCSORTHOREF
  2

  9
$PUCSORTHOVIEW
 70
     0
  9
$PUCSORGTOP
 10
0.0
 20
0.0
 30
0.0
  9
$PUCSORGBOTTOM
 10
0.0
 20
0.0
 30
0.0
  9
$PUCSORGLEFT
 10
0.0
 20
0.0
 30
0.0
  9
$PUCSORGRIGHT
 10
0.0
 20
0.0
 30
0.0
  9
$PUCSORGFRONT
 10
0.0
 20
0.0
 30
0.0
  9
$PUCSORGBACK
 10
0.0
 20
0.0
 30
0.0
  9
$USERI1
 70
     0
  9
$USERI2
 70
     0
  9
$USERI3
 70
     0
  9
$USERI4
 70
     0
  9
$USERI5
 70
     0
  9
$USERR1
 40
0.0
  9
$USERR2
 40
0.0
  9
$USERR3
 40
0.0
  9
$USERR4
 40
0.0
  9
$USERR5
 40
0.0
  9
$WORLDVIEW
 70
     1
  9
$SHADEDGE
 70
     3
  9
$SHADEDIF
 70
    70
  9
$TILEMODE
 70
     1
  9
$MAXACTVP
 70
    64
  9
$PINSBASE
 10
0.0
 20
0.0
 30
0.0
  9
$PLIMCHECK
 70
     0
  9
$PEXTMIN
 10
1.0000000000E+20
 20
1.0000000000E+20
 30
1.0000000000E+20
  9
$PEXTMAX
 10
-1.0000000000E+20
 20
-1.0000000000E+20
 30
-1.0000000000E+20
  9
$PLIMMIN
 10
0.0
 20
0.0
  9
$PLIMMAX
 10
420.0
 20
297.0
  9
$UNITMODE
 70
     0
  9
$VISRETAIN
 70
     1
  9
$PLINEGEN
 70
     0
  9
$PSLTSCALE
 70
     1
  9
$TREEDEPTH
 70
  3020
  9
$CMLSTYLE
  2
Standard
  9
$CMLJUST
 70
     0
  9
$CMLSCALE
 40
20.0
  9
$PROXYGRAPHICS
 70
     1
  9
$MEASUREMENT
 70
     1
  9
$CELWEIGHT
370
    -1
  9
$ENDCAPS
280
     0
  9
$JOINSTYLE
280
     0
  9
$LWDISPLAY
290
     1
  9
$INSUNITS
 70
     4
  9
$HYPERLINKBASE
  1

  9
$STYLESHEET
  1

  9
$XEDIT
290
     1
  9
$CEPSNTYPE
380
     0
  9
$PSTYLEMODE
290
     1
  9
$FINGERPRINTGUID
  2
{c2c883f8-f719-45f4-b15a-97830b9493f8}
  9
$VERSIONGUID
  2
{FAEB1C32-E019-11D5-929B-00C0DF256EC4}
  9
$EXTNAMES
290
     1
  9
$PSVPSCALE
 40
0.0
  9
$OLESTARTUP
290
     0
  9
$SORTENTS
280
   127
  9
$INDEXCTL
280
     0
  9
$HIDETEXT
280
     1
  9
$XCLIPFRAME
280
     2
  9
$HALOGAP
280
     0
  9
$OBSCOLOR
 70
   257
  9
$OBSLTYPE
280
     0
  9
$INTERSECTIONDISPLAY
280
     0
  9
$INTERSECTIONCOLOR
 70
   257
  9
$DIMASSOC
280
     2
  9
$PROJECTNAME
  1

  9
$CAMERADISPLAY
290
     0
  9
$LENSLENGTH
 40
50.0
  9
$CAMERAHEIGHT
 40
0.0
  9
$STEPSPERSEC
 40
2.0
  9
$STEPSIZE
 40
6.0
  9
$3DDWFPREC
 40
2.0
  9
$PSOLWIDTH
 40
5.0
  9
$PSOLHEIGHT
 40
80.0
  9
$LOFTANG1
 40
1.5707963268
  9
$LOFTANG2
 40
1.5707963268
  9
$LOFTMAG1
 40
0.0
  9
$LOFTMAG2
 40
0.0
  9
$LOFTPARAM
 70
     7
  9
$LOFTNORMALS
280
     1
  9
$LATITUDE
 40
37.795
  9
$LONGITUDE
 40
-122.394
  9
$NORTHDIRECTION
 40
0.0
  9
$TIMEZONE
 70
 -8000
  9
$LIGHTGLYPHDISPLAY
280
     1
  9
$TILEMODELIGHTSYNCH
280
     1
  9
$CMATERIAL
347
44
  9
$SOLIDHIST
280
     0
  9
$SHOWHIST
280
     1
  9
$DWFFRAME
280
     2
  9
$DGNFRAME
280
     2
  9
$REALWORLDSCALE
290
     1
  9
$INTERFERECOLOR
 62
   256
  9
$CSHADOW
280
     0
  9
$SHADOWPLANELOCATION
 40
0.0
  0
ENDSEC
  0
SECTION
  2
CLASSES
  0
CLASS
  1
ACDBDICTIONARYWDFLT
  2
AcDbDictionaryWithDefault
  3
ObjectDBX Classes
 90
        0
 91
        3
280
     0
281
     0
  0
CLASS
  1
VISUALSTYLE
  2
AcDbVisualStyle
  3
ObjectDBX Classes
 90
     4095
 91
        3
280
     0
281
     0
  0
CLASS
  1
MATERIAL
  2
AcDbMaterial
  3
ObjectDBX Classes
 90
     1153
 91
        3
280
     0
281
     0
  0
CLASS
  1
SCALE
  2
AcDbScale
  3
ObjectDBX Classes
 90
     1153
 91
        3
280
     0
281
     0
  0
CLASS
  1
TABLESTYLE
  2
AcDbTableStyle
  3
ObjectDBX Classes
 90
     4095
 91
        3
280
     0
281
     0
  0
CLASS
  1
MLEADERSTYLE
  2
AcDbMLeaderStyle
  3
ACDB_MLEADERSTYLE_CLASS
 90
     4095
 91
        3
280
     0
281
     0
  0
CLASS
  1
SUN
  2
AcDbSun
  3
SCENEOE
 90
     1153
 91
        3
280
     0
281
     0
  0
CLASS
  1
DICTIONARYVAR
  2
AcDbDictionaryVar
  3
ObjectDBX Classes
 90
        0
 91
        3
280
     0
281
     0
  0
CLASS
  1
CELLSTYLEMAP
  2
AcDbCellStyleMap
  3
ObjectDBX Classes
 90
     1152
 91
        3
280
     0
281
     0
  0
ENDSEC
  0
SECTION
  2
TABLES
  0
TABLE
  2
VPORT
  5
8
330
0
100
AcDbSymbolTable
 70
     1
  0
VPORT
  5
29
330
8
100
AcDbSymbolTableRecord
100
AcDbViewportTableRecord
  2
*Active
 70
     0
 10
0.0
 20
0.0
 11
1.0
 21
1.0
 12
105.0
 22
148.5
 13
0.0
 23
0.0
 14
10.0
 24
10.0
 15
10.0
 25
10.0
 16
0.0
 26
0.0
 36
1.0
 17
0.0
 27
0.0
 37
0.0
 40
297.0
 41
0.7070707071
 42
50.0
 43
0.0
 44
0.0
 50
0.0
 51
0.0
 71
     0
 72
  2000
 73
     1
 74
     3
 75
     0
 76
     0
 77
     0
 78
     0
281
     0
 65
     1
110
0.0
120
0.0
130
0.0
111
1.0
121
0.0
131
0.0
112
0.0
122
1.0
132
0.0
 79
     0
146
0.0
348
2F
 60
     3
 61
     5
292
     1
282
     1
141
0.0
142
0.0
 63
   250
361
6D
  0
ENDTAB
  0
TABLE
  2
LTYPE
  5
5
330
0
100
AcDbSymbolTable
 70
     8
  0
LTYPE
  5
14
330
5
100
AcDbSymbolTableRecord
100
AcDbLinetypeTableRecord
  2
ByBlock
 70
     0
  3

 72
    65
 73
     0
 40
0.0
  0
LTYPE
  5
15
330
5
100
AcDbSymbolTableRecord
100
AcDbLinetypeTableRecord
  2
ByLayer
 70
     0
  3

 72
    65
 73
     0
 40
0.0
  0
LTYPE
  5
16
330
5
100
AcDbSymbolTableRecord
100
AcDbLinetypeTableRecord
  2
Continuous
 70
     0
  3
Solid line
 72
    65
 73
     0
 40
0.0
  0
LTYPE
  5
6E
330
5
100
AcDbSymbolTableRecord
100
AcDbLinetypeTableRecord
  2
SLD-Durchgehend
 70
     0
  3
SolidWorks Line Style
 72
    65
 73
     0
 40
0.0
  0
LTYPE
  5
6F
330
5
100
AcDbSymbolTableRecord
100
AcDbLinetypeTableRecord
  2
SLD-Gestrichelt
 70
     0
  3
SolidWorks Line Style
 72
    65
 73
     2
 40
1.905
 49
1.27
 74
     0
 49
-0.635
 74
     0
  0
LTYPE
  5
70
330
5
100
AcDbSymbolTableRecord
100
AcDbLinetypeTableRecord
  2
SLD-Phantom
 70
     0
  3
SolidWorks Line Style
 72
    65
 73
     6
 40
12.7
 49
6.35
 74
     0
 49
-1.27
 74
     0
 49
1.27
 74
     0
 49
-1.27
 74
     0
 49
1.27
 74
     0
 49
-1.27
 74
     0
  0
LTYPE
  5
71
330
5
100
AcDbSymbolTableRecord
100
AcDbLinetypeTableRecord
  2
SLD-Kette
 70
     0
  3
SolidWorks Line Style
 72
    65
 73
     4
 40
10.16
 49
6.35
 74
     0
 49
-1.27
 74
     0
 49
1.27
 74
     0
 49
-1.27
 74
     0
  0
LTYPE
  5
72
330
5
100
AcDbSymbolTableRecord
100
AcDbLinetypeTableRecord
  2
SLD-Punktstrich
 70
     0
  3
SolidWorks Line Style
 72
    65
 73
     4
 40
19.05
 49
15.24
 74
     0
 49
-1.27
 74
     0
 49
1.27
 74
     0
 49
-1.27
 74
     0
  0
LTYPE
  5
73
330
5
100
AcDbSymbolTableRecord
100
AcDbLinetypeTableRecord
  2
SLD-Naht
 70
     0
  3
SolidWorks Line Style
 72
    65
 73
     2
 40
0.635
 49
0.0
 74
     0
 49
-0.635
 74
     0
  0
LTYPE
  5
74
330
5
100
AcDbSymbolTableRecord
100
AcDbLinetypeTableRecord
  2
SLD-Dicke-Dünne-Kette
 70
     0
  3
SolidWorks Line Style
 72
    65
 73
     4
 40
10.16
 49
6.35
 74
     0
 49
-1.27
 74
     0
 49
1.27
 74
     0
 49
-1.27
 74
     0
  0
ENDTAB
  0
TABLE
  2
LAYER
  5
2
330
0
100
AcDbSymbolTable
 70
     4
  0
LAYER
  5
10
330
2
100
AcDbSymbolTableRecord
100
AcDbLayerTableRecord
  2
0
 70
     0
 62
     7
  6
Continuous
370
    -3
390
F
347
46
  0
LAYER
  5
75
330
2
100
AcDbSymbolTableRecord
100
AcDbLayerTableRecord
  2
RAHMEN
 70
     0
 62
   179
  6
SLD-Durchgehend
370
    -3
390
F
347
46
  0
LAYER
  5
76
330
2
100
AcDbSymbolTableRecord
100
AcDbLayerTableRecord
  2
KOPF
 70
     0
 62
     7
  6
SLD-Durchgehend
370
    -3
390
F
347
46
  0
LAYER
  5
77
330
2
100
AcDbSymbolTableRecord
100
AcDbLayerTableRecord
  2
ZEICHNUNG
 70
     0
 62
     7
  6
SLD-Durchgehend
370
    -3
390
F
347
46
  0
ENDTAB
  0
TABLE
  2
STYLE
  5
3
330
0
100
AcDbSymbolTable
 70
     1
  0
STYLE
  5
11
330
3
100
AcDbSymbolTableRecord
100
AcDbTextStyleTableRecord
  2
STANDARD
 70
     0
 40
0.0
 41
1.0
 50
0.0
 71
     0
 42
3.5
  3
GOTHIC.TTF
  4

1001
ACAD
1000
CENTURY GOTHIC
1071
       34
  0
ENDTAB
  0
TABLE
  2
VIEW
  5
6
330
0
100
AcDbSymbolTable
 70
     0
  0
ENDTAB
  0
TABLE
  2
UCS
  5
7
330
0
100
AcDbSymbolTable
 70
     0
  0
ENDTAB
  0
TABLE
  2
APPID
  5
9
330
0
100
AcDbSymbolTable
 70
     1
  0
APPID
  5
12
330
9
100
AcDbSymbolTableRecord
100
AcDbRegAppTableRecord
  2
ACAD
 70
     0
  0
ENDTAB
  0
TABLE
  2
DIMSTYLE
  5
A
330
0
100
AcDbSymbolTable
 70
     1
100
AcDbDimStyleTable
  0
DIMSTYLE
105
27
330
A
100
AcDbSymbolTableRecord
100
AcDbDimStyleTableRecord
  2
ISO-25
 70
     0
 41
2.5
 42
0.625
 43
3.75
 44
1.25
 73
     0
 74
     0
 77
     1
 78
     8
140
2.5
141
2.5
143
0.0393700787
147
0.625
171
     3
172
     1
178
     0
271
     2
272
     2
274
     3
278
    44
283
     0
284
     8
340
11
  0
ENDTAB
  0
TABLE
  2
BLOCK_RECORD
  5
1
330
0
100
AcDbSymbolTable
 70
     2
  0
BLOCK_RECORD
  5
1F
330
1
100
AcDbSymbolTableRecord
100
AcDbBlockTableRecord
  2
*Model_Space
340
22
 70
     0
280
     1
281
     0
  0
BLOCK_RECORD
  5
1B
330
1
100
AcDbSymbolTableRecord
100
AcDbBlockTableRecord
  2
*Paper_Space
340
1E
 70
     0
280
     1
281
     0
  0
BLOCK_RECORD
  5
23
330
1
100
AcDbSymbolTableRecord
100
AcDbBlockTableRecord
  2
*Paper_Space0
340
26
 70
     0
280
     1
281
     0
  0
BLOCK_RECORD
  5
78
330
1
100
AcDbSymbolTableRecord
100
AcDbBlockTableRecord
  2
Block2
340
0
 70
     0
280
     1
281
     0
  0
ENDTAB
  0
ENDSEC
  0
SECTION
  2
BLOCKS
  0
BLOCK
  5
20
330
1F
100
AcDbEntity
  8
0
100
AcDbBlockBegin
  2
*Model_Space
 70
     0
 10
0.0
 20
0.0
 30
0.0
  3
*Model_Space
  1

  0
ENDBLK
  5
21
330
1F
100
AcDbEntity
  8
0
100
AcDbBlockEnd
  0
BLOCK
  5
1C
330
1B
100
AcDbEntity
 67
     1
  8
0
100
AcDbBlockBegin
  2
*Paper_Space
 70
     0
 10
0.0
 20
0.0
 30
0.0
  3
*Paper_Space
  1

  0
ENDBLK
  5
1D
330
1B
100
AcDbEntity
 67
     1
  8
0
100
AcDbBlockEnd
  0
BLOCK
  5
24
330
23
100
AcDbEntity
  8
0
100
AcDbBlockBegin
  2
*Paper_Space0
 70
     0
 10
0.0
 20
0.0
 30
0.0
  3
*Paper_Space0
  1

  0
ENDBLK
  5
25
330
23
100
AcDbEntity
  8
0
100
AcDbBlockEnd
  0
BLOCK
  5
79
330
78
100
AcDbEntity
  8
0
100
AcDbBlockBegin
  2
Block2
 70
     0
 10
0.0
 20
0.0
 30
0.0
  3
Block2
  1

  0
LINE
  5
7B
330
78
100
AcDbEntity
  8
0
  6
SLD-Durchgehend
 62
     7
370
    18
100
AcDbLine
 10
232.946671374
 20
51.7797156982
 30
0.0
 11
232.9472759882
 21
51.7797156982
 31
0.0
  0
LINE
  5
7C
330
78
100
AcDbEntity
  8
0
  6
SLD-Durchgehend
 62
     7
370
    18
100
AcDbLine
 10
233.6727459183
 20
55.2624953613
 30
0.0
 11
232.946671374
 21
55.2624953613
 31
0.0
  0
LINE
  5
7D
330
78
100
AcDbEntity
  8
0
  6
SLD-Durchgehend
 62
     7
370
    18
100
AcDbLine
 10
253.2143962099
 20
49.5548695882
 30
0.0
 11
253.2143962099
 21
52.1631754964
 31
0.0
  0
LINE
  5
7E
330
78
100
AcDbEntity
  8
0
  6
SLD-Durchgehend
 62
     7
370
    18
100
AcDbLine
 10
264.9174441429
 20
55.2308538818
 30
0.0
 11
264.9174441429
 21
49.5548695882
 31
0.0
  0
LINE
  5
7F
330
78
100
AcDbEntity
  8
0
  6
SLD-Durchgehend
 62
     7
370
    18
100
AcDbLine
 10
252.5518733421
 20
49.5548695882
 30
0.0
 11
253.2143962099
 21
49.5548695882
 31
0.0
  0
LINE
  5
80
330
78
100
AcDbEntity
  8
0
  6
SLD-Durchgehend
 62
     7
370
    18
100
AcDbLine
 10
249.836685069
 20
49.4456359456
 30
0.0
 11
249.841521983
 21
49.4456359456
 31
0.0
  0
LINE
  5
81
330
78
100
AcDbEntity
  8
0
  6
SLD-Durchgehend
 62
     7
370
    18
100
AcDbLine
 10
259.9476493024
 20
53.0527646077
 30
0.0
 11
259.9116411643
 21
53.1341188151
 31
0.0
  0
LINE
  5
82
330
78
100
AcDbEntity
  8
0
  6
SLD-Durchgehend
 62
     7
370
    18
100
AcDbLine
 10
267.7771352236
 20
49.5548695882
 30
0.0
 11
268.4404642438
 21
49.5548695882
 31
0.0
  0
LINE
  5
83
330
78
100
AcDbEntity
  8
0
  6
SLD-Durchgehend
 62
     7
370
    18
100
AcDbLine
 10
233.6739551468
 20
51.7216727295
 30
0.0
 11
233.6727459183
 21
51.7216727295
 31
0.0
  0
LINE
  5
84
330
78
100
AcDbEntity
  8
0
  6
SLD-Durchgehend
 62
     7
370
    18
100
AcDbLine
 10
265.579832652
 20
49.5548695882
 30
0.0
 11
265.579832652
 21
52.1637129313
 31
0.0
  0
LINE
  5
85
330
78
100
AcDbEntity
  8
0
  6
SLD-Durchgehend
 62
     7
370
    18
100
AcDbLine
 10
251.7394061383
 20
50.8797809652
 30
0.0
 11
251.7625830182
 21
50.954350057
 31
0.0
  0
LINE
  5
86
330
78
100
AcDbEntity
  8
0
  6
SLD-Durchgehend
 62
     7
370
    18
100
AcDbLine
 10
259.2890228375
 20
53.0527646077
 30
0.0
 11
259.9476493024
 21
53.0527646077
 31
0.0
  0
LINE
  5
87
330
78
100
AcDbEntity
  8
0
  6
SLD-Durchgehend
 62
     7
370
    18
100
AcDbLine
 10
233.6727459183
 20
51.7216727295
 30
0.0
 11
233.6727459183
 21
55.2624953613
 31
0.0
  0
LINE
  5
88
330
78
100
AcDbEntity
  8
0
  6
SLD-Durchgehend
 62
     7
370
    18
100
AcDbLine
 10
232.946671374
 20
55.2624953613
 30
0.0
 11
232.946671374
 21
51.7797156982
 31
0.0
  0
LINE
  5
89
330
78
100
AcDbEntity
  8
0
  6
SLD-Durchgehend
 62
     7
370
    18
100
AcDbLine
 10
276.3746954633
 20
50.0044338772
 30
0.0
 11
276.3746599345
 21
49.5548695882
 31
0.0
  0
LINE
  5
8A
330
78
100
AcDbEntity
  8
0
  6
SLD-Durchgehend
 62
     7
370
    18
100
AcDbLine
 10
267.7771352236
 20
52.4097237549
 30
0.0
 11
267.7771352236
 21
49.5548695882
 31
0.0
  0
LINE
  5
8B
330
78
100
AcDbEntity
  8
0
  6
SLD-Durchgehend
 62
     7
370
    18
100
AcDbLine
 10
279.6434249755
 20
53.6669183209
 30
0.0
 11
279.6434249755
 21
54.0432571068
 31
0.0
  0
LINE
  5
8C
330
78
100
AcDbEntity
  8
0
  6
SLD-Durchgehend
 62
     7
370
    18
100
AcDbLine
 10
255.4121690371
 20
49.5548695882
 30
0.0
 11
256.0747590843
 21
49.5548695882
 31
0.0
  0
LINE
  5
8D
330
78
100
AcDbEntity
  8
0
  6
SLD-Durchgehend
 62
     7
370
    18
100
AcDbLine
 10
240.2502572939
 20
49.4456359456
 30
0.0
 11
240.252138316
 21
49.4456359456
 31
0.0
  0
LINE
  5
8E
330
78
100
AcDbEntity
  8
0
  6
SLD-Durchgehend
 62
     7
370
    18
100
AcDbLine
 10
247.024825694
 20
51.7258378499
 30
0.0
 11
247.0260349225
 21
51.7258378499
 31
0.0
  0
LINE
  5
8F
330
78
100
AcDbEntity
  8
0
  6
SLD-Durchgehend
 62
     7
370
    18
100
AcDbLine
 10
253.2143962099
 20
54.0432571208
 30
0.0
 11
252.5518733421
 21
54.0432571208
 31
0.0
  0
LINE
  5
90
330
78
100
AcDbEntity
  8
0
  6
SLD-Durchgehend
 62
     7
370
    18
100
AcDbLine
 10
258.3740399274
 20
54.1393236084
 30
0.0
 11
258.3170718284
 21
54.1387861735
 31
0.0
  0
LINE
  5
91
330
78
100
AcDbEntity
  8
0
  6
SLD-Durchgehend
 62
     7
370
    18
100
AcDbLine
 10
278.710930268
 20
53.4717792044
 30
0.0
 11
276.3746954633
 21
50.0044338772
 31
0.0
  0
LINE
  5
92
330
78
100
AcDbEntity
  8
0
  6
SLD-Durchgehend
 62
     7
370
    18
100
AcDbLine
 10
263.7180238141
 20
52.978397054
 30
0.0
 11
264.4359024762
 21
52.9736944987
 31
0.0
  0
LINE
  5
93
330
78
100
AcDbEntity
  8
0
  6
SLD-Durchgehend
 62
     7
370
    18
100
AcDbLine
 10
279.6776899522
 20
50.1267003034
 30
0.0
 11
277.2619165934
 21
50.1267003034
 31
0.0
  0
LINE
  5
94
330
78
100
AcDbEntity
  8
0
  6
SLD-Durchgehend
 62
     7
370
    18
100
AcDbLine
 10
244.9913735862
 20
49.4456359456
 30
0.0
 11
244.9984945986
 21
49.4456359456
 31
0.0
  0
LINE
  5
95
330
78
100
AcDbEntity
  8
0
  6
SLD-Durchgehend
 62
     7
370
    18
100
AcDbLine
 10
279.6434249755
 20
54.0432571068
 30
0.0
 11
276.3750146496
 21
54.0432571068
 31
0.0
  0
LINE
  5
96
330
78
100
AcDbEntity
  8
0
  6
SLD-Durchgehend
 62
     7
370
    18
100
AcDbLine
 10
279.6774157734
 20
49.5548695882
 30
0.0
 11
279.6776899522
 21
50.1267003034
 31
0.0
  0
LINE
  5
97
330
78
100
AcDbEntity
  8
0
  6
SLD-Durchgehend
 62
     7
370
    18
100
AcDbLine
 10
264.4359024762
 20
52.9736944987
 30
0.0
 11
264.4000286969
 21
53.055586141
 31
0.0
  0
LINE
  5
98
330
78
100
AcDbEntity
  8
0
  6
SLD-Durchgehend
 62
     7
370
    18
100
AcDbLine
 10
277.2619165934
 20
50.1267003034
 30
0.0
 11
279.6434249755
 21
53.6669183209
 31
0.0
  0
LINE
  5
99
330
78
100
AcDbEntity
  8
0
  6
SLD-Durchgehend
 62
     7
370
    18
100
AcDbLine
 10
276.3746599345
 20
49.5548695882
 30
0.0
 11
279.6774157734
 21
49.5548695882
 31
0.0
  0
LINE
  5
9A
330
78
100
AcDbEntity
  8
0
  6
SLD-Durchgehend
 62
     7
370
    18
100
AcDbLine
 10
253.2143962099
 20
53.5326939697
 30
0.0
 11
253.2143962099
 21
54.0432571208
 31
0.0
  0
LINE
  5
9B
330
78
100
AcDbEntity
  8
0
  6
SLD-Durchgehend
 62
     7
370
    18
100
AcDbLine
 10
276.3749694859
 20
53.4717792044
 30
0.0
 11
276.3750146496
 21
54.0432571068
 31
0.0
  0
LINE
  5
9C
330
78
100
AcDbEntity
  8
0
  6
SLD-Durchgehend
 62
     7
370
    18
100
AcDbLine
 10
264.9174441429
 20
49.5548695882
 30
0.0
 11
265.579832652
 21
49.5548695882
 31
0.0
  0
LINE
  5
9D
330
78
100
AcDbEntity
  8
0
  6
SLD-Durchgehend
 62
     7
370
    18
100
AcDbLine
 10
264.4688203636
 20
50.7029648844
 30
0.0
 11
264.4999915875
 21
50.7819678141
 31
0.0
  0
LINE
  5
9E
330
78
100
AcDbEntity
  8
0
  6
SLD-Durchgehend
 62
     7
370
    18
100
AcDbLine
 10
276.3749694859
 20
53.4717792044
 30
0.0
 11
278.710930268
 21
53.4717792044
 31
0.0
  0
LINE
  5
9F
330
78
100
AcDbEntity
  8
0
  6
SLD-Durchgehend
 62
     7
370
    18
100
AcDbLine
 10
259.272227997
 20
53.0812486572
 30
0.0
 11
259.2890228375
 21
53.0527646077
 31
0.0
  0
LINE
  5
A0
330
78
100
AcDbEntity
  8
0
  6
SLD-Durchgehend
 62
     7
370
    18
100
AcDbLine
 10
251.8036296083
 20
51.7591588135
 30
0.0
 11
251.8015470481
 21
51.8196202393
 31
0.0
  0
LINE
  5
A1
330
78
100
AcDbEntity
  8
0
  6
SLD-Durchgehend
 62
     7
370
    18
100
AcDbLine
 10
256.0747590843
 20
49.5548695882
 30
0.0
 11
256.0747590843
 21
52.5733055013
 31
0.0
  0
LINE
  5
A2
330
78
100
AcDbEntity
  8
0
  6
SLD-Durchgehend
 62
     7
370
    18
100
AcDbLine
 10
274.3795206485
 20
53.4714263916
 30
0.0
 11
274.3795206485
 21
50.2778538818
 31
0.0
  0
LINE
  5
A3
330
78
100
AcDbEntity
  8
0
  6
SLD-Durchgehend
 62
     7
370
    18
100
AcDbLine
 10
275.0414733219
 20
55.2308538818
 30
0.0
 11
274.3795206485
 21
55.2308538818
 31
0.0
  0
LINE
  5
A4
330
78
100
AcDbEntity
  8
0
  6
SLD-Durchgehend
 62
     7
370
    18
100
AcDbLine
 10
275.0421778775
 20
53.4714263997
 30
0.0
 11
275.7691929911
 21
53.4714263997
 31
0.0
  0
LINE
  5
A5
330
78
100
AcDbEntity
  8
0
  6
SLD-Durchgehend
 62
     7
370
    18
100
AcDbLine
 10
249.8141799827
 20
50.071881958
 30
0.0
 11
249.8012143658
 21
50.0721506755
 31
0.0
  0
LINE
  5
A6
330
78
100
AcDbEntity
  8
0
  6
SLD-Durchgehend
 62
     7
370
    18
100
AcDbLine
 10
256.6612349143
 20
50.8026590576
 30
0.0
 11
256.684747691
 21
50.7275525309
 31
0.0
  0
LINE
  5
A7
330
78
100
AcDbEntity
  8
0
  6
SLD-Durchgehend
 62
     7
370
    18
100
AcDbLine
 10
247.0260349225
 20
51.7258378499
 30
0.0
 11
247.0260349225
 21
55.2308538818
 31
0.0
  0
LINE
  5
A8
330
78
100
AcDbEntity
  8
0
  6
SLD-Durchgehend
 62
     7
370
    18
100
AcDbLine
 10
255.4121690371
 20
52.40918632
 30
0.0
 11
255.4121690371
 21
49.5548695882
 31
0.0
  0
LINE
  5
A9
330
78
100
AcDbEntity
  8
0
  6
SLD-Durchgehend
 62
     7
370
    18
100
AcDbLine
 10
263.7743201194
 20
50.7822365316
 30
0.0
 11
263.7591375836
 21
50.7491842855
 31
0.0
  0
LINE
  5
AA
330
78
100
AcDbEntity
  8
0
  6
SLD-Durchgehend
 62
     7
370
    18
100
AcDbLine
 10
265.579832652
 20
53.5253714193
 30
0.0
 11
265.579832652
 21
55.2308538818
 31
0.0
  0
LINE
  5
AB
330
78
100
AcDbEntity
  8
0
  6
SLD-Durchgehend
 62
     7
370
    18
100
AcDbLine
 10
275.0421778775
 20
50.6422347493
 30
0.0
 11
275.0421778775
 21
53.4714263997
 31
0.0
  0
LINE
  5
AC
330
78
100
AcDbEntity
  8
0
  6
SLD-Durchgehend
 62
     7
370
    18
100
AcDbLine
 10
251.0529674176
 20
52.3307208252
 30
0.0
 11
248.4766388857
 21
52.3307208252
 31
0.0
  0
LINE
  5
AD
330
78
100
AcDbEntity
  8
0
  6
SLD-Durchgehend
 62
     7
370
    18
100
AcDbLine
 10
265.579832652
 20
55.2308538818
 30
0.0
 11
264.9174441429
 21
55.2308538818
 31
0.0
  0
LINE
  5
AE
330
78
100
AcDbEntity
  8
0
  6
SLD-Durchgehend
 62
     7
370
    18
100
AcDbLine
 10
264.4999915875
 20
50.7819678141
 30
0.0
 11
263.7743201194
 21
50.7822365316
 31
0.0
  0
LINE
  5
AF
330
78
100
AcDbEntity
  8
0
  6
SLD-Durchgehend
 62
     7
370
    18
100
AcDbLine
 10
275.7691929394
 20
49.5336409268
 30
0.0
 11
275.7691929394
 21
50.0978132087
 31
0.0
  0
LINE
  5
B0
330
78
100
AcDbEntity
  8
0
  6
SLD-Durchgehend
 62
     7
370
    18
100
AcDbLine
 10
274.3795206485
 20
55.2308538818
 30
0.0
 11
274.3795206485
 21
54.0429884033
 31
0.0
  0
LINE
  5
B1
330
78
100
AcDbEntity
  8
0
  6
SLD-Durchgehend
 62
     7
370
    18
100
AcDbLine
 10
274.3795206485
 20
54.0429884033
 30
0.0
 11
273.7919506049
 21
54.0429884033
 31
0.0
  0
LINE
  5
B2
330
78
100
AcDbEntity
  8
0
  6
SLD-Durchgehend
 62
     7
370
    18
100
AcDbLine
 10
275.0419489884
 20
54.0430117619
 30
0.0
 11
275.0414733219
 21
55.2308538818
 31
0.0
  0
LINE
  5
B3
330
78
100
AcDbEntity
  8
0
  6
SLD-Durchgehend
 62
     7
370
    18
100
AcDbLine
 10
246.3676771751
 20
55.2308538818
 30
0.0
 11
246.3676771751
 21
53.54109139
 31
0.0
  0
LINE
  5
B4
330
78
100
AcDbEntity
  8
0
  6
SLD-Durchgehend
 62
     7
370
    18
100
AcDbLine
 10
248.4676368512
 20
51.7591588135
 30
0.0
 11
251.8036296083
 21
51.7591588135
 31
0.0
  0
LINE
  5
B5
330
78
100
AcDbEntity
  8
0
  6
SLD-Durchgehend
 62
     7
370
    18
100
AcDbLine
 10
273.7919506049
 20
53.4714263916
 30
0.0
 11
274.3795206485
 21
53.4714263916
 31
0.0
  0
LINE
  5
B6
330
78
100
AcDbEntity
  8
0
  6
SLD-Durchgehend
 62
     7
370
    18
100
AcDbLine
 10
273.7919506049
 20
54.0429884033
 30
0.0
 11
273.7919506049
 21
53.4714263916
 31
0.0
  0
LINE
  5
B7
330
78
100
AcDbEntity
  8
0
  6
SLD-Durchgehend
 62
     7
370
    18
100
AcDbLine
 10
251.0299248964
 20
50.954350057
 30
0.0
 11
251.0163546653
 21
50.9159234619
 31
0.0
  0
LINE
  5
B8
330
78
100
AcDbEntity
  8
0
  6
SLD-Durchgehend
 62
     7
370
    18
100
AcDbLine
 10
275.7691929911
 20
53.4714263997
 30
0.0
 11
275.7689641251
 21
54.0429543063
 31
0.0
  0
LINE
  5
B9
330
78
100
AcDbEntity
  8
0
  6
SLD-Durchgehend
 62
     7
370
    18
100
AcDbLine
 10
252.5518733421
 20
54.0432571208
 30
0.0
 11
252.5518733421
 21
49.5548695882
 31
0.0
  0
LINE
  5
BA
330
78
100
AcDbEntity
  8
0
  6
SLD-Durchgehend
 62
     7
370
    18
100
AcDbLine
 10
268.4404642438
 20
49.5548695882
 30
0.0
 11
268.4404642438
 21
52.5733055013
 31
0.0
  0
LINE
  5
BB
330
78
100
AcDbEntity
  8
0
  6
SLD-Durchgehend
 62
     7
370
    18
100
AcDbLine
 10
275.7689641251
 20
54.0429543063
 30
0.0
 11
275.0419489884
 21
54.0430117619
 31
0.0
  0
LINE
  5
BC
330
78
100
AcDbEntity
  8
0
  6
SLD-Durchgehend
 62
     7
370
    18
100
AcDbLine
 10
263.7028412783
 20
53.0121882731
 30
0.0
 11
263.7180238141
 21
52.978397054
 31
0.0
  0
LINE
  5
BD
330
78
100
AcDbEntity
  8
0
  6
SLD-Durchgehend
 62
     7
370
    18
100
AcDbLine
 10
258.3170718284
 20
54.1387861735
 30
0.0
 11
258.3170718284
 21
54.1375097656
 31
0.0
  0
LINE
  5
BE
330
78
100
AcDbEntity
  8
0
  6
SLD-Durchgehend
 62
     7
370
    18
100
AcDbLine
 10
257.3349095563
 20
50.8026590576
 30
0.0
 11
256.6612349143
 21
50.8026590576
 31
0.0
  0
LINE
  5
BF
330
78
100
AcDbEntity
  8
0
  6
SLD-Durchgehend
 62
     7
370
    18
100
AcDbLine
 10
257.3465987652
 20
50.7604704183
 30
0.0
 11
257.3349095563
 21
50.8026590576
 31
0.0
  0
LINE
  5
C0
330
78
100
AcDbEntity
  8
0
  6
SLD-Durchgehend
 62
     7
370
    18
100
AcDbLine
 10
271.1938845969
 20
49.4456359307
 30
0.0
 11
271.1949594667
 21
49.4456359307
 31
0.0
  0
LINE
  5
C1
330
78
100
AcDbEntity
  8
0
  6
SLD-Durchgehend
 62
     7
370
    18
100
AcDbLine
 10
262.5728844098
 20
49.4456359456
 30
0.0
 11
262.5853797711
 21
49.4456359456
 31
0.0
  0
LINE
  5
C2
330
78
100
AcDbEntity
  8
0
  6
SLD-Durchgehend
 62
     7
370
    18
100
AcDbLine
 10
247.0260349225
 20
55.2308538818
 30
0.0
 11
246.3676771751
 21
55.2308538818
 31
0.0
  0
LINE
  5
C3
330
78
100
AcDbEntity
  8
0
  6
SLD-Durchgehend
 62
     7
370
    18
100
AcDbLine
 10
258.3976870628
 20
49.4356934001
 30
0.0
 11
258.4476685081
 21
49.436230835
 31
0.0
  0
LINE
  5
C4
330
78
100
AcDbEntity
  8
0
  6
SLD-Durchgehend
 62
     7
370
    18
100
AcDbLine
 10
248.4677712099
 20
51.6989661051
 30
0.0
 11
248.4676368512
 21
51.7591588135
 31
0.0
  0
LINE
  5
C5
330
78
100
AcDbEntity
  8
0
  6
SLD-Durchgehend
 62
     7
370
    18
100
AcDbLine
 10
251.7625830182
 20
50.954350057
 30
0.0
 11
251.0299248964
 21
50.954350057
 31
0.0
  0
LINE
  5
C6
330
78
100
AcDbEntity
  8
0
  6
SLD-Durchgehend
 62
     7
370
    18
100
AcDbLine
 10
272.5521168952
 20
54.0432571195
 30
0.0
 11
272.5521168952
 21
53.6264091784
 31
0.0
  0
LINE
  5
C7
330
78
100
AcDbEntity
  8
0
  6
SLD-Durchgehend
 62
     7
370
    18
100
AcDbLine
 10
269.7885180068
 20
51.7991976678
 30
0.0
 11
269.7882492894
 21
51.7991976678
 31
0.0
  0
LINE
  5
C8
330
78
100
AcDbEntity
  8
0
  6
SLD-Durchgehend
 62
     7
370
    18
100
AcDbLine
 10
272.6762643972
 20
49.5548695882
 30
0.0
 11
273.2284787527
 21
49.5548695882
 31
0.0
  0
LINE
  5
C9
330
78
100
AcDbEntity
  8
0
  6
SLD-Durchgehend
 62
     7
370
    18
100
AcDbLine
 10
272.5890655808
 20
50.0075241284
 30
0.0
 11
272.6762643972
 21
49.5548695882
 31
0.0
  0
LINE
  5
CA
330
78
100
AcDbEntity
  8
0
  6
SLD-Durchgehend
 62
     7
370
    18
100
AcDbLine
 10
273.2284787527
 20
49.5548695882
 30
0.0
 11
273.2284787527
 21
54.0432571195
 31
0.0
  0
LINE
  5
CB
330
78
100
AcDbEntity
  8
0
  6
SLD-Durchgehend
 62
     7
370
    18
100
AcDbLine
 10
272.5521168952
 20
54.0432571195
 30
0.0
 11
273.2284787527
 21
54.0432571195
 31
0.0
  0
SPLINE
  5
CC
330
78
100
AcDbEntity
  8
0
  6
SLD-Durchgehend
 62
     8
420
  8421504
370
     0
100
AcDbSpline
210
0.0
220
0.0
230
1.0
 70
     8
 71
     3
 72
     8
 73
     4
 74
     0
 42
0.00000001
 43
0.00000001
 40
23.0
 40
23.0
 40
23.0
 40
23.0
 40
24.0
 40
24.0
 40
24.0
 40
24.0
 10
260.0939659527489
 20
50.82039440917971
 30
0.0
 10
260.0961156923323
 20
51.7381988525391
 30
0.0
 10
259.4008092958479
 20
51.98891223144533
 30
0.0
 10
258.7550812685041
 20
52.13281042480472
 30
0.0
  0
SPLINE
  5
CD
330
78
100
AcDbEntity
  8
0
  6
SLD-Durchgehend
 62
     8
420
  8421504
370
     0
100
AcDbSpline
210
0.0
220
0.0
230
1.0
 70
     8
 71
     3
 72
     8
 73
     4
 74
     0
 42
0.00000001
 43
0.00000001
 40
3.0
 40
3.0
 40
3.0
 40
3.0
 40
4.0
 40
4.0
 40
4.0
 40
4.0
 10
246.363243337189
 20
51.79919771321618
 30
0.0
 10
246.3701628114729
 20
50.59198457845055
 30
0.0
 10
245.7664218853661
 20
50.07403169759117
 30
0.0
 10
244.9913735862125
 20
50.07188195800784
 30
0.0
  0
SPLINE
  5
CE
330
78
100
AcDbEntity
  8
0
  6
SLD-Durchgehend
 62
     8
420
  8421504
370
     0
100
AcDbSpline
210
0.0
220
0.0
230
1.0
 70
     8
 71
     3
 72
     8
 73
     4
 74
     0
 42
0.00000001
 43
0.00000001
 40
1.0
 40
1.0
 40
1.0
 40
1.0
 40
2.0
 40
2.0
 40
2.0
 40
2.0
 10
249.7665498150536
 20
54.15289383951826
 30
0.0
 10
249.2061395774234
 20
54.15289383951826
 30
0.0
 10
248.694904632762
 20
53.94645166015629
 30
0.0
 10
248.3258883974104
 20
53.54626420084637
 30
0.0
  0
SPLINE
  5
CF
330
78
100
AcDbEntity
  8
0
  6
SLD-Durchgehend
 62
     8
420
  8421504
370
     0
100
AcDbSpline
210
0.0
220
0.0
230
1.0
 70
     8
 71
     3
 72
     8
 73
     4
 74
     0
 42
0.00000001
 43
0.00000001
 40
5.0
 40
5.0
 40
5.0
 40
5.0
 40
6.0
 40
6.0
 40
6.0
 40
6.0
 10
232.9472759882492
 20
51.77971569824223
 30
0.0
 10
232.9535908482752
 20
50.25501289876306
 30
0.0
 10
233.8585640334966
 20
49.43676826985681
 30
0.0
 10
234.9778393834315
 20
49.43676826985681
 30
0.0
  0
SPLINE
  5
D0
330
78
100
AcDbEntity
  8
0
  6
SLD-Durchgehend
 62
     8
420
  8421504
370
     0
100
AcDbSpline
210
0.0
220
0.0
230
1.0
 70
     8
 71
     3
 72
     8
 73
     4
 74
     0
 42
0.00000001
 43
0.00000001
 40
12.0
 40
12.0
 40
12.0
 40
12.0
 40
13.0
 40
13.0
 40
13.0
 40
13.0
 10
268.0578105979312
 20
53.71165979003909
 30
0.0
 10
267.7943331402489
 20
53.99354439290368
 30
0.0
 10
267.3903164573062
 20
54.15289383951826
 30
0.0
 10
266.842804657176
 20
54.15289383951826
 30
0.0
  0
SPLINE
  5
D1
330
78
100
AcDbEntity
  8
0
  6
SLD-Durchgehend
 62
     8
420
  8421504
370
     0
100
AcDbSpline
210
0.0
220
0.0
230
1.0
 70
     8
 71
     3
 72
     8
 73
     4
 74
     0
 42
0.00000001
 43
0.00000001
 40
9.0
 40
9.0
 40
9.0
 40
9.0
 40
10.0
 40
10.0
 40
10.0
 40
10.0
 10
260.5381558941552
 20
51.799735148112
 30
0.0
 10
260.5538758648583
 20
50.3993141682943
 30
0.0
 10
261.4438680523583
 20
49.44469543457033
 30
0.0
 10
262.5728844097802
 20
49.44563594563805
 30
0.0
  0
SPLINE
  5
D2
330
78
100
AcDbEntity
  8
0
  6
SLD-Durchgehend
 62
     8
420
  8421504
370
     0
100
AcDbSpline
210
0.0
220
0.0
230
1.0
 70
     8
 71
     3
 72
     8
 73
     4
 74
     0
 42
0.00000001
 43
0.00000001
 40
3.0
 40
3.0
 40
3.0
 40
3.0
 40
4.0
 40
4.0
 40
4.0
 40
4.0
 10
242.9563763531395
 20
51.79919771321618
 30
0.0
 10
242.9563763531395
 20
51.04101143391929
 30
0.0
 10
243.1810913189599
 20
50.45144535319012
 30
0.0
 10
243.5503762717593
 20
50.05172814941409
 30
0.0
  0
SPLINE
  5
D3
330
78
100
AcDbEntity
  8
0
  6
SLD-Durchgehend
 62
     8
420
  8421504
370
     0
100
AcDbSpline
210
0.0
220
0.0
230
1.0
 70
     8
 71
     3
 72
     8
 73
     4
 74
     0
 42
0.00000001
 43
0.00000001
 40
0.0
 40
0.0
 40
0.0
 40
0.0
 40
1.0
 40
1.0
 40
1.0
 40
1.0
 10
246.3676771750796
 20
53.54109138997399
 30
0.0
 10
246.0469629009911
 20
53.931269124349
 30
0.0
 10
245.5208141379703
 20
54.15289383951826
 30
0.0
 10
244.9913735862125
 20
54.15289383951826
 30
0.0
  0
SPLINE
  5
D4
330
78
100
AcDbEntity
  8
0
  6
SLD-Durchgehend
 62
     8
420
  8421504
370
     0
100
AcDbSpline
210
0.0
220
0.0
230
1.0
 70
     8
 71
     3
 72
    11
 73
     7
 74
     0
 42
0.00000001
 43
0.00000001
 40
1.0
 40
1.0
 40
1.0
 40
1.0
 40
2.0
 40
2.0
 40
2.0
 40
3.0
 40
3.0
 40
3.0
 40
3.0
 10
235.7273595250331
 20
53.54102421061203
 30
0.0
 10
236.3061097284836
 20
53.32248974609381
 30
0.0
 10
236.7050879592778
 20
52.70645499674485
 30
0.0
 10
236.7050879592778
 20
51.7957043863933
 30
0.0
 10
236.7050879592778
 20
50.87816866048182
 30
0.0
 10
236.3067815221034
 20
50.26656774902347
 30
0.0
 10
235.7287031122727
 20
50.04930969238286
 30
0.0
  0
SPLINE
  5
D5
330
78
100
AcDbEntity
  8
0
  6
SLD-Durchgehend
 62
     8
420
  8421504
370
     0
100
AcDbSpline
210
0.0
220
0.0
230
1.0
 70
     8
 71
     3
 72
     8
 73
     4
 74
     0
 42
0.00000001
 43
0.00000001
 40
1.0
 40
1.0
 40
1.0
 40
1.0
 40
2.0
 40
2.0
 40
2.0
 40
2.0
 10
249.7665498150536
 20
53.52637910970056
 30
0.0
 10
250.6097851666161
 20
53.52456526692713
 30
0.0
 10
250.922908172801
 20
52.93708174641929
 30
0.0
 10
251.0529674175927
 20
52.33072082519535
 30
0.0
  0
SPLINE
  5
D6
330
78
100
AcDbEntity
  8
0
  6
SLD-Durchgehend
 62
     8
420
  8421504
370
     0
100
AcDbSpline
210
0.0
220
0.0
230
1.0
 70
     8
 71
     3
 72
     8
 73
     4
 74
     0
 42
0.00000001
 43
0.00000001
 40
6.0
 40
6.0
 40
6.0
 40
6.0
 40
7.0
 40
7.0
 40
7.0
 40
7.0
 10
234.9778393834315
 20
49.43676826985681
 30
0.0
 10
235.0608058954758
 20
49.43676826985681
 30
0.0
 10
235.14377240752
 20
49.43985852050785
 30
0.0
 10
235.2267389195643
 20
49.44563594563805
 30
0.0
  0
SPLINE
  5
D7
330
78
100
AcDbEntity
  8
0
  6
SLD-Durchgehend
 62
     8
420
  8421504
370
     0
100
AcDbSpline
210
0.0
220
0.0
230
1.0
 70
     8
 71
     3
 72
     8
 73
     4
 74
     0
 42
0.00000001
 43
0.00000001
 40
6.0
 40
6.0
 40
6.0
 40
6.0
 40
7.0
 40
7.0
 40
7.0
 40
7.0
 10
241.6913217877099
 20
50.05172814941409
 30
0.0
 10
242.0604723817854
 20
50.45144535319012
 30
0.0
 10
242.2852545269677
 20
51.04101143391929
 30
0.0
 10
242.2852545269677
 20
51.79919771321618
 30
0.0
  0
SPLINE
  5
D8
330
78
100
AcDbEntity
  8
0
  6
SLD-Durchgehend
 62
     8
420
  8421504
370
     0
100
AcDbSpline
210
0.0
220
0.0
230
1.0
 70
     8
 71
     3
 72
     8
 73
     4
 74
     0
 42
0.00000001
 43
0.00000001
 40
5.0
 40
5.0
 40
5.0
 40
5.0
 40
6.0
 40
6.0
 40
6.0
 40
6.0
 10
237.4308937861008
 20
51.79570438639327
 30
0.0
 10
237.4271317418299
 20
52.92707202148441
 30
0.0
 10
236.8167400588872
 20
53.57031441243492
 30
0.0
 10
236.0195897496424
 20
53.57185953776045
 30
0.0
  0
SPLINE
  5
D9
330
78
100
AcDbEntity
  8
0
  6
SLD-Durchgehend
 62
     8
420
  8421504
370
     0
100
AcDbSpline
210
0.0
220
0.0
230
1.0
 70
     8
 71
     3
 72
     8
 73
     4
 74
     0
 42
0.00000001
 43
0.00000001
 40
3.0
 40
3.0
 40
3.0
 40
3.0
 40
4.0
 40
4.0
 40
4.0
 40
4.0
 10
235.7287031122727
 20
50.04930969238285
 30
0.0
 10
235.8220824254237
 20
50.029424601237
 30
0.0
 10
235.9193581415695
 20
50.01948205566409
 30
0.0
 10
236.0195897496424
 20
50.01907897949221
 30
0.0
  0
SPLINE
  5
DA
330
78
100
AcDbEntity
  8
0
  6
SLD-Durchgehend
 62
     8
420
  8421504
370
     0
100
AcDbSpline
210
0.0
220
0.0
230
1.0
 70
     8
 71
     3
 72
     8
 73
     4
 74
     0
 42
0.00000001
 43
0.00000001
 40
3.0
 40
3.0
 40
3.0
 40
3.0
 40
4.0
 40
4.0
 40
4.0
 40
4.0
 10
258.3858634950666
 20
53.56460416666669
 30
0.0
 10
258.8105714214989
 20
53.56124519856773
 30
0.0
 10
259.0927247418114
 20
53.38248091634117
 30
0.0
 10
259.2722279970197
 20
53.08124865722658
 30
0.0
  0
SPLINE
  5
DB
330
78
100
AcDbEntity
  8
0
  6
SLD-Durchgehend
 62
     8
420
  8421504
370
     0
100
AcDbSpline
210
0.0
220
0.0
230
1.0
 70
     8
 71
     3
 72
     8
 73
     4
 74
     0
 42
0.00000001
 43
0.00000001
 40
0.0
 40
0.0
 40
0.0
 40
0.0
 40
1.0
 40
1.0
 40
1.0
 40
1.0
 10
254.4773682151187
 20
54.1524235839844
 30
0.0
 10
254.0052316591292
 20
54.15369999186201
 30
0.0
 10
253.5150910341292
 20
53.98333312988284
 30
0.0
 10
253.2143962099104
 20
53.53269396972657
 30
0.0
  0
SPLINE
  5
DC
330
78
100
AcDbEntity
  8
0
  6
SLD-Durchgehend
 62
     8
420
  8421504
370
     0
100
AcDbSpline
210
0.0
220
0.0
230
1.0
 70
     8
 71
     3
 72
     8
 73
     4
 74
     0
 42
0.00000001
 43
0.00000001
 40
4.0
 40
4.0
 40
4.0
 40
4.0
 40
5.0
 40
5.0
 40
5.0
 40
5.0
 10
236.0195897496424
 20
50.01907897949221
 30
0.0
 10
236.8172103144211
 20
50.02109436035159
 30
0.0
 10
237.4267286656581
 20
50.65526753743492
 30
0.0
 10
237.4308937861008
 20
51.79570438639327
 30
0.0
  0
SPLINE
  5
DD
330
78
100
AcDbEntity
  8
0
  6
SLD-Durchgehend
 62
     8
420
  8421504
370
     0
100
AcDbSpline
210
0.0
220
0.0
230
1.0
 70
     8
 71
     3
 72
     8
 73
     4
 74
     0
 42
0.00000001
 43
0.00000001
 40
13.0
 40
13.0
 40
13.0
 40
13.0
 40
14.0
 40
14.0
 40
14.0
 40
14.0
 10
258.1843254091291
 20
51.63823596191408
 30
0.0
 10
258.5088017274885
 20
51.5730719807943
 30
0.0
 10
258.8295160015771
 20
51.52094079589845
 30
0.0
 10
259.0598068544416
 20
51.40996048990888
 30
0.0
  0
SPLINE
  5
DE
330
78
100
AcDbEntity
  8
0
  6
SLD-Durchgehend
 62
     8
420
  8421504
370
     0
100
AcDbSpline
210
0.0
220
0.0
230
1.0
 70
     8
 71
     3
 72
     8
 73
     4
 74
     0
 42
0.00000001
 43
0.00000001
 40
11.0
 40
11.0
 40
11.0
 40
11.0
 40
12.0
 40
12.0
 40
12.0
 40
12.0
 10
256.0747590842593
 20
52.5733055013021
 30
0.0
 10
256.0747590842593
 20
53.03361848958336
 30
0.0
 10
255.9559859722802
 20
53.43037980143232
 30
0.0
 10
255.6924413352359
 20
53.71165979003909
 30
0.0
  0
SPLINE
  5
DF
330
78
100
AcDbEntity
  8
0
  6
SLD-Durchgehend
 62
     8
420
  8421504
370
     0
100
AcDbSpline
210
0.0
220
0.0
230
1.0
 70
     8
 71
     3
 72
     8
 73
     4
 74
     0
 42
0.00000001
 43
0.00000001
 40
0.0
 40
0.0
 40
0.0
 40
0.0
 40
1.0
 40
1.0
 40
1.0
 40
1.0
 10
248.4766388856916
 20
52.33072082519535
 30
0.0
 10
248.5873504742333
 20
53.00748571777345
 30
0.0
 10
249.0482008974104
 20
53.52537141927086
 30
0.0
 10
249.7665498150536
 20
53.52637910970056
 30
0.0
  0
SPLINE
  5
E0
330
78
100
AcDbEntity
  8
0
  6
SLD-Durchgehend
 62
     8
420
  8421504
370
     0
100
AcDbSpline
210
0.0
220
0.0
230
1.0
 70
     8
 71
     3
 72
     8
 73
     4
 74
     0
 42
0.00000001
 43
0.00000001
 40
14.0
 40
14.0
 40
14.0
 40
14.0
 40
15.0
 40
15.0
 40
15.0
 40
15.0
 10
259.0598068544416
 20
51.40996048990888
 30
0.0
 10
259.2900977073062
 20
51.29615865071617
 30
0.0
 10
259.4282184755354
 20
51.14339278157556
 30
0.0
 10
259.4309056500146
 20
50.83866719563805
 30
0.0
  0
SPLINE
  5
E1
330
78
100
AcDbEntity
  8
0
  6
SLD-Durchgehend
 62
     8
420
  8421504
370
     0
100
AcDbSpline
210
0.0
220
0.0
230
1.0
 70
     8
 71
     3
 72
     8
 73
     4
 74
     0
 42
0.00000001
 43
0.00000001
 40
7.0
 40
7.0
 40
7.0
 40
7.0
 40
8.0
 40
8.0
 40
8.0
 40
8.0
 10
235.2267389195643
 20
49.44563594563805
 30
0.0
 10
234.3484359410487
 20
49.66813399251304
 30
0.0
 10
233.6945792109055
 20
50.4570884195964
 30
0.0
 10
233.6739551467778
 20
51.72167272949222
 30
0.0
  0
SPLINE
  5
E2
330
78
100
AcDbEntity
  8
0
  6
SLD-Durchgehend
 62
     8
420
  8421504
370
     0
100
AcDbSpline
210
0.0
220
0.0
230
1.0
 70
     8
 71
     3
 72
     8
 73
     4
 74
     0
 42
0.00000001
 43
0.00000001
 40
7.0
 40
7.0
 40
7.0
 40
7.0
 40
8.0
 40
8.0
 40
8.0
 40
8.0
 10
242.2852545269677
 20
51.79919771321618
 30
0.0
 10
242.2852545269677
 20
52.55704809570316
 30
0.0
 10
242.0604723817854
 20
53.14695007324222
 30
0.0
 10
241.6913217877099
 20
53.54626420084637
 30
0.0
  0
SPLINE
  5
E3
330
78
100
AcDbEntity
  8
0
  6
SLD-Durchgehend
 62
     8
420
  8421504
370
     0
100
AcDbSpline
210
0.0
220
0.0
230
1.0
 70
     8
 71
     3
 72
     8
 73
     4
 74
     0
 42
0.00000001
 43
0.00000001
 40
0.0
 40
0.0
 40
0.0
 40
0.0
 40
1.0
 40
1.0
 40
1.0
 40
1.0
 10
236.0195897496424
 20
53.57185953776045
 30
0.0
 10
235.9188207066737
 20
53.57159082031254
 30
0.0
 10
235.8212090937179
 20
53.56117801920577
 30
0.0
 10
235.7273595250331
 20
53.54102421061203
 30
0.0
  0
SPLINE
  5
E4
330
78
100
AcDbEntity
  8
0
  6
SLD-Durchgehend
 62
     8
420
  8421504
370
     0
100
AcDbSpline
210
0.0
220
0.0
230
1.0
 70
     8
 71
     3
 72
     8
 73
     4
 74
     0
 42
0.00000001
 43
0.00000001
 40
12.0
 40
12.0
 40
12.0
 40
12.0
 40
13.0
 40
13.0
 40
13.0
 40
13.0
 10
251.016354665314
 20
50.9159234619141
 30
0.0
 10
250.8335596213687
 20
50.40294185384116
 30
0.0
 10
250.4579598085432
 20
50.0826306559245
 30
0.0
 10
249.8141799826968
 20
50.07188195800784
 30
0.0
  0
SPLINE
  5
E5
330
78
100
AcDbEntity
  8
0
  6
SLD-Durchgehend
 62
     8
420
  8421504
370
     0
100
AcDbSpline
210
0.0
220
0.0
230
1.0
 70
     8
 71
     3
 72
     8
 73
     4
 74
     0
 42
0.00000001
 43
0.00000001
 40
21.0
 40
21.0
 40
21.0
 40
21.0
 40
22.0
 40
22.0
 40
22.0
 40
22.0
 10
274.6302340347482
 20
49.67283655090634
 30
0.0
 10
274.7848809273797
 20
49.56158752935308
 30
0.0
 10
274.9834631217241
 20
49.53417835208514
 30
0.0
 10
275.1847324902169
 20
49.53390963708953
 30
0.0
  0
SPLINE
  5
E6
330
78
100
AcDbEntity
  8
0
  6
SLD-Durchgehend
 62
     8
420
  8421504
370
     0
100
AcDbSpline
210
0.0
220
0.0
230
1.0
 70
     8
 71
     3
 72
     8
 73
     4
 74
     0
 42
0.00000001
 43
0.00000001
 40
6.0
 40
6.0
 40
6.0
 40
6.0
 40
7.0
 40
7.0
 40
7.0
 40
7.0
 10
244.9984945985823
 20
49.44563594563805
 30
0.0
 10
245.9458579612125
 20
49.44563594563805
 30
0.0
 10
246.7583251649885
 20
50.01303283691409
 30
0.0
 10
246.9688652854312
 20
51.13371895345053
 30
0.0
  0
SPLINE
  5
E7
330
78
100
AcDbEntity
  8
0
  6
SLD-Durchgehend
 62
     8
420
  8421504
370
     0
100
AcDbSpline
210
0.0
220
0.0
230
1.0
 70
     8
 71
     3
 72
     8
 73
     4
 74
     0
 42
0.00000001
 43
0.00000001
 40
7.0
 40
7.0
 40
7.0
 40
7.0
 40
8.0
 40
8.0
 40
8.0
 40
8.0
 10
264.4000286968895
 20
53.05558614095054
 30
0.0
 10
263.9996396994937
 20
53.97654801432294
 30
0.0
 10
263.2563672385562
 20
54.15558101399741
 30
0.0
 10
262.6999877626448
 20
54.1524235839844
 30
0.0
  0
SPLINE
  5
E8
330
78
100
AcDbEntity
  8
0
  6
SLD-Durchgehend
 62
     8
420
  8421504
370
     0
100
AcDbSpline
210
0.0
220
0.0
230
1.0
 70
     8
 71
     3
 72
     8
 73
     4
 74
     0
 42
0.00000001
 43
0.00000001
 40
3.0
 40
3.0
 40
3.0
 40
3.0
 40
4.0
 40
4.0
 40
4.0
 40
4.0
 10
262.6275684104312
 20
53.52637910970056
 30
0.0
 10
263.1397438661604
 20
53.52456526692713
 30
0.0
 10
263.5299216005354
 20
53.37381477864585
 30
0.0
 10
263.7028412782698
 20
53.01218827311202
 30
0.0
  0
SPLINE
  5
E9
330
78
100
AcDbEntity
  8
0
  6
SLD-Durchgehend
 62
     8
420
  8421504
370
     0
100
AcDbSpline
210
0.0
220
0.0
230
1.0
 70
     8
 71
     3
 72
     8
 73
     4
 74
     0
 42
0.00000001
 43
0.00000001
 40
20.0
 40
20.0
 40
20.0
 40
20.0
 40
21.0
 40
21.0
 40
21.0
 40
21.0
 10
256.6847476910302
 20
50.7275525309245
 30
0.0
 10
256.9378795269677
 20
49.9117263590495
 30
0.0
 10
257.6850483909
 20
49.45960925292972
 30
0.0
 10
258.397687062775
 20
49.43569340006511
 30
0.0
  0
SPLINE
  5
EA
330
78
100
AcDbEntity
  8
0
  6
SLD-Durchgehend
 62
     8
420
  8421504
370
     0
100
AcDbSpline
210
0.0
220
0.0
230
1.0
 70
     8
 71
     3
 72
     8
 73
     4
 74
     0
 42
0.00000001
 43
0.00000001
 40
0.0
 40
0.0
 40
0.0
 40
0.0
 40
1.0
 40
1.0
 40
1.0
 40
1.0
 10
251.8015470481265
 20
51.81962023925784
 30
0.0
 10
251.7605004579573
 20
53.12733369954429
 30
0.0
 10
251.0964324647933
 20
54.1553122965495
 30
0.0
 10
249.7665498150536
 20
54.15289383951826
 30
0.0
  0
SPLINE
  5
EB
330
78
100
AcDbEntity
  8
0
  6
SLD-Durchgehend
 62
     8
420
  8421504
370
     0
100
AcDbSpline
210
0.0
220
0.0
230
1.0
 70
     8
 71
     3
 72
     8
 73
     4
 74
     0
 42
0.00000001
 43
0.00000001
 40
12.0
 40
12.0
 40
12.0
 40
12.0
 40
13.0
 40
13.0
 40
13.0
 40
13.0
 10
256.8442314963687
 20
52.87897159830732
 30
0.0
 10
256.8418130393375
 20
51.96848970540368
 30
0.0
 10
257.5411501975406
 20
51.76144291178387
 30
0.0
 10
258.1843254091291
 20
51.63823596191408
 30
0.0
  0
SPLINE
  5
EC
330
78
100
AcDbEntity
  8
0
  6
SLD-Durchgehend
 62
     8
420
  8421504
370
     0
100
AcDbSpline
210
0.0
220
0.0
230
1.0
 70
     8
 71
     3
 72
     8
 73
     4
 74
     0
 42
0.00000001
 43
0.00000001
 40
15.0
 40
15.0
 40
15.0
 40
15.0
 40
16.0
 40
16.0
 40
16.0
 40
16.0
 10
259.4309056500146
 20
50.83866719563805
 30
0.0
 10
259.4306369325666
 20
50.17480074055992
 30
0.0
 10
258.8938738303531
 20
50.022975382487
 30
0.0
 10
258.4449813336083
 20
50.00443387858074
 30
0.0
  0
SPLINE
  5
ED
330
78
100
AcDbEntity
  8
0
  6
SLD-Durchgehend
 62
     8
420
  8421504
370
     0
100
AcDbSpline
210
0.0
220
0.0
230
1.0
 70
     8
 71
     3
 72
     8
 73
     4
 74
     0
 42
0.00000001
 43
0.00000001
 40
6.0
 40
6.0
 40
6.0
 40
6.0
 40
7.0
 40
7.0
 40
7.0
 40
7.0
 10
249.8010128277489
 20
49.44644209798179
 30
0.0
 10
249.8100148622541
 20
49.44644209798179
 30
0.0
 10
249.8223086854963
 20
49.44563594563805
 30
0.0
 10
249.8366850689599
 20
49.44563594563805
 30
0.0
  0
SPLINE
  5
EE
330
78
100
AcDbEntity
  8
0
  6
SLD-Durchgehend
 62
     8
420
  8421504
370
     0
100
AcDbSpline
210
0.0
220
0.0
230
1.0
 70
     8
 71
     3
 72
     8
 73
     4
 74
     0
 42
0.00000001
 43
0.00000001
 40
2.0
 40
2.0
 40
2.0
 40
2.0
 40
3.0
 40
3.0
 40
3.0
 40
3.0
 10
261.2008131207177
 20
51.79919771321618
 30
0.0
 10
261.2039033713687
 20
52.97658321126303
 30
0.0
 10
261.9115707704573
 20
53.52355757649742
 30
0.0
 10
262.6275684104312
 20
53.52637910970056
 30
0.0
  0
SPLINE
  5
EF
330
78
100
AcDbEntity
  8
0
  6
SLD-Durchgehend
 62
     8
420
  8421504
370
     0
100
AcDbSpline
210
0.0
220
0.0
230
1.0
 70
     8
 71
     3
 72
     8
 73
     4
 74
     0
 42
0.00000001
 43
0.00000001
 40
1.0
 40
1.0
 40
1.0
 40
1.0
 40
2.0
 40
2.0
 40
2.0
 40
2.0
 10
257.8763752138166
 20
52.36605716959637
 30
0.0
 10
257.6433971864729
 20
52.47173030598961
 30
0.0
 10
257.5089041037905
 20
52.6036705729167
 30
0.0
 10
257.5067543642073
 20
52.86090034993494
 30
0.0
  0
SPLINE
  5
F0
330
78
100
AcDbEntity
  8
0
  6
SLD-Durchgehend
 62
     8
420
  8421504
370
     0
100
AcDbSpline
210
0.0
220
0.0
230
1.0
 70
     8
 71
     3
 72
     8
 73
     4
 74
     0
 42
0.00000001
 43
0.00000001
 40
7.0
 40
7.0
 40
7.0
 40
7.0
 40
8.0
 40
8.0
 40
8.0
 40
8.0
 10
254.4043442486473
 20
53.52637910970056
 30
0.0
 10
255.0787578635562
 20
53.51542887369794
 30
0.0
 10
255.4008829042463
 20
53.27620316569013
 30
0.0
 10
255.4121690370588
 20
52.409186319987
 30
0.0
  0
SPLINE
  5
F1
330
78
100
AcDbEntity
  8
0
  6
SLD-Durchgehend
 62
     8
420
  8421504
370
     0
100
AcDbSpline
210
0.0
220
0.0
230
1.0
 70
     8
 71
     3
 72
     8
 73
     4
 74
     0
 42
0.00000001
 43
0.00000001
 40
1.0
 40
1.0
 40
1.0
 40
1.0
 40
2.0
 40
2.0
 40
2.0
 40
2.0
 10
238.8781860048323
 20
51.79919771321618
 30
0.0
 10
238.8819480491031
 20
52.89966284179692
 30
0.0
 10
239.475746429637
 20
53.52456526692712
 30
0.0
 10
240.2502572938948
 20
53.52637910970054
 30
0.0
  0
SPLINE
  5
F2
330
78
100
AcDbEntity
  8
0
  6
SLD-Durchgehend
 62
     8
420
  8421504
370
     0
100
AcDbSpline
210
0.0
220
0.0
230
1.0
 70
     8
 71
     3
 72
     8
 73
     4
 74
     0
 42
0.00000001
 43
0.00000001
 40
8.0
 40
8.0
 40
8.0
 40
8.0
 40
9.0
 40
9.0
 40
9.0
 40
9.0
 10
249.8415219830224
 20
49.44563594563805
 30
0.0
 10
250.7082029319156
 20
49.44563594563805
 30
0.0
 10
251.4525502626448
 20
49.94867500813804
 30
0.0
 10
251.7394061382958
 20
50.87978096516928
 30
0.0
  0
SPLINE
  5
F3
330
78
100
AcDbEntity
  8
0
  6
SLD-Durchgehend
 62
     8
420
  8421504
370
     0
100
AcDbSpline
210
0.0
220
0.0
230
1.0
 70
     8
 71
     3
 72
     8
 73
     4
 74
     0
 42
0.00000001
 43
0.00000001
 40
8.0
 40
8.0
 40
8.0
 40
8.0
 40
9.0
 40
9.0
 40
9.0
 40
9.0
 10
258.4156911317854
 20
54.14039847819013
 30
0.0
 10
258.3994337261864
 20
54.14039847819013
 30
0.0
 10
258.3858634950666
 20
54.13932360839846
 30
0.0
 10
258.3740399273583
 20
54.13932360839846
 30
0.0
  0
SPLINE
  5
F4
330
78
100
AcDbEntity
  8
0
  6
SLD-Durchgehend
 62
     8
420
  8421504
370
     0
100
AcDbSpline
210
0.0
220
0.0
230
1.0
 70
     8
 71
     3
 72
     8
 73
     4
 74
     0
 42
0.00000001
 43
0.00000001
 40
20.0
 40
20.0
 40
20.0
 40
20.0
 40
21.0
 40
21.0
 40
21.0
 40
21.0
 10
274.3795206484703
 20
50.27785388183599
 30
0.0
 10
274.3784457823096
 20
49.9798462320833
 30
0.0
 10
274.474780989773
 20
49.78408557244977
 30
0.0
 10
274.6302340347482
 20
49.67283655090634
 30
0.0
  0
SPLINE
  5
F5
330
78
100
AcDbEntity
  8
0
  6
SLD-Durchgehend
 62
     8
420
  8421504
370
     0
100
AcDbSpline
210
0.0
220
0.0
230
1.0
 70
     8
 71
     3
 72
     8
 73
     4
 74
     0
 42
0.00000001
 43
0.00000001
 40
2.0
 40
2.0
 40
2.0
 40
2.0
 40
3.0
 40
3.0
 40
3.0
 40
3.0
 10
238.2156631369937
 20
51.79919771321618
 30
0.0
 10
238.2155287782698
 20
51.04101143391929
 30
0.0
 10
238.440310923452
 20
50.45144535319012
 30
0.0
 10
238.8093271588036
 20
50.05172814941409
 30
0.0
  0
SPLINE
  5
F6
330
78
100
AcDbEntity
  8
0
  6
SLD-Durchgehend
 62
     8
420
  8421504
370
     0
100
AcDbSpline
210
0.0
220
0.0
230
1.0
 70
     8
 71
     3
 72
     8
 73
     4
 74
     0
 42
0.00000001
 43
0.00000001
 40
8.0
 40
8.0
 40
8.0
 40
8.0
 40
9.0
 40
9.0
 40
9.0
 40
9.0
 10
262.6999877626448
 20
54.1524235839844
 30
0.0
 10
261.4113532411604
 20
54.15558101399741
 30
0.0
 10
260.5522635601708
 20
53.19773767089846
 30
0.0
 10
260.5381558941552
 20
51.799735148112
 30
0.0
  0
SPLINE
  5
F7
330
78
100
AcDbEntity
  8
0
  6
SLD-Durchgehend
 62
     8
420
  8421504
370
     0
100
AcDbSpline
210
0.0
220
0.0
230
1.0
 70
     8
 71
     3
 72
     8
 73
     4
 74
     0
 42
0.00000001
 43
0.00000001
 40
14.0
 40
14.0
 40
14.0
 40
14.0
 40
15.0
 40
15.0
 40
15.0
 40
15.0
 10
249.8012143658349
 20
50.07215067545575
 30
0.0
 10
248.8709145611474
 20
50.08155578613283
 30
0.0
 10
248.4738845318505
 20
50.74166019694015
 30
0.0
 10
248.4677712099104
 20
51.69896610514325
 30
0.0
  0
SPLINE
  5
F8
330
78
100
AcDbEntity
  8
0
  6
SLD-Durchgehend
 62
     8
420
  8421504
370
     0
100
AcDbSpline
210
0.0
220
0.0
230
1.0
 70
     8
 71
     3
 72
     8
 73
     4
 74
     0
 42
0.00000001
 43
0.00000001
 40
2.0
 40
2.0
 40
2.0
 40
2.0
 40
3.0
 40
3.0
 40
3.0
 40
3.0
 10
248.3258883974104
 20
53.54626420084637
 30
0.0
 10
247.9568721620588
 20
53.14695007324222
 30
0.0
 10
247.7316869407047
 20
52.55704809570316
 30
0.0
 10
247.7320900168766
 20
51.79866027832033
 30
0.0
  0
SPLINE
  5
F9
330
78
100
AcDbEntity
  8
0
  6
SLD-Durchgehend
 62
     8
420
  8421504
370
     0
100
AcDbSpline
210
0.0
220
0.0
230
1.0
 70
    24
 71
     2
 72
     6
 73
     3
 74
     0
 42
0.00000001
 43
0.00000001
 40
24.0
 40
24.0
 40
24.0
 40
25.0
 40
25.0
 40
25.0
 10
275.769192939439
 20
50.09781320866384
 30
0.0
 10
275.5543533398296
 20
50.09781320604619
 30
0.0
 10
275.3033712434755
 20
50.09781320298818
 30
0.0
  0
SPLINE
  5
FA
330
78
100
AcDbEntity
  8
0
  6
SLD-Durchgehend
 62
     8
420
  8421504
370
     0
100
AcDbSpline
210
0.0
220
0.0
230
1.0
 70
     8
 71
     3
 72
     8
 73
     4
 74
     0
 42
0.00000001
 43
0.00000001
 40
2.0
 40
2.0
 40
2.0
 40
2.0
 40
3.0
 40
3.0
 40
3.0
 40
3.0
 10
257.5067543642073
 20
52.86090034993494
 30
0.0
 10
257.5157563987125
 20
53.25866935221357
 30
0.0
 10
257.6615356142073
 20
53.52980525716148
 30
0.0
 10
258.3858634950666
 20
53.56460416666669
 30
0.0
  0
SPLINE
  5
FB
330
78
100
AcDbEntity
  8
0
  6
SLD-Durchgehend
 62
     8
420
  8421504
370
     0
100
AcDbSpline
210
0.0
220
0.0
230
1.0
 70
     8
 71
     3
 72
     8
 73
     4
 74
     0
 42
0.00000001
 43
0.00000001
 40
3.0
 40
3.0
 40
3.0
 40
3.0
 40
4.0
 40
4.0
 40
4.0
 40
4.0
 10
241.6222614035953
 20
51.79919771321618
 30
0.0
 10
241.6187008974104
 20
50.68979772949221
 30
0.0
 10
241.0255743104963
 20
50.07403169759117
 30
0.0
 10
240.2502572938948
 20
50.07161324055993
 30
0.0
  0
SPLINE
  5
FC
330
78
100
AcDbEntity
  8
0
  6
SLD-Durchgehend
 62
     8
420
  8421504
370
     0
100
AcDbSpline
210
0.0
220
0.0
230
1.0
 70
     8
 71
     3
 72
     8
 73
     4
 74
     0
 42
0.00000001
 43
0.00000001
 40
0.0
 40
0.0
 40
0.0
 40
0.0
 40
1.0
 40
1.0
 40
1.0
 40
1.0
 10
263.7591375836083
 20
50.74918428548179
 30
0.0
 10
263.573050750926
 20
50.36532141113282
 30
0.0
 10
263.234735483999
 20
50.0743004150391
 30
0.0
 10
262.5728844097802
 20
50.07161324055993
 30
0.0
  0
SPLINE
  5
FD
330
78
100
AcDbEntity
  8
0
  6
SLD-Durchgehend
 62
     8
420
  8421504
370
     0
100
AcDbSpline
210
0.0
220
0.0
230
1.0
 70
     8
 71
     3
 72
     8
 73
     4
 74
     0
 42
0.00000001
 43
0.00000001
 40
0.0
 40
0.0
 40
0.0
 40
0.0
 40
1.0
 40
1.0
 40
1.0
 40
1.0
 10
240.2502572938948
 20
50.07161324055993
 30
0.0
 10
239.4752761741031
 20
50.07403169759117
 30
0.0
 10
238.882216766551
 20
50.68979772949221
 30
0.0
 10
238.8781860048323
 20
51.79919771321618
 30
0.0
  0
SPLINE
  5
FE
330
78
100
AcDbEntity
  8
0
  6
SLD-Durchgehend
 62
     8
420
  8421504
370
     0
100
AcDbSpline
210
0.0
220
0.0
230
1.0
 70
     8
 71
     3
 72
     8
 73
     4
 74
     0
 42
0.00000001
 43
0.00000001
 40
7.0
 40
7.0
 40
7.0
 40
7.0
 40
8.0
 40
8.0
 40
8.0
 40
8.0
 10
246.9688652854312
 20
51.13371895345053
 30
0.0
 10
247.0101805930484
 20
51.35352982584638
 30
0.0
 10
247.0248256939599
 20
51.60007808430993
 30
0.0
 10
247.0248256939599
 20
51.7258378499349
 30
0.0
  0
SPLINE
  5
FF
330
78
100
AcDbEntity
  8
0
  6
SLD-Durchgehend
 62
     8
420
  8421504
370
     0
100
AcDbSpline
210
0.0
220
0.0
230
1.0
 70
     8
 71
     3
 72
     8
 73
     4
 74
     0
 42
0.00000001
 43
0.00000001
 40
7.0
 40
7.0
 40
7.0
 40
7.0
 40
8.0
 40
8.0
 40
8.0
 40
8.0
 10
259.9116411643375
 20
53.13411881510418
 30
0.0
 10
259.6226355491031
 20
53.78965502929691
 30
0.0
 10
259.0584632672021
 20
54.14140616861981
 30
0.0
 10
258.4156911317854
 20
54.14039847819013
 30
0.0
  0
SPLINE
  5
100
330
78
100
AcDbEntity
  8
0
  6
SLD-Durchgehend
 62
     8
420
  8421504
370
     0
100
AcDbSpline
210
0.0
220
0.0
230
1.0
 70
     8
 71
     3
 72
     8
 73
     4
 74
     0
 42
0.00000001
 43
0.00000001
 40
1.0
 40
1.0
 40
1.0
 40
1.0
 40
2.0
 40
2.0
 40
2.0
 40
2.0
 10
238.8093271588036
 20
53.54626420084637
 30
0.0
 10
238.440310923452
 20
53.14695007324222
 30
0.0
 10
238.2155287782698
 20
52.55704809570316
 30
0.0
 10
238.2156631369937
 20
51.79919771321618
 30
0.0
  0
SPLINE
  5
101
330
78
100
AcDbEntity
  8
0
  6
SLD-Durchgehend
 62
     8
420
  8421504
370
     0
100
AcDbSpline
210
0.0
220
0.0
230
1.0
 70
     8
 71
     3
 72
     8
 73
     4
 74
     0
 42
0.00000001
 43
0.00000001
 40
0.0
 40
0.0
 40
0.0
 40
0.0
 40
1.0
 40
1.0
 40
1.0
 40
1.0
 10
258.7550812685041
 20
52.13281042480472
 30
0.0
 10
258.4303362326968
 20
52.20764823404951
 30
0.0
 10
258.1084127300927
 20
52.26286966959638
 30
0.0
 10
257.8763752138166
 20
52.36605716959637
 30
0.0
  0
SPLINE
  5
102
330
78
100
AcDbEntity
  8
0
  6
SLD-Durchgehend
 62
     8
420
  8421504
370
     0
100
AcDbSpline
210
0.0
220
0.0
230
1.0
 70
     8
 71
     3
 72
     8
 73
     4
 74
     0
 42
0.00000001
 43
0.00000001
 40
7.0
 40
7.0
 40
7.0
 40
7.0
 40
8.0
 40
8.0
 40
8.0
 40
8.0
 10
266.7699822287906
 20
53.52637910970056
 30
0.0
 10
267.4439255881656
 20
53.51516015625004
 30
0.0
 10
267.7661178082177
 20
53.27620316569013
 30
0.0
 10
267.7771352235823
 20
52.40972375488285
 30
0.0
  0
SPLINE
  5
103
330
78
100
AcDbEntity
  8
0
  6
SLD-Durchgehend
 62
     8
420
  8421504
370
     0
100
AcDbSpline
210
0.0
220
0.0
230
1.0
 70
     8
 71
     3
 72
     8
 73
     4
 74
     0
 42
0.00000001
 43
0.00000001
 40
25.0
 40
25.0
 40
25.0
 40
25.0
 40
26.0
 40
26.0
 40
26.0
 40
26.0
 10
275.3033712434755
 20
50.09781320298818
 30
0.0
 10
275.1656535513739
 20
50.1014408868571
 30
0.0
 10
275.1203746608532
 20
50.1463167001075
 30
0.0
 10
275.0822167821244
 20
50.23862114300191
 30
0.0
  0
SPLINE
  5
104
330
78
100
AcDbEntity
  8
0
  6
SLD-Durchgehend
 62
     8
420
  8421504
370
     0
100
AcDbSpline
210
0.0
220
0.0
230
1.0
 70
     8
 71
     3
 72
     8
 73
     4
 74
     0
 42
0.00000001
 43
0.00000001
 40
4.0
 40
4.0
 40
4.0
 40
4.0
 40
5.0
 40
5.0
 40
5.0
 40
5.0
 10
248.3258883974104
 20
50.05172814941409
 30
0.0
 10
248.6946359153141
 20
49.65241402180991
 30
0.0
 10
249.2061395774234
 20
49.44536722819013
 30
0.0
 10
249.7665498150536
 20
49.44563594563805
 30
0.0
  0
SPLINE
  5
105
330
78
100
AcDbEntity
  8
0
  6
SLD-Durchgehend
 62
     8
420
  8421504
370
     0
100
AcDbSpline
210
0.0
220
0.0
230
1.0
 70
     8
 71
     3
 72
     8
 73
     4
 74
     0
 42
0.00000001
 43
0.00000001
 40
1.0
 40
1.0
 40
1.0
 40
1.0
 40
2.0
 40
2.0
 40
2.0
 40
2.0
 10
244.9913735862125
 20
54.15289383951826
 30
0.0
 10
244.4305602724104
 20
54.15289383951826
 30
0.0
 10
243.919190969025
 20
53.94645166015629
 30
0.0
 10
243.5503762717593
 20
53.54626420084637
 30
0.0
  0
SPLINE
  5
106
330
78
100
AcDbEntity
  8
0
  6
SLD-Durchgehend
 62
     8
420
  8421504
370
     0
100
AcDbSpline
210
0.0
220
0.0
230
1.0
 70
     8
 71
     3
 72
     8
 73
     4
 74
     0
 42
0.00000001
 43
0.00000001
 40
1.0
 40
1.0
 40
1.0
 40
1.0
 40
2.0
 40
2.0
 40
2.0
 40
2.0
 10
262.5728844097802
 20
50.07161324055993
 30
0.0
 10
261.9138548687646
 20
50.07376298014326
 30
0.0
 10
261.203097219025
 20
50.62154349772136
 30
0.0
 10
261.2008131207177
 20
51.79919771321618
 30
0.0
  0
SPLINE
  5
107
330
78
100
AcDbEntity
  8
0
  6
SLD-Durchgehend
 62
     8
420
  8421504
370
     0
100
AcDbSpline
210
0.0
220
0.0
230
1.0
 70
     8
 71
     2
 72
     6
 73
     3
 74
     0
 42
0.00000001
 43
0.00000001
 40
22.0
 40
22.0
 40
22.0
 40
23.0
 40
23.0
 40
23.0
 10
275.1847324902169
 20
49.53390963708953
 30
0.0
 10
275.2214124218576
 20
49.53390963753644
 30
0.0
 10
275.769192939439
 20
49.53364092676277
 30
0.0
  0
SPLINE
  5
108
330
78
100
AcDbEntity
  8
0
  6
SLD-Durchgehend
 62
     8
420
  8421504
370
     0
100
AcDbSpline
210
0.0
220
0.0
230
1.0
 70
     8
 71
     3
 72
     8
 73
     4
 74
     0
 42
0.00000001
 43
0.00000001
 40
26.0
 40
26.0
 40
26.0
 40
26.0
 40
27.0
 40
27.0
 40
27.0
 40
27.0
 10
275.0822167821244
 20
50.23862114300191
 30
0.0
 10
275.0460742842386
 20
50.33226917316051
 30
0.0
 10
275.0419091620066
 20
50.47912325839622
 30
0.0
 10
275.0421778774671
 20
50.64223474928492
 30
0.0
  0
SPLINE
  5
109
330
78
100
AcDbEntity
  8
0
  6
SLD-Durchgehend
 62
     8
420
  8421504
370
     0
100
AcDbSpline
210
0.0
220
0.0
230
1.0
 70
     8
 71
     3
 72
     8
 73
     4
 74
     0
 42
0.00000001
 43
0.00000001
 40
12.0
 40
12.0
 40
12.0
 40
12.0
 40
13.0
 40
13.0
 40
13.0
 40
13.0
 10
255.6924413352359
 20
53.71165979003909
 30
0.0
 10
255.4291654156395
 20
53.99381311035158
 30
0.0
 10
255.0250815533349
 20
54.15316255696617
 30
0.0
 10
254.4773682151187
 20
54.1524235839844
 30
0.0
  0
SPLINE
  5
10A
330
78
100
AcDbEntity
  8
0
  6
SLD-Durchgehend
 62
     8
420
  8421504
370
     0
100
AcDbSpline
210
0.0
220
0.0
230
1.0
 70
     8
 71
     3
 72
     8
 73
     4
 74
     0
 42
0.00000001
 43
0.00000001
 40
3.0
 40
3.0
 40
3.0
 40
3.0
 40
4.0
 40
4.0
 40
4.0
 40
4.0
 10
247.7320900168766
 20
51.79866027832033
 30
0.0
 10
247.7316869407047
 20
51.04101143391929
 30
0.0
 10
247.9568721620588
 20
50.45144535319012
 30
0.0
 10
248.3258883974104
 20
50.05172814941409
 30
0.0
  0
SPLINE
  5
10B
330
78
100
AcDbEntity
  8
0
  6
SLD-Durchgehend
 62
     8
420
  8421504
370
     0
100
AcDbSpline
210
0.0
220
0.0
230
1.0
 70
     8
 71
     3
 72
     8
 73
     4
 74
     0
 42
0.00000001
 43
0.00000001
 40
0.0
 40
0.0
 40
0.0
 40
0.0
 40
1.0
 40
1.0
 40
1.0
 40
1.0
 10
244.9913735862125
 20
50.07188195800785
 30
0.0
 10
244.215855031525
 20
50.07403169759117
 30
0.0
 10
243.6230643414208
 20
50.68979772949222
 30
0.0
 10
243.6193022971499
 20
51.79919771321618
 30
0.0
  0
SPLINE
  5
10C
330
78
100
AcDbEntity
  8
0
  6
SLD-Durchgehend
 62
     8
420
  8421504
370
     0
100
AcDbSpline
210
0.0
220
0.0
230
1.0
 70
     8
 71
     3
 72
     8
 73
     4
 74
     0
 42
0.00000001
 43
0.00000001
 40
1.0
 40
1.0
 40
1.0
 40
1.0
 40
2.0
 40
2.0
 40
2.0
 40
2.0
 10
243.61930229715
 20
51.79919771321617
 30
0.0
 10
243.6228628033349
 20
52.89966284179692
 30
0.0
 10
244.2162581076968
 20
53.52456526692713
 30
0.0
 10
244.9913735862125
 20
53.52637910970056
 30
0.0
  0
SPLINE
  5
10D
330
78
100
AcDbEntity
  8
0
  6
SLD-Durchgehend
 62
     8
420
  8421504
370
     0
100
AcDbSpline
210
0.0
220
0.0
230
1.0
 70
     8
 71
     3
 72
     8
 73
     4
 74
     0
 42
0.00000001
 43
0.00000001
 40
0.0
 40
0.0
 40
0.0
 40
0.0
 40
1.0
 40
1.0
 40
1.0
 40
1.0
 10
240.2502572938948
 20
54.1524235839844
 30
0.0
 10
239.6897126975406
 20
54.15289383951826
 30
0.0
 10
239.1780746767073
 20
53.94645166015629
 30
0.0
 10
238.8093271588036
 20
53.54626420084637
 30
0.0
  0
SPLINE
  5
10E
330
78
100
AcDbEntity
  8
0
  6
SLD-Durchgehend
 62
     8
420
  8421504
370
     0
100
AcDbSpline
210
0.0
220
0.0
230
1.0
 70
     8
 71
     3
 72
     8
 73
     4
 74
     0
 42
0.00000001
 43
0.00000001
 40
12.0
 40
12.0
 40
12.0
 40
12.0
 40
13.0
 40
13.0
 40
13.0
 40
13.0
 10
269.7527529176072
 20
50.05172811989913
 30
0.0
 10
270.1217019776297
 20
49.65241399602138
 30
0.0
 10
270.6333400005543
 20
49.4453672075692
 30
0.0
 10
271.1938845969058
 20
49.44563593067868
 30
0.0
  0
SPLINE
  5
10F
330
78
100
AcDbEntity
  8
0
  6
SLD-Durchgehend
 62
     8
420
  8421504
370
     0
100
AcDbSpline
210
0.0
220
0.0
230
1.0
 70
     8
 71
     3
 72
     8
 73
     4
 74
     0
 42
0.00000001
 43
0.00000001
 40
2.0
 40
2.0
 40
2.0
 40
2.0
 40
3.0
 40
3.0
 40
3.0
 40
3.0
 10
269.7882492893593
 20
51.79919766776327
 30
0.0
 10
269.7921456922359
 20
52.89966279634443
 30
0.0
 10
270.3860112520646
 20
53.52456522153849
 30
0.0
 10
271.1605892956841
 20
53.52637906439517
 30
0.0
  0
SPLINE
  5
110
330
78
100
AcDbEntity
  8
0
  6
SLD-Durchgehend
 62
     8
420
  8421504
370
     0
100
AcDbSpline
210
0.0
220
0.0
230
1.0
 70
     8
 71
     3
 72
     8
 73
     4
 74
     0
 42
0.00000001
 43
0.00000001
 40
0.0
 40
0.0
 40
0.0
 40
0.0
 40
1.0
 40
1.0
 40
1.0
 40
1.0
 10
271.1605892960555
 20
50.07188191270246
 30
0.0
 10
270.3854738175397
 20
50.07403165220246
 30
0.0
 10
269.7921456924734
 20
50.68979768403972
 30
0.0
 10
269.7885180068072
 20
51.79919766776329
 30
0.0
  0
SPLINE
  5
111
330
78
100
AcDbEntity
  8
0
  6
SLD-Durchgehend
 62
     8
420
  8421504
370
     0
100
AcDbSpline
210
0.0
220
0.0
230
1.0
 70
     8
 71
     3
 72
     8
 73
     4
 74
     0
 42
0.00000001
 43
0.00000001
 40
8.0
 40
8.0
 40
8.0
 40
8.0
 40
9.0
 40
9.0
 40
9.0
 40
9.0
 10
241.6913217877099
 20
53.54626420084637
 30
0.0
 10
241.3222383729963
 20
53.94645166015629
 30
0.0
 10
240.8108690696109
 20
54.15289383951826
 30
0.0
 10
240.2502572938948
 20
54.1524235839844
 30
0.0
  0
SPLINE
  5
112
330
78
100
AcDbEntity
  8
0
  6
SLD-Durchgehend
 62
     8
420
  8421504
370
     0
100
AcDbSpline
210
0.0
220
0.0
230
1.0
 70
     8
 71
     3
 72
     8
 73
     4
 74
     0
 42
0.00000001
 43
0.00000001
 40
10.0
 40
10.0
 40
10.0
 40
10.0
 40
11.0
 40
11.0
 40
11.0
 40
11.0
 10
269.7527528823119
 20
53.54626417133141
 30
0.0
 10
269.3842069065273
 20
53.14695004000491
 30
0.0
 10
269.1588873324072
 20
52.55704806019009
 30
0.0
 10
269.1588873400616
 20
51.79919767770311
 30
0.0
  0
SPLINE
  5
113
330
78
100
AcDbEntity
  8
0
  6
SLD-Durchgehend
 62
     8
420
  8421504
370
     0
100
AcDbSpline
210
0.0
220
0.0
230
1.0
 70
     8
 71
     3
 72
     8
 73
     4
 74
     0
 42
0.00000001
 43
0.00000001
 40
2.0
 40
2.0
 40
2.0
 40
2.0
 40
3.0
 40
3.0
 40
3.0
 40
3.0
 10
243.5503762717593
 20
53.54626420084637
 30
0.0
 10
243.1810913189599
 20
53.14695007324222
 30
0.0
 10
242.9563763531395
 20
52.55704809570316
 30
0.0
 10
242.9563763531395
 20
51.79919771321618
 30
0.0
  0
SPLINE
  5
114
330
78
100
AcDbEntity
  8
0
  6
SLD-Durchgehend
 62
     8
420
  8421504
370
     0
100
AcDbSpline
210
0.0
220
0.0
230
1.0
 70
     8
 71
     3
 72
     8
 73
     4
 74
     0
 42
0.00000001
 43
0.00000001
 40
8.0
 40
8.0
 40
8.0
 40
8.0
 40
9.0
 40
9.0
 40
9.0
 40
9.0
 10
272.5521168951743
 20
53.62640917844642
 30
0.0
 10
272.1912293591284
 20
53.97231570963218
 30
0.0
 10
271.7145246047004
 20
54.1528938298174
 30
0.0
 10
271.1938845493668
 20
54.15242356902503
 30
0.0
  0
SPLINE
  5
115
330
78
100
AcDbEntity
  8
0
  6
SLD-Durchgehend
 62
     8
420
  8421504
370
     0
100
AcDbSpline
210
0.0
220
0.0
230
1.0
 70
     8
 71
     3
 72
     8
 73
     4
 74
     0
 42
0.00000001
 43
0.00000001
 40
5.0
 40
5.0
 40
5.0
 40
5.0
 40
6.0
 40
6.0
 40
6.0
 40
6.0
 10
240.2521383160301
 20
49.44563594563805
 30
0.0
 10
240.8120111187646
 20
49.44563594563805
 30
0.0
 10
241.3224399110823
 20
49.65241402180991
 30
0.0
 10
241.6913217877099
 20
50.05172814941409
 30
0.0
  0
SPLINE
  5
116
330
78
100
AcDbEntity
  8
0
  6
SLD-Durchgehend
 62
     8
420
  8421504
370
     0
100
AcDbSpline
210
0.0
220
0.0
230
1.0
 70
     8
 71
     3
 72
     8
 73
     4
 74
     0
 42
0.00000001
 43
0.00000001
 40
0.0
 40
0.0
 40
0.0
 40
0.0
 40
1.0
 40
1.0
 40
1.0
 40
1.0
 10
266.842804657176
 20
54.15289383951826
 30
0.0
 10
266.3709368186343
 20
54.15369999186201
 30
0.0
 10
265.8797213238427
 20
53.98306441243492
 30
0.0
 10
265.5798326519676
 20
53.52537141927086
 30
0.0
  0
SPLINE
  5
117
330
78
100
AcDbEntity
  8
0
  6
SLD-Durchgehend
 62
     8
420
  8421504
370
     0
100
AcDbSpline
210
0.0
220
0.0
230
1.0
 70
     8
 71
     3
 72
     8
 73
     4
 74
     0
 42
0.00000001
 43
0.00000001
 40
5.0
 40
5.0
 40
5.0
 40
5.0
 40
6.0
 40
6.0
 40
6.0
 40
6.0
 10
249.7665498150536
 20
49.44563594563805
 30
0.0
 10
249.7813292746891
 20
49.44563594563805
 30
0.0
 10
249.7922123313296
 20
49.44644209798179
 30
0.0
 10
249.8010128277489
 20
49.44644209798179
 30
0.0
  0
SPLINE
  5
118
330
78
100
AcDbEntity
  8
0
  6
SLD-Durchgehend
 62
     8
420
  8421504
370
     0
100
AcDbSpline
210
0.0
220
0.0
230
1.0
 70
     8
 71
     3
 72
     8
 73
     4
 74
     0
 42
0.00000001
 43
0.00000001
 40
3.0
 40
3.0
 40
3.0
 40
3.0
 40
4.0
 40
4.0
 40
4.0
 40
4.0
 10
238.8093271588036
 20
50.05172814941409
 30
0.0
 10
239.1780746767073
 20
49.65241402180991
 30
0.0
 10
239.6897126975406
 20
49.44536722819013
 30
0.0
 10
240.2502572938948
 20
49.44563594563805
 30
0.0
  0
SPLINE
  5
119
330
78
100
AcDbEntity
  8
0
  6
SLD-Durchgehend
 62
     8
420
  8421504
370
     0
100
AcDbSpline
210
0.0
220
0.0
230
1.0
 70
     8
 71
     3
 72
     8
 73
     4
 74
     0
 42
0.00000001
 43
0.00000001
 40
16.0
 40
16.0
 40
16.0
 40
16.0
 40
17.0
 40
17.0
 40
17.0
 40
17.0
 10
258.4449813336083
 20
50.00443387858074
 30
0.0
 10
258.0674333192854
 20
50.01249540201825
 30
0.0
 10
257.526908172801
 20
50.1397331136068
 30
0.0
 10
257.3465987652489
 20
50.7604704182943
 30
0.0
  0
SPLINE
  5
11A
330
78
100
AcDbEntity
  8
0
  6
SLD-Durchgehend
 62
     8
420
  8421504
370
     0
100
AcDbSpline
210
0.0
220
0.0
230
1.0
 70
     8
 71
     3
 72
     8
 73
     4
 74
     0
 42
0.00000001
 43
0.00000001
 40
2.0
 40
2.0
 40
2.0
 40
2.0
 40
3.0
 40
3.0
 40
3.0
 40
3.0
 10
244.9913735862125
 20
53.52637910970056
 30
0.0
 10
245.7659516298322
 20
53.52456526692713
 30
0.0
 10
246.363243337189
 20
52.96791707356772
 30
0.0
 10
246.363243337189
 20
51.79919771321618
 30
0.0
  0
SPLINE
  5
11B
330
78
100
AcDbEntity
  8
0
  6
SLD-Durchgehend
 62
     8
420
  8421504
370
     0
100
AcDbSpline
210
0.0
220
0.0
230
1.0
 70
     8
 71
     3
 72
     8
 73
     4
 74
     0
 42
0.00000001
 43
0.00000001
 40
6.0
 40
6.0
 40
6.0
 40
6.0
 40
7.0
 40
7.0
 40
7.0
 40
7.0
 10
253.2143962099104
 20
52.16317549641928
 30
0.0
 10
253.219098765249
 20
53.12182499186201
 30
0.0
 10
253.7753438824364
 20
53.52167655436201
 30
0.0
 10
254.4043442486473
 20
53.52637910970056
 30
0.0
  0
SPLINE
  5
11C
330
78
100
AcDbEntity
  8
0
  6
SLD-Durchgehend
 62
     8
420
  8421504
370
     0
100
AcDbSpline
210
0.0
220
0.0
230
1.0
 70
     8
 71
     3
 72
     8
 73
     4
 74
     0
 42
0.00000001
 43
0.00000001
 40
9.0
 40
9.0
 40
9.0
 40
9.0
 40
10.0
 40
10.0
 40
10.0
 40
10.0
 10
271.1938845493668
 20
54.15242356902503
 30
0.0
 10
270.6333399530077
 20
54.15289381889733
 30
0.0
 10
270.1217019342595
 20
53.94645163436776
 30
0.0
 10
269.7527528823119
 20
53.54626417133141
 30
0.0
  0
SPLINE
  5
11D
330
78
100
AcDbEntity
  8
0
  6
SLD-Durchgehend
 62
     8
420
  8421504
370
     0
100
AcDbSpline
210
0.0
220
0.0
230
1.0
 70
     8
 71
     3
 72
     8
 73
     4
 74
     0
 42
0.00000001
 43
0.00000001
 40
3.0
 40
3.0
 40
3.0
 40
3.0
 40
4.0
 40
4.0
 40
4.0
 40
4.0
 10
271.1605892956841
 20
53.52637906439517
 30
0.0
 10
271.9350329805802
 20
53.524565221705
 30
0.0
 10
272.5287641818192
 20
52.89966279663861
 30
0.0
 10
272.5327949436563
 20
51.7991976680583
 30
0.0
  0
SPLINE
  5
11E
330
78
100
AcDbEntity
  8
0
  6
SLD-Durchgehend
 62
     8
420
  8421504
370
     0
100
AcDbSpline
210
0.0
220
0.0
230
1.0
 70
     8
 71
     3
 72
     8
 73
     4
 74
     0
 42
0.00000001
 43
0.00000001
 40
4.0
 40
4.0
 40
4.0
 40
4.0
 40
5.0
 40
5.0
 40
5.0
 40
5.0
 10
272.5327949436563
 20
51.7991976680583
 30
0.0
 10
272.5287641820568
 20
50.6897976843339
 30
0.0
 10
271.9355704158469
 20
50.07403165236909
 30
0.0
 10
271.1605892960555
 20
50.07188191270246
 30
0.0
  0
SPLINE
  5
11F
330
78
100
AcDbEntity
  8
0
  6
SLD-Durchgehend
 62
     8
420
  8421504
370
     0
100
AcDbSpline
210
0.0
220
0.0
230
1.0
 70
     8
 71
     3
 72
     8
 73
     4
 74
     0
 42
0.00000001
 43
0.00000001
 40
11.0
 40
11.0
 40
11.0
 40
11.0
 40
12.0
 40
12.0
 40
12.0
 40
12.0
 10
262.5853797711083
 20
49.44563594563805
 30
0.0
 10
263.5398641461083
 20
49.44563594563805
 30
0.0
 10
264.1459563498844
 20
49.87115002441409
 30
0.0
 10
264.4688203635562
 20
50.70296488444013
 30
0.0
  0
SPLINE
  5
120
330
78
100
AcDbEntity
  8
0
  6
SLD-Durchgehend
 62
     8
420
  8421504
370
     0
100
AcDbSpline
210
0.0
220
0.0
230
1.0
 70
     8
 71
     3
 72
     8
 73
     4
 74
     0
 42
0.00000001
 43
0.00000001
 40
14.0
 40
14.0
 40
14.0
 40
14.0
 40
15.0
 40
15.0
 40
15.0
 40
15.0
 10
271.1949594666974
 20
49.44563593067868
 30
0.0
 10
271.7330661561506
 20
49.44563593611291
 30
0.0
 10
272.2242816489937
 20
49.63857506867777
 30
0.0
 10
272.5890655808147
 20
50.00752412835124
 30
0.0
  0
SPLINE
  5
121
330
78
100
AcDbEntity
  8
0
  6
SLD-Durchgehend
 62
     8
420
  8421504
370
     0
100
AcDbSpline
210
0.0
220
0.0
230
1.0
 70
     8
 71
     3
 72
     8
 73
     4
 74
     0
 42
0.00000001
 43
0.00000001
 40
22.0
 40
22.0
 40
22.0
 40
22.0
 40
23.0
 40
23.0
 40
23.0
 40
23.0
 10
258.4476685080875
 20
49.43623083496097
 30
0.0
 10
259.4949947613427
 20
49.47237333170574
 30
0.0
 10
260.0955782574364
 20
50.09028910319014
 30
0.0
 10
260.0939659527489
 20
50.82039440917971
 30
0.0
  0
SPLINE
  5
122
330
78
100
AcDbEntity
  8
0
  6
SLD-Durchgehend
 62
     8
420
  8421504
370
     0
100
AcDbSpline
210
0.0
220
0.0
230
1.0
 70
     8
 71
     3
 72
     8
 73
     4
 74
     0
 42
0.00000001
 43
0.00000001
 40
2.0
 40
2.0
 40
2.0
 40
2.0
 40
3.0
 40
3.0
 40
3.0
 40
3.0
 10
240.2502572938948
 20
53.52637910970054
 30
0.0
 10
241.0251712343245
 20
53.52456526692713
 30
0.0
 10
241.6187008974104
 20
52.89966284179692
 30
0.0
 10
241.6222614035953
 20
51.79919771321618
 30
0.0
  0
SPLINE
  5
123
330
78
100
AcDbEntity
  8
0
  6
SLD-Durchgehend
 62
     8
420
  8421504
370
     0
100
AcDbSpline
210
0.0
220
0.0
230
1.0
 70
     8
 71
     3
 72
     8
 73
     4
 74
     0
 42
0.00000001
 43
0.00000001
 40
6.0
 40
6.0
 40
6.0
 40
6.0
 40
7.0
 40
7.0
 40
7.0
 40
7.0
 10
265.5798326519676
 20
52.16371293131513
 30
0.0
 10
265.5845352073062
 20
53.12182499186201
 30
0.0
 10
266.1406459657697
 20
53.52167655436201
 30
0.0
 10
266.7699822287906
 20
53.52637910970056
 30
0.0
  0
SPLINE
  5
124
330
78
100
AcDbEntity
  8
0
  6
SLD-Durchgehend
 62
     8
420
  8421504
370
     0
100
AcDbSpline
210
0.0
220
0.0
230
1.0
 70
     8
 71
     3
 72
     8
 73
     4
 74
     0
 42
0.00000001
 43
0.00000001
 40
11.0
 40
11.0
 40
11.0
 40
11.0
 40
12.0
 40
12.0
 40
12.0
 40
12.0
 10
258.3170718283999
 20
54.13750976562503
 30
0.0
 10
257.3694397483218
 20
54.10976468912763
 30
0.0
 10
256.8420817567854
 20
53.52429654947919
 30
0.0
 10
256.8442314963687
 20
52.87897159830732
 30
0.0
  0
SPLINE
  5
125
330
78
100
AcDbEntity
  8
0
  6
SLD-Durchgehend
 62
     8
420
  8421504
370
     0
100
AcDbSpline
210
0.0
220
0.0
230
1.0
 70
     8
 71
     3
 72
     8
 73
     4
 74
     0
 42
0.00000001
 43
0.00000001
 40
4.0
 40
4.0
 40
4.0
 40
4.0
 40
5.0
 40
5.0
 40
5.0
 40
5.0
 10
243.5503762717593
 20
50.05172814941409
 30
0.0
 10
243.919190969025
 20
49.65241402180991
 30
0.0
 10
244.4305602724104
 20
49.44536722819013
 30
0.0
 10
244.9913735862125
 20
49.44563594563805
 30
0.0
  0
SPLINE
  5
126
330
78
100
AcDbEntity
  8
0
  6
SLD-Durchgehend
 62
     8
420
  8421504
370
     0
100
AcDbSpline
210
0.0
220
0.0
230
1.0
 70
     8
 71
     3
 72
     8
 73
     4
 74
     0
 42
0.00000001
 43
0.00000001
 40
11.0
 40
11.0
 40
11.0
 40
11.0
 40
12.0
 40
12.0
 40
12.0
 40
12.0
 10
269.1588873400616
 20
51.79919767770311
 30
0.0
 10
269.1588873477193
 20
51.04101139840623
 30
0.0
 10
269.3842069337522
 20
50.4514453199528
 30
0.0
 10
269.7527529176072
 20
50.05172811989913
 30
0.0
  0
SPLINE
  5
127
330
78
100
AcDbEntity
  8
0
  6
SLD-Durchgehend
 62
     8
420
  8421504
370
     0
100
AcDbSpline
210
0.0
220
0.0
230
1.0
 70
     8
 71
     3
 72
     8
 73
     4
 74
     0
 42
0.00000001
 43
0.00000001
 40
11.0
 40
11.0
 40
11.0
 40
11.0
 40
12.0
 40
12.0
 40
12.0
 40
12.0
 10
268.4404642437646
 20
52.5733055013021
 30
0.0
 10
268.4404642437646
 20
53.03361848958336
 30
0.0
 10
268.3216911317854
 20
53.43037980143232
 30
0.0
 10
268.0578105979312
 20
53.71165979003909
 30
0.0
  0
HATCH
  5
128
330
78
100
AcDbEntity
  8
0
  6
Continuous
 62
     7
100
AcDbHatch
 10
0.0
 20
0.0
 30
0.0
210
0.0
220
0.0
230
1.0
  2
SOLID
 70
     1
 71
     0
 91
        2
 92
        0
 93
       12
 72
     4
 94
        3
 73
     1
 74
     0
 95
        8
 96
        4
 40
4.0
 40
4.0
 40
4.0
 40
4.0
 40
5.0
 40
5.0
 40
5.0
 40
5.0
 10
243.5503762717593
 20
50.05172814941409
 42
1.0
 10
243.919190969025
 20
49.65241402180991
 42
1.0
 10
244.4305602724104
 20
49.44536722819013
 42
1.0
 10
244.9913735862125
 20
49.44563594563805
 42
1.0
 97
        0
 72
     1
 10
244.9913735862125
 20
49.44563594563805
 11
244.9984945985823
 21
49.44563594563805
 72
     4
 94
        3
 73
     1
 74
     0
 95
        8
 96
        4
 40
6.0
 40
6.0
 40
6.0
 40
6.0
 40
7.0
 40
7.0
 40
7.0
 40
7.0
 10
244.9984945985823
 20
49.44563594563805
 42
1.0
 10
245.9458579612125
 20
49.44563594563805
 42
1.0
 10
246.7583251649885
 20
50.01303283691409
 42
1.0
 10
246.9688652854312
 20
51.13371895345053
 42
1.0
 97
        0
 72
     4
 94
        3
 73
     1
 74
     0
 95
        8
 96
        4
 40
7.0
 40
7.0
 40
7.0
 40
7.0
 40
8.0
 40
8.0
 40
8.0
 40
8.0
 10
246.9688652854312
 20
51.13371895345053
 42
1.0
 10
247.0101805930484
 20
51.35352982584638
 42
1.0
 10
247.0248256939599
 20
51.60007808430993
 42
1.0
 10
247.0248256939599
 20
51.7258378499349
 42
1.0
 97
        0
 72
     1
 10
247.0248256939599
 20
51.7258378499349
 11
247.0260349224755
 21
51.7258378499349
 72
     1
 10
247.0260349224755
 20
51.7258378499349
 11
247.0260349224755
 21
55.23085388183598
 72
     1
 10
247.0260349224755
 20
55.23085388183598
 11
246.3676771750796
 21
55.23085388183598
 72
     1
 10
246.3676771750796
 20
55.23085388183598
 11
246.3676771750796
 21
53.54109138997399
 72
     4
 94
        3
 73
     1
 74
     0
 95
        8
 96
        4
 40
0.0
 40
0.0
 40
0.0
 40
0.0
 40
1.0
 40
1.0
 40
1.0
 40
1.0
 10
246.3676771750796
 20
53.54109138997399
 42
1.0
 10
246.0469629009911
 20
53.931269124349
 42
1.0
 10
245.5208141379703
 20
54.15289383951826
 42
1.0
 10
244.9913735862125
 20
54.15289383951826
 42
1.0
 97
        0
 72
     4
 94
        3
 73
     1
 74
     0
 95
        8
 96
        4
 40
1.0
 40
1.0
 40
1.0
 40
1.0
 40
2.0
 40
2.0
 40
2.0
 40
2.0
 10
244.9913735862125
 20
54.15289383951826
 42
1.0
 10
244.4305602724104
 20
54.15289383951826
 42
1.0
 10
243.919190969025
 20
53.94645166015629
 42
1.0
 10
243.5503762717593
 20
53.54626420084637
 42
1.0
 97
        0
 72
     4
 94
        3
 73
     1
 74
     0
 95
        8
 96
        4
 40
2.0
 40
2.0
 40
2.0
 40
2.0
 40
3.0
 40
3.0
 40
3.0
 40
3.0
 10
243.5503762717593
 20
53.54626420084637
 42
1.0
 10
243.1810913189599
 20
53.14695007324222
 42
1.0
 10
242.9563763531395
 20
52.55704809570316
 42
1.0
 10
242.9563763531395
 20
51.79919771321618
 42
1.0
 97
        0
 72
     4
 94
        3
 73
     1
 74
     0
 95
        8
 96
        4
 40
3.0
 40
3.0
 40
3.0
 40
3.0
 40
4.0
 40
4.0
 40
4.0
 40
4.0
 10
242.9563763531395
 20
51.79919771321618
 42
1.0
 10
242.9563763531395
 20
51.04101143391929
 42
1.0
 10
243.1810913189599
 20
50.45144535319012
 42
1.0
 10
243.5503762717593
 20
50.05172814941409
 42
1.0
 97
        0
 97
        0
 92
        0
 93
        4
 72
     4
 94
        3
 73
     1
 74
     0
 95
        8
 96
        4
 40
1.0
 40
1.0
 40
1.0
 40
1.0
 40
2.0
 40
2.0
 40
2.0
 40
2.0
 10
243.61930229715
 20
51.79919771321617
 42
1.0
 10
243.6228628033349
 20
52.89966284179692
 42
1.0
 10
244.2162581076968
 20
53.52456526692713
 42
1.0
 10
244.9913735862125
 20
53.52637910970056
 42
1.0
 97
        0
 72
     4
 94
        3
 73
     1
 74
     0
 95
        8
 96
        4
 40
2.0
 40
2.0
 40
2.0
 40
2.0
 40
3.0
 40
3.0
 40
3.0
 40
3.0
 10
244.9913735862125
 20
53.52637910970056
 42
1.0
 10
245.7659516298322
 20
53.52456526692713
 42
1.0
 10
246.363243337189
 20
52.96791707356772
 42
1.0
 10
246.363243337189
 20
51.79919771321618
 42
1.0
 97
        0
 72
     4
 94
        3
 73
     1
 74
     0
 95
        8
 96
        4
 40
3.0
 40
3.0
 40
3.0
 40
3.0
 40
4.0
 40
4.0
 40
4.0
 40
4.0
 10
246.363243337189
 20
51.79919771321618
 42
1.0
 10
246.3701628114729
 20
50.59198457845055
 42
1.0
 10
245.7664218853661
 20
50.07403169759117
 42
1.0
 10
244.9913735862125
 20
50.07188195800784
 42
1.0
 97
        0
 72
     4
 94
        3
 73
     1
 74
     0
 95
        8
 96
        4
 40
0.0
 40
0.0
 40
0.0
 40
0.0
 40
1.0
 40
1.0
 40
1.0
 40
1.0
 10
244.9913735862125
 20
50.07188195800785
 42
1.0
 10
244.215855031525
 20
50.07403169759117
 42
1.0
 10
243.6230643414208
 20
50.68979772949222
 42
1.0
 10
243.6193022971499
 20
51.79919771321618
 42
1.0
 97
        0
 97
        0
 75
     0
 76
     1
 98
        1
 10
0.0
 20
0.0
  0
HATCH
  5
129
330
78
100
AcDbEntity
  8
0
  6
Continuous
 62
     7
100
AcDbHatch
 10
0.0
 20
0.0
 30
0.0
210
0.0
220
0.0
230
1.0
  2
SOLID
 70
     1
 71
     0
 91
        1
 92
        0
 93
        8
 72
     4
 94
        3
 73
     1
 74
     0
 95
        8
 96
        4
 40
7.0
 40
7.0
 40
7.0
 40
7.0
 40
8.0
 40
8.0
 40
8.0
 40
8.0
 10
235.2267389195643
 20
49.44563594563805
 42
1.0
 10
234.3484359410487
 20
49.66813399251304
 42
1.0
 10
233.6945792109055
 20
50.4570884195964
 42
1.0
 10
233.6739551467778
 20
51.72167272949222
 42
1.0
 97
        0
 72
     1
 10
233.6739551467778
 20
51.72167272949222
 11
233.6727459182622
 21
51.72167272949222
 72
     1
 10
233.6727459182622
 20
51.72167272949222
 11
233.6727459182622
 21
55.26249536132816
 72
     1
 10
233.6727459182622
 20
55.26249536132816
 11
232.9466713739914
 21
55.26249536132816
 72
     1
 10
232.9466713739914
 20
55.26249536132816
 11
232.9466713739914
 21
51.77971569824223
 72
     1
 10
232.9466713739914
 20
51.77971569824223
 11
232.9472759882492
 21
51.77971569824223
 72
     4
 94
        3
 73
     1
 74
     0
 95
        8
 96
        4
 40
5.0
 40
5.0
 40
5.0
 40
5.0
 40
6.0
 40
6.0
 40
6.0
 40
6.0
 10
232.9472759882492
 20
51.77971569824223
 42
1.0
 10
232.9535908482752
 20
50.25501289876306
 42
1.0
 10
233.8585640334966
 20
49.43676826985681
 42
1.0
 10
234.9778393834315
 20
49.43676826985681
 42
1.0
 97
        0
 72
     4
 94
        3
 73
     1
 74
     0
 95
        8
 96
        4
 40
6.0
 40
6.0
 40
6.0
 40
6.0
 40
7.0
 40
7.0
 40
7.0
 40
7.0
 10
234.9778393834315
 20
49.43676826985681
 42
1.0
 10
235.0608058954758
 20
49.43676826985681
 42
1.0
 10
235.14377240752
 20
49.43985852050785
 42
1.0
 10
235.2267389195643
 20
49.44563594563805
 42
1.0
 97
        0
 97
        0
 75
     0
 76
     1
 98
        1
 10
0.0
 20
0.0
  0
HATCH
  5
12A
330
78
100
AcDbEntity
  8
0
  6
Continuous
 62
     7
100
AcDbHatch
 10
0.0
 20
0.0
 30
0.0
210
0.0
220
0.0
230
1.0
  2
SOLID
 70
     1
 71
     0
 91
        2
 92
        0
 93
        9
 72
     4
 94
        3
 73
     1
 74
     0
 95
        8
 96
        4
 40
3.0
 40
3.0
 40
3.0
 40
3.0
 40
4.0
 40
4.0
 40
4.0
 40
4.0
 10
238.8093271588036
 20
50.05172814941409
 42
1.0
 10
239.1780746767073
 20
49.65241402180991
 42
1.0
 10
239.6897126975406
 20
49.44536722819013
 42
1.0
 10
240.2502572938948
 20
49.44563594563805
 42
1.0
 97
        0
 72
     1
 10
240.2502572938948
 20
49.44563594563805
 11
240.2521383160301
 21
49.44563594563805
 72
     4
 94
        3
 73
     1
 74
     0
 95
        8
 96
        4
 40
5.0
 40
5.0
 40
5.0
 40
5.0
 40
6.0
 40
6.0
 40
6.0
 40
6.0
 10
240.2521383160301
 20
49.44563594563805
 42
1.0
 10
240.8120111187646
 20
49.44563594563805
 42
1.0
 10
241.3224399110823
 20
49.65241402180991
 42
1.0
 10
241.6913217877099
 20
50.05172814941409
 42
1.0
 97
        0
 72
     4
 94
        3
 73
     1
 74
     0
 95
        8
 96
        4
 40
6.0
 40
6.0
 40
6.0
 40
6.0
 40
7.0
 40
7.0
 40
7.0
 40
7.0
 10
241.6913217877099
 20
50.05172814941409
 42
1.0
 10
242.0604723817854
 20
50.45144535319012
 42
1.0
 10
242.2852545269677
 20
51.04101143391929
 42
1.0
 10
242.2852545269677
 20
51.79919771321618
 42
1.0
 97
        0
 72
     4
 94
        3
 73
     1
 74
     0
 95
        8
 96
        4
 40
7.0
 40
7.0
 40
7.0
 40
7.0
 40
8.0
 40
8.0
 40
8.0
 40
8.0
 10
242.2852545269677
 20
51.79919771321618
 42
1.0
 10
242.2852545269677
 20
52.55704809570316
 42
1.0
 10
242.0604723817854
 20
53.14695007324222
 42
1.0
 10
241.6913217877099
 20
53.54626420084637
 42
1.0
 97
        0
 72
     4
 94
        3
 73
     1
 74
     0
 95
        8
 96
        4
 40
8.0
 40
8.0
 40
8.0
 40
8.0
 40
9.0
 40
9.0
 40
9.0
 40
9.0
 10
241.6913217877099
 20
53.54626420084637
 42
1.0
 10
241.3222383729963
 20
53.94645166015629
 42
1.0
 10
240.8108690696109
 20
54.15289383951826
 42
1.0
 10
240.2502572938948
 20
54.1524235839844
 42
1.0
 97
        0
 72
     4
 94
        3
 73
     1
 74
     0
 95
        8
 96
        4
 40
0.0
 40
0.0
 40
0.0
 40
0.0
 40
1.0
 40
1.0
 40
1.0
 40
1.0
 10
240.2502572938948
 20
54.1524235839844
 42
1.0
 10
239.6897126975406
 20
54.15289383951826
 42
1.0
 10
239.1780746767073
 20
53.94645166015629
 42
1.0
 10
238.8093271588036
 20
53.54626420084637
 42
1.0
 97
        0
 72
     4
 94
        3
 73
     1
 74
     0
 95
        8
 96
        4
 40
1.0
 40
1.0
 40
1.0
 40
1.0
 40
2.0
 40
2.0
 40
2.0
 40
2.0
 10
238.8093271588036
 20
53.54626420084637
 42
1.0
 10
238.440310923452
 20
53.14695007324222
 42
1.0
 10
238.2155287782698
 20
52.55704809570316
 42
1.0
 10
238.2156631369937
 20
51.79919771321618
 42
1.0
 97
        0
 72
     4
 94
        3
 73
     1
 74
     0
 95
        8
 96
        4
 40
2.0
 40
2.0
 40
2.0
 40
2.0
 40
3.0
 40
3.0
 40
3.0
 40
3.0
 10
238.2156631369937
 20
51.79919771321618
 42
1.0
 10
238.2155287782698
 20
51.04101143391929
 42
1.0
 10
238.440310923452
 20
50.45144535319012
 42
1.0
 10
238.8093271588036
 20
50.05172814941409
 42
1.0
 97
        0
 97
        0
 92
        0
 93
        4
 72
     4
 94
        3
 73
     1
 74
     0
 95
        8
 96
        4
 40
1.0
 40
1.0
 40
1.0
 40
1.0
 40
2.0
 40
2.0
 40
2.0
 40
2.0
 10
238.8781860048323
 20
51.79919771321618
 42
1.0
 10
238.8819480491031
 20
52.89966284179692
 42
1.0
 10
239.475746429637
 20
53.52456526692712
 42
1.0
 10
240.2502572938948
 20
53.52637910970054
 42
1.0
 97
        0
 72
     4
 94
        3
 73
     1
 74
     0
 95
        8
 96
        4
 40
2.0
 40
2.0
 40
2.0
 40
2.0
 40
3.0
 40
3.0
 40
3.0
 40
3.0
 10
240.2502572938948
 20
53.52637910970054
 42
1.0
 10
241.0251712343245
 20
53.52456526692713
 42
1.0
 10
241.6187008974104
 20
52.89966284179692
 42
1.0
 10
241.6222614035953
 20
51.79919771321618
 42
1.0
 97
        0
 72
     4
 94
        3
 73
     1
 74
     0
 95
        8
 96
        4
 40
3.0
 40
3.0
 40
3.0
 40
3.0
 40
4.0
 40
4.0
 40
4.0
 40
4.0
 10
241.6222614035953
 20
51.79919771321618
 42
1.0
 10
241.6187008974104
 20
50.68979772949221
 42
1.0
 10
241.0255743104963
 20
50.07403169759117
 42
1.0
 10
240.2502572938948
 20
50.07161324055993
 42
1.0
 97
        0
 72
     4
 94
        3
 73
     1
 74
     0
 95
        8
 96
        4
 40
0.0
 40
0.0
 40
0.0
 40
0.0
 40
1.0
 40
1.0
 40
1.0
 40
1.0
 10
240.2502572938948
 20
50.07161324055993
 42
1.0
 10
239.4752761741031
 20
50.07403169759117
 42
1.0
 10
238.882216766551
 20
50.68979772949221
 42
1.0
 10
238.8781860048323
 20
51.79919771321618
 42
1.0
 97
        0
 97
        0
 75
     0
 76
     1
 98
        1
 10
0.0
 20
0.0
  0
HATCH
  5
12B
330
78
100
AcDbEntity
  8
0
  6
Continuous
 62
     7
100
AcDbHatch
 10
0.0
 20
0.0
 30
0.0
210
0.0
220
0.0
230
1.0
  2
SOLID
 70
     1
 71
     0
 91
        1
 92
        0
 93
        5
 72
     4
 94
        3
 73
     1
 74
     0
 95
        8
 96
        4
 40
0.0
 40
0.0
 40
0.0
 40
0.0
 40
1.0
 40
1.0
 40
1.0
 40
1.0
 10
236.0195897496424
 20
53.57185953776045
 42
1.0
 10
235.9188207066737
 20
53.57159082031254
 42
1.0
 10
235.8212090937179
 20
53.56117801920577
 42
1.0
 10
235.7273595250331
 20
53.54102421061203
 42
1.0
 97
        0
 72
     4
 94
        3
 73
     1
 74
     0
 95
       11
 96
        7
 40
1.0
 40
1.0
 40
1.0
 40
1.0
 40
2.0
 40
2.0
 40
2.0
 40
3.0
 40
3.0
 40
3.0
 40
3.0
 10
235.7273595250331
 20
53.54102421061203
 42
1.0
 10
236.3061097284836
 20
53.32248974609381
 42
1.0
 10
236.7050879592778
 20
52.70645499674485
 42
1.0
 10
236.7050879592778
 20
51.7957043863933
 42
1.0
 10
236.7050879592778
 20
50.87816866048182
 42
1.0
 10
236.3067815221034
 20
50.26656774902347
 42
1.0
 10
235.7287031122727
 20
50.04930969238286
 42
1.0
 97
        0
 72
     4
 94
        3
 73
     1
 74
     0
 95
        8
 96
        4
 40
3.0
 40
3.0
 40
3.0
 40
3.0
 40
4.0
 40
4.0
 40
4.0
 40
4.0
 10
235.7287031122727
 20
50.04930969238285
 42
1.0
 10
235.8220824254237
 20
50.029424601237
 42
1.0
 10
235.9193581415695
 20
50.01948205566409
 42
1.0
 10
236.0195897496424
 20
50.01907897949221
 42
1.0
 97
        0
 72
     4
 94
        3
 73
     1
 74
     0
 95
        8
 96
        4
 40
4.0
 40
4.0
 40
4.0
 40
4.0
 40
5.0
 40
5.0
 40
5.0
 40
5.0
 10
236.0195897496424
 20
50.01907897949221
 42
1.0
 10
236.8172103144211
 20
50.02109436035159
 42
1.0
 10
237.4267286656581
 20
50.65526753743492
 42
1.0
 10
237.4308937861008
 20
51.79570438639327
 42
1.0
 97
        0
 72
     4
 94
        3
 73
     1
 74
     0
 95
        8
 96
        4
 40
5.0
 40
5.0
 40
5.0
 40
5.0
 40
6.0
 40
6.0
 40
6.0
 40
6.0
 10
237.4308937861008
 20
51.79570438639327
 42
1.0
 10
237.4271317418299
 20
52.92707202148441
 42
1.0
 10
236.8167400588872
 20
53.57031441243492
 42
1.0
 10
236.0195897496424
 20
53.57185953776045
 42
1.0
 97
        0
 97
        0
 75
     0
 76
     1
 98
        1
 10
0.0
 20
0.0
  0
HATCH
  5
12C
330
78
100
AcDbEntity
  8
0
  6
Continuous
 62
     7
100
AcDbHatch
 10
0.0
 20
0.0
 30
0.0
210
0.0
220
0.0
230
1.0
  2
SOLID
 70
     1
 71
     0
 91
        2
 92
        0
 93
       18
 72
     4
 94
        3
 73
     1
 74
     0
 95
        8
 96
        4
 40
5.0
 40
5.0
 40
5.0
 40
5.0
 40
6.0
 40
6.0
 40
6.0
 40
6.0
 10
249.7665498150536
 20
49.44563594563805
 42
1.0
 10
249.7813292746891
 20
49.44563594563805
 42
1.0
 10
249.7922123313296
 20
49.44644209798179
 42
1.0
 10
249.8010128277489
 20
49.44644209798179
 42
1.0
 97
        0
 72
     4
 94
        3
 73
     1
 74
     0
 95
        8
 96
        4
 40
6.0
 40
6.0
 40
6.0
 40
6.0
 40
7.0
 40
7.0
 40
7.0
 40
7.0
 10
249.8010128277489
 20
49.44644209798179
 42
1.0
 10
249.8100148622541
 20
49.44644209798179
 42
1.0
 10
249.8223086854963
 20
49.44563594563805
 42
1.0
 10
249.8366850689599
 20
49.44563594563805
 42
1.0
 97
        0
 72
     1
 10
249.8366850689599
 20
49.44563594563805
 11
249.8415219830224
 21
49.44563594563805
 72
     4
 94
        3
 73
     1
 74
     0
 95
        8
 96
        4
 40
8.0
 40
8.0
 40
8.0
 40
8.0
 40
9.0
 40
9.0
 40
9.0
 40
9.0
 10
249.8415219830224
 20
49.44563594563805
 42
1.0
 10
250.7082029319156
 20
49.44563594563805
 42
1.0
 10
251.4525502626448
 20
49.94867500813804
 42
1.0
 10
251.7394061382958
 20
50.87978096516928
 42
1.0
 97
        0
 72
     1
 10
251.7394061382958
 20
50.87978096516928
 11
251.7625830181786
 21
50.95435005696617
 72
     1
 10
251.7625830181786
 20
50.95435005696617
 11
251.0299248964338
 21
50.95435005696617
 72
     1
 10
251.0299248964338
 20
50.95435005696617
 11
251.016354665314
 21
50.9159234619141
 72
     4
 94
        3
 73
     1
 74
     0
 95
        8
 96
        4
 40
12.0
 40
12.0
 40
12.0
 40
12.0
 40
13.0
 40
13.0
 40
13.0
 40
13.0
 10
251.016354665314
 20
50.9159234619141
 42
1.0
 10
250.8335596213687
 20
50.40294185384116
 42
1.0
 10
250.4579598085432
 20
50.0826306559245
 42
1.0
 10
249.8141799826968
 20
50.07188195800784
 42
1.0
 97
        0
 72
     1
 10
249.8141799826968
 20
50.07188195800784
 11
249.8012143658349
 21
50.07215067545575
 72
     4
 94
        3
 73
     1
 74
     0
 95
        8
 96
        4
 40
14.0
 40
14.0
 40
14.0
 40
14.0
 40
15.0
 40
15.0
 40
15.0
 40
15.0
 10
249.8012143658349
 20
50.07215067545575
 42
1.0
 10
248.8709145611474
 20
50.08155578613283
 42
1.0
 10
248.4738845318505
 20
50.74166019694015
 42
1.0
 10
248.4677712099104
 20
51.69896610514325
 42
1.0
 97
        0
 72
     1
 10
248.4677712099104
 20
51.69896610514325
 11
248.4676368511865
 21
51.75915881347657
 72
     1
 10
248.4676368511865
 20
51.75915881347657
 11
251.8036296083479
 21
51.75915881347657
 72
     1
 10
251.8036296083479
 20
51.75915881347657
 11
251.8015470481265
 21
51.81962023925784
 72
     4
 94
        3
 73
     1
 74
     0
 95
        8
 96
        4
 40
0.0
 40
0.0
 40
0.0
 40
0.0
 40
1.0
 40
1.0
 40
1.0
 40
1.0
 10
251.8015470481265
 20
51.81962023925784
 42
1.0
 10
251.7605004579573
 20
53.12733369954429
 42
1.0
 10
251.0964324647933
 20
54.1553122965495
 42
1.0
 10
249.7665498150536
 20
54.15289383951826
 42
1.0
 97
        0
 72
     4
 94
        3
 73
     1
 74
     0
 95
        8
 96
        4
 40
1.0
 40
1.0
 40
1.0
 40
1.0
 40
2.0
 40
2.0
 40
2.0
 40
2.0
 10
249.7665498150536
 20
54.15289383951826
 42
1.0
 10
249.2061395774234
 20
54.15289383951826
 42
1.0
 10
248.694904632762
 20
53.94645166015629
 42
1.0
 10
248.3258883974104
 20
53.54626420084637
 42
1.0
 97
        0
 72
     4
 94
        3
 73
     1
 74
     0
 95
        8
 96
        4
 40
2.0
 40
2.0
 40
2.0
 40
2.0
 40
3.0
 40
3.0
 40
3.0
 40
3.0
 10
248.3258883974104
 20
53.54626420084637
 42
1.0
 10
247.9568721620588
 20
53.14695007324222
 42
1.0
 10
247.7316869407047
 20
52.55704809570316
 42
1.0
 10
247.7320900168766
 20
51.79866027832033
 42
1.0
 97
        0
 72
     4
 94
        3
 73
     1
 74
     0
 95
        8
 96
        4
 40
3.0
 40
3.0
 40
3.0
 40
3.0
 40
4.0
 40
4.0
 40
4.0
 40
4.0
 10
247.7320900168766
 20
51.79866027832033
 42
1.0
 10
247.7316869407047
 20
51.04101143391929
 42
1.0
 10
247.9568721620588
 20
50.45144535319012
 42
1.0
 10
248.3258883974104
 20
50.05172814941409
 42
1.0
 97
        0
 72
     4
 94
        3
 73
     1
 74
     0
 95
        8
 96
        4
 40
4.0
 40
4.0
 40
4.0
 40
4.0
 40
5.0
 40
5.0
 40
5.0
 40
5.0
 10
248.3258883974104
 20
50.05172814941409
 42
1.0
 10
248.6946359153141
 20
49.65241402180991
 42
1.0
 10
249.2061395774234
 20
49.44536722819013
 42
1.0
 10
249.7665498150536
 20
49.44563594563805
 42
1.0
 97
        0
 97
        0
 92
        0
 93
        3
 72
     1
 10
251.0529674175927
 20
52.33072082519535
 11
248.4766388856916
 21
52.33072082519535
 72
     4
 94
        3
 73
     1
 74
     0
 95
        8
 96
        4
 40
0.0
 40
0.0
 40
0.0
 40
0.0
 40
1.0
 40
1.0
 40
1.0
 40
1.0
 10
248.4766388856916
 20
52.33072082519535
 42
1.0
 10
248.5873504742333
 20
53.00748571777345
 42
1.0
 10
249.0482008974104
 20
53.52537141927086
 42
1.0
 10
249.7665498150536
 20
53.52637910970056
 42
1.0
 97
        0
 72
     4
 94
        3
 73
     1
 74
     0
 95
        8
 96
        4
 40
1.0
 40
1.0
 40
1.0
 40
1.0
 40
2.0
 40
2.0
 40
2.0
 40
2.0
 10
249.7665498150536
 20
53.52637910970056
 42
1.0
 10
250.6097851666161
 20
53.52456526692713
 42
1.0
 10
250.922908172801
 20
52.93708174641929
 42
1.0
 10
251.0529674175927
 20
52.33072082519535
 42
1.0
 97
        0
 97
        0
 75
     0
 76
     1
 98
        1
 10
0.0
 20
0.0
  0
HATCH
  5
12D
330
78
100
AcDbEntity
  8
0
  6
Continuous
 62
     7
100
AcDbHatch
 10
0.0
 20
0.0
 30
0.0
210
0.0
220
0.0
230
1.0
  2
SOLID
 70
     1
 71
     0
 91
        1
 92
        0
 93
       13
 72
     4
 94
        3
 73
     1
 74
     0
 95
        8
 96
        4
 40
6.0
 40
6.0
 40
6.0
 40
6.0
 40
7.0
 40
7.0
 40
7.0
 40
7.0
 10
253.2143962099104
 20
52.16317549641928
 42
1.0
 10
253.219098765249
 20
53.12182499186201
 42
1.0
 10
253.7753438824364
 20
53.52167655436201
 42
1.0
 10
254.4043442486473
 20
53.52637910970056
 42
1.0
 97
        0
 72
     4
 94
        3
 73
     1
 74
     0
 95
        8
 96
        4
 40
7.0
 40
7.0
 40
7.0
 40
7.0
 40
8.0
 40
8.0
 40
8.0
 40
8.0
 10
254.4043442486473
 20
53.52637910970056
 42
1.0
 10
255.0787578635562
 20
53.51542887369794
 42
1.0
 10
255.4008829042463
 20
53.27620316569013
 42
1.0
 10
255.4121690370588
 20
52.409186319987
 42
1.0
 97
        0
 72
     1
 10
255.4121690370588
 20
52.409186319987
 11
255.4121690370588
 21
49.55486958821616
 72
     1
 10
255.4121690370588
 20
49.55486958821616
 11
256.0747590842593
 21
49.55486958821616
 72
     1
 10
256.0747590842593
 20
49.55486958821616
 11
256.0747590842593
 21
52.5733055013021
 72
     4
 94
        3
 73
     1
 74
     0
 95
        8
 96
        4
 40
11.0
 40
11.0
 40
11.0
 40
11.0
 40
12.0
 40
12.0
 40
12.0
 40
12.0
 10
256.0747590842593
 20
52.5733055013021
 42
1.0
 10
256.0747590842593
 20
53.03361848958336
 42
1.0
 10
255.9559859722802
 20
53.43037980143232
 42
1.0
 10
255.6924413352359
 20
53.71165979003909
 42
1.0
 97
        0
 72
     4
 94
        3
 73
     1
 74
     0
 95
        8
 96
        4
 40
12.0
 40
12.0
 40
12.0
 40
12.0
 40
13.0
 40
13.0
 40
13.0
 40
13.0
 10
255.6924413352359
 20
53.71165979003909
 42
1.0
 10
255.4291654156395
 20
53.99381311035158
 42
1.0
 10
255.0250815533349
 20
54.15316255696617
 42
1.0
 10
254.4773682151187
 20
54.1524235839844
 42
1.0
 97
        0
 72
     4
 94
        3
 73
     1
 74
     0
 95
        8
 96
        4
 40
0.0
 40
0.0
 40
0.0
 40
0.0
 40
1.0
 40
1.0
 40
1.0
 40
1.0
 10
254.4773682151187
 20
54.1524235839844
 42
1.0
 10
254.0052316591292
 20
54.15369999186201
 42
1.0
 10
253.5150910341292
 20
53.98333312988284
 42
1.0
 10
253.2143962099104
 20
53.53269396972657
 42
1.0
 97
        0
 72
     1
 10
253.2143962099104
 20
53.53269396972657
 11
253.2143962099104
 21
54.04325712076826
 72
     1
 10
253.2143962099104
 20
54.04325712076826
 11
252.5518733420718
 21
54.04325712076826
 72
     1
 10
252.5518733420718
 20
54.04325712076826
 11
252.5518733420718
 21
49.55486958821616
 72
     1
 10
252.5518733420718
 20
49.55486958821616
 11
253.2143962099104
 21
49.55486958821616
 72
     1
 10
253.2143962099104
 20
49.55486958821616
 11
253.2143962099104
 21
52.16317549641928
 97
        0
 75
     0
 76
     1
 98
        1
 10
0.0
 20
0.0
  0
HATCH
  5
12E
330
78
100
AcDbEntity
  8
0
  6
Continuous
 62
     7
100
AcDbHatch
 10
0.0
 20
0.0
 30
0.0
210
0.0
220
0.0
230
1.0
  2
SOLID
 70
     1
 71
     0
 91
        1
 92
        0
 93
       24
 72
     4
 94
        3
 73
     1
 74
     0
 95
        8
 96
        4
 40
11.0
 40
11.0
 40
11.0
 40
11.0
 40
12.0
 40
12.0
 40
12.0
 40
12.0
 10
258.3170718283999
 20
54.13750976562503
 42
1.0
 10
257.3694397483218
 20
54.10976468912763
 42
1.0
 10
256.8420817567854
 20
53.52429654947919
 42
1.0
 10
256.8442314963687
 20
52.87897159830732
 42
1.0
 97
        0
 72
     4
 94
        3
 73
     1
 74
     0
 95
        8
 96
        4
 40
12.0
 40
12.0
 40
12.0
 40
12.0
 40
13.0
 40
13.0
 40
13.0
 40
13.0
 10
256.8442314963687
 20
52.87897159830732
 42
1.0
 10
256.8418130393375
 20
51.96848970540368
 42
1.0
 10
257.5411501975406
 20
51.76144291178387
 42
1.0
 10
258.1843254091291
 20
51.63823596191408
 42
1.0
 97
        0
 72
     4
 94
        3
 73
     1
 74
     0
 95
        8
 96
        4
 40
13.0
 40
13.0
 40
13.0
 40
13.0
 40
14.0
 40
14.0
 40
14.0
 40
14.0
 10
258.1843254091291
 20
51.63823596191408
 42
1.0
 10
258.5088017274885
 20
51.5730719807943
 42
1.0
 10
258.8295160015771
 20
51.52094079589845
 42
1.0
 10
259.0598068544416
 20
51.40996048990888
 42
1.0
 97
        0
 72
     4
 94
        3
 73
     1
 74
     0
 95
        8
 96
        4
 40
14.0
 40
14.0
 40
14.0
 40
14.0
 40
15.0
 40
15.0
 40
15.0
 40
15.0
 10
259.0598068544416
 20
51.40996048990888
 42
1.0
 10
259.2900977073062
 20
51.29615865071617
 42
1.0
 10
259.4282184755354
 20
51.14339278157556
 42
1.0
 10
259.4309056500146
 20
50.83866719563805
 42
1.0
 97
        0
 72
     4
 94
        3
 73
     1
 74
     0
 95
        8
 96
        4
 40
15.0
 40
15.0
 40
15.0
 40
15.0
 40
16.0
 40
16.0
 40
16.0
 40
16.0
 10
259.4309056500146
 20
50.83866719563805
 42
1.0
 10
259.4306369325666
 20
50.17480074055992
 42
1.0
 10
258.8938738303531
 20
50.022975382487
 42
1.0
 10
258.4449813336083
 20
50.00443387858074
 42
1.0
 97
        0
 72
     4
 94
        3
 73
     1
 74
     0
 95
        8
 96
        4
 40
16.0
 40
16.0
 40
16.0
 40
16.0
 40
17.0
 40
17.0
 40
17.0
 40
17.0
 10
258.4449813336083
 20
50.00443387858074
 42
1.0
 10
258.0674333192854
 20
50.01249540201825
 42
1.0
 10
257.526908172801
 20
50.1397331136068
 42
1.0
 10
257.3465987652489
 20
50.7604704182943
 42
1.0
 97
        0
 72
     1
 10
257.3465987652489
 20
50.7604704182943
 11
257.3349095562646
 21
50.80265905761723
 72
     1
 10
257.3349095562646
 20
50.80265905761723
 11
256.6612349143375
 21
50.80265905761723
 72
     1
 10
256.6612349143375
 20
50.80265905761723
 11
256.6847476910302
 21
50.7275525309245
 72
     4
 94
        3
 73
     1
 74
     0
 95
        8
 96
        4
 40
20.0
 40
20.0
 40
20.0
 40
20.0
 40
21.0
 40
21.0
 40
21.0
 40
21.0
 10
256.6847476910302
 20
50.7275525309245
 42
1.0
 10
256.9378795269677
 20
49.9117263590495
 42
1.0
 10
257.6850483909
 20
49.45960925292972
 42
1.0
 10
258.397687062775
 20
49.43569340006511
 42
1.0
 97
        0
 72
     1
 10
258.397687062775
 20
49.43569340006511
 11
258.4476685080875
 21
49.43623083496097
 72
     4
 94
        3
 73
     1
 74
     0
 95
        8
 96
        4
 40
22.0
 40
22.0
 40
22.0
 40
22.0
 40
23.0
 40
23.0
 40
23.0
 40
23.0
 10
258.4476685080875
 20
49.43623083496097
 42
1.0
 10
259.4949947613427
 20
49.47237333170574
 42
1.0
 10
260.0955782574364
 20
50.09028910319014
 42
1.0
 10
260.0939659527489
 20
50.82039440917971
 42
1.0
 97
        0
 72
     4
 94
        3
 73
     1
 74
     0
 95
        8
 96
        4
 40
23.0
 40
23.0
 40
23.0
 40
23.0
 40
24.0
 40
24.0
 40
24.0
 40
24.0
 10
260.0939659527489
 20
50.82039440917971
 42
1.0
 10
260.0961156923323
 20
51.7381988525391
 42
1.0
 10
259.4008092958479
 20
51.98891223144533
 42
1.0
 10
258.7550812685041
 20
52.13281042480472
 42
1.0
 97
        0
 72
     4
 94
        3
 73
     1
 74
     0
 95
        8
 96
        4
 40
0.0
 40
0.0
 40
0.0
 40
0.0
 40
1.0
 40
1.0
 40
1.0
 40
1.0
 10
258.7550812685041
 20
52.13281042480472
 42
1.0
 10
258.4303362326968
 20
52.20764823404951
 42
1.0
 10
258.1084127300927
 20
52.26286966959638
 42
1.0
 10
257.8763752138166
 20
52.36605716959637
 42
1.0
 97
        0
 72
     4
 94
        3
 73
     1
 74
     0
 95
        8
 96
        4
 40
1.0
 40
1.0
 40
1.0
 40
1.0
 40
2.0
 40
2.0
 40
2.0
 40
2.0
 10
257.8763752138166
 20
52.36605716959637
 42
1.0
 10
257.6433971864729
 20
52.47173030598961
 42
1.0
 10
257.5089041037905
 20
52.6036705729167
 42
1.0
 10
257.5067543642073
 20
52.86090034993494
 42
1.0
 97
        0
 72
     4
 94
        3
 73
     1
 74
     0
 95
        8
 96
        4
 40
2.0
 40
2.0
 40
2.0
 40
2.0
 40
3.0
 40
3.0
 40
3.0
 40
3.0
 10
257.5067543642073
 20
52.86090034993494
 42
1.0
 10
257.5157563987125
 20
53.25866935221357
 42
1.0
 10
257.6615356142073
 20
53.52980525716148
 42
1.0
 10
258.3858634950666
 20
53.56460416666669
 42
1.0
 97
        0
 72
     4
 94
        3
 73
     1
 74
     0
 95
        8
 96
        4
 40
3.0
 40
3.0
 40
3.0
 40
3.0
 40
4.0
 40
4.0
 40
4.0
 40
4.0
 10
258.3858634950666
 20
53.56460416666669
 42
1.0
 10
258.8105714214989
 20
53.56124519856773
 42
1.0
 10
259.0927247418114
 20
53.38248091634117
 42
1.0
 10
259.2722279970197
 20
53.08124865722658
 42
1.0
 97
        0
 72
     1
 10
259.2722279970197
 20
53.08124865722658
 11
259.2890228375146
 21
53.05276460774744
 72
     1
 10
259.2890228375146
 20
53.05276460774744
 11
259.9476493023583
 21
53.05276460774744
 72
     1
 10
259.9476493023583
 20
53.05276460774744
 11
259.9116411643375
 21
53.13411881510418
 72
     4
 94
        3
 73
     1
 74
     0
 95
        8
 96
        4
 40
7.0
 40
7.0
 40
7.0
 40
7.0
 40
8.0
 40
8.0
 40
8.0
 40
8.0
 10
259.9116411643375
 20
53.13411881510418
 42
1.0
 10
259.6226355491031
 20
53.78965502929691
 42
1.0
 10
259.0584632672021
 20
54.14140616861981
 42
1.0
 10
258.4156911317854
 20
54.14039847819013
 42
1.0
 97
        0
 72
     4
 94
        3
 73
     1
 74
     0
 95
        8
 96
        4
 40
8.0
 40
8.0
 40
8.0
 40
8.0
 40
9.0
 40
9.0
 40
9.0
 40
9.0
 10
258.4156911317854
 20
54.14039847819013
 42
1.0
 10
258.3994337261864
 20
54.14039847819013
 42
1.0
 10
258.3858634950666
 20
54.13932360839846
 42
1.0
 10
258.3740399273583
 20
54.13932360839846
 42
1.0
 97
        0
 72
     1
 10
258.3740399273583
 20
54.13932360839846
 11
258.3170718283999
 21
54.13878617350262
 72
     1
 10
258.3170718283999
 20
54.13878617350262
 11
258.3170718283999
 21
54.13750976562503
 97
        0
 75
     0
 76
     1
 98
        1
 10
0.0
 20
0.0
  0
HATCH
  5
12F
330
78
100
AcDbEntity
  8
0
  6
Continuous
 62
     7
100
AcDbHatch
 10
0.0
 20
0.0
 30
0.0
210
0.0
220
0.0
230
1.0
  2
SOLID
 70
     1
 71
     0
 91
        1
 92
        0
 93
       15
 72
     4
 94
        3
 73
     1
 74
     0
 95
        8
 96
        4
 40
11.0
 40
11.0
 40
11.0
 40
11.0
 40
12.0
 40
12.0
 40
12.0
 40
12.0
 10
262.5853797711083
 20
49.44563594563805
 42
1.0
 10
263.5398641461083
 20
49.44563594563805
 42
1.0
 10
264.1459563498844
 20
49.87115002441409
 42
1.0
 10
264.4688203635562
 20
50.70296488444013
 42
1.0
 97
        0
 72
     1
 10
264.4688203635562
 20
50.70296488444013
 11
264.4999915875146
 21
50.78196781412763
 72
     1
 10
264.4999915875146
 20
50.78196781412763
 11
263.7743201194156
 21
50.78223653157553
 72
     1
 10
263.7743201194156
 20
50.78223653157553
 11
263.7591375836083
 21
50.74918428548179
 72
     4
 94
        3
 73
     1
 74
     0
 95
        8
 96
        4
 40
0.0
 40
0.0
 40
0.0
 40
0.0
 40
1.0
 40
1.0
 40
1.0
 40
1.0
 10
263.7591375836083
 20
50.74918428548179
 42
1.0
 10
263.573050750926
 20
50.36532141113282
 42
1.0
 10
263.234735483999
 20
50.0743004150391
 42
1.0
 10
262.5728844097802
 20
50.07161324055993
 42
1.0
 97
        0
 72
     4
 94
        3
 73
     1
 74
     0
 95
        8
 96
        4
 40
1.0
 40
1.0
 40
1.0
 40
1.0
 40
2.0
 40
2.0
 40
2.0
 40
2.0
 10
262.5728844097802
 20
50.07161324055993
 42
1.0
 10
261.9138548687646
 20
50.07376298014326
 42
1.0
 10
261.203097219025
 20
50.62154349772136
 42
1.0
 10
261.2008131207177
 20
51.79919771321618
 42
1.0
 97
        0
 72
     4
 94
        3
 73
     1
 74
     0
 95
        8
 96
        4
 40
2.0
 40
2.0
 40
2.0
 40
2.0
 40
3.0
 40
3.0
 40
3.0
 40
3.0
 10
261.2008131207177
 20
51.79919771321618
 42
1.0
 10
261.2039033713687
 20
52.97658321126303
 42
1.0
 10
261.9115707704573
 20
53.52355757649742
 42
1.0
 10
262.6275684104312
 20
53.52637910970056
 42
1.0
 97
        0
 72
     4
 94
        3
 73
     1
 74
     0
 95
        8
 96
        4
 40
3.0
 40
3.0
 40
3.0
 40
3.0
 40
4.0
 40
4.0
 40
4.0
 40
4.0
 10
262.6275684104312
 20
53.52637910970056
 42
1.0
 10
263.1397438661604
 20
53.52456526692713
 42
1.0
 10
263.5299216005354
 20
53.37381477864585
 42
1.0
 10
263.7028412782698
 20
53.01218827311202
 42
1.0
 97
        0
 72
     1
 10
263.7028412782698
 20
53.01218827311202
 11
263.7180238140771
 21
52.97839705403647
 72
     1
 10
263.7180238140771
 20
52.97839705403647
 11
264.4359024761864
 21
52.97369449869794
 72
     1
 10
264.4359024761864
 20
52.97369449869794
 11
264.4000286968895
 21
53.05558614095054
 72
     4
 94
        3
 73
     1
 74
     0
 95
        8
 96
        4
 40
7.0
 40
7.0
 40
7.0
 40
7.0
 40
8.0
 40
8.0
 40
8.0
 40
8.0
 10
264.4000286968895
 20
53.05558614095054
 42
1.0
 10
263.9996396994937
 20
53.97654801432294
 42
1.0
 10
263.2563672385562
 20
54.15558101399741
 42
1.0
 10
262.6999877626448
 20
54.1524235839844
 42
1.0
 97
        0
 72
     4
 94
        3
 73
     1
 74
     0
 95
        8
 96
        4
 40
8.0
 40
8.0
 40
8.0
 40
8.0
 40
9.0
 40
9.0
 40
9.0
 40
9.0
 10
262.6999877626448
 20
54.1524235839844
 42
1.0
 10
261.4113532411604
 20
54.15558101399741
 42
1.0
 10
260.5522635601708
 20
53.19773767089846
 42
1.0
 10
260.5381558941552
 20
51.799735148112
 42
1.0
 97
        0
 72
     4
 94
        3
 73
     1
 74
     0
 95
        8
 96
        4
 40
9.0
 40
9.0
 40
9.0
 40
9.0
 40
10.0
 40
10.0
 40
10.0
 40
10.0
 10
260.5381558941552
 20
51.799735148112
 42
1.0
 10
260.5538758648583
 20
50.3993141682943
 42
1.0
 10
261.4438680523583
 20
49.44469543457033
 42
1.0
 10
262.5728844097802
 20
49.44563594563805
 42
1.0
 97
        0
 72
     1
 10
262.5728844097802
 20
49.44563594563805
 11
262.5853797711083
 21
49.44563594563805
 97
        0
 75
     0
 76
     1
 98
        1
 10
0.0
 20
0.0
  0
HATCH
  5
130
330
78
100
AcDbEntity
  8
0
  6
Continuous
 62
     7
100
AcDbHatch
 10
0.0
 20
0.0
 30
0.0
210
0.0
220
0.0
230
1.0
  2
SOLID
 70
     1
 71
     0
 91
        1
 92
        0
 93
       13
 72
     4
 94
        3
 73
     1
 74
     0
 95
        8
 96
        4
 40
11.0
 40
11.0
 40
11.0
 40
11.0
 40
12.0
 40
12.0
 40
12.0
 40
12.0
 10
268.4404642437646
 20
52.5733055013021
 42
1.0
 10
268.4404642437646
 20
53.03361848958336
 42
1.0
 10
268.3216911317854
 20
53.43037980143232
 42
1.0
 10
268.0578105979312
 20
53.71165979003909
 42
1.0
 97
        0
 72
     4
 94
        3
 73
     1
 74
     0
 95
        8
 96
        4
 40
12.0
 40
12.0
 40
12.0
 40
12.0
 40
13.0
 40
13.0
 40
13.0
 40
13.0
 10
268.0578105979312
 20
53.71165979003909
 42
1.0
 10
267.7943331402489
 20
53.99354439290368
 42
1.0
 10
267.3903164573062
 20
54.15289383951826
 42
1.0
 10
266.842804657176
 20
54.15289383951826
 42
1.0
 97
        0
 72
     4
 94
        3
 73
     1
 74
     0
 95
        8
 96
        4
 40
0.0
 40
0.0
 40
0.0
 40
0.0
 40
1.0
 40
1.0
 40
1.0
 40
1.0
 10
266.842804657176
 20
54.15289383951826
 42
1.0
 10
266.3709368186343
 20
54.15369999186201
 42
1.0
 10
265.8797213238427
 20
53.98306441243492
 42
1.0
 10
265.5798326519676
 20
53.52537141927086
 42
1.0
 97
        0
 72
     1
 10
265.5798326519676
 20
53.52537141927086
 11
265.5798326519676
 21
55.23085388183598
 72
     1
 10
265.5798326519676
 20
55.23085388183598
 11
264.9174441428531
 21
55.23085388183598
 72
     1
 10
264.9174441428531
 20
55.23085388183598
 11
264.9174441428531
 21
49.55486958821616
 72
     1
 10
264.9174441428531
 20
49.55486958821616
 11
265.5798326519676
 21
49.55486958821616
 72
     1
 10
265.5798326519676
 20
49.55486958821616
 11
265.5798326519676
 21
52.16371293131513
 72
     4
 94
        3
 73
     1
 74
     0
 95
        8
 96
        4
 40
6.0
 40
6.0
 40
6.0
 40
6.0
 40
7.0
 40
7.0
 40
7.0
 40
7.0
 10
265.5798326519676
 20
52.16371293131513
 42
1.0
 10
265.5845352073062
 20
53.12182499186201
 42
1.0
 10
266.1406459657697
 20
53.52167655436201
 42
1.0
 10
266.7699822287906
 20
53.52637910970056
 42
1.0
 97
        0
 72
     4
 94
        3
 73
     1
 74
     0
 95
        8
 96
        4
 40
7.0
 40
7.0
 40
7.0
 40
7.0
 40
8.0
 40
8.0
 40
8.0
 40
8.0
 10
266.7699822287906
 20
53.52637910970056
 42
1.0
 10
267.4439255881656
 20
53.51516015625004
 42
1.0
 10
267.7661178082177
 20
53.27620316569013
 42
1.0
 10
267.7771352235823
 20
52.40972375488285
 42
1.0
 97
        0
 72
     1
 10
267.7771352235823
 20
52.40972375488285
 11
267.7771352235823
 21
49.55486958821616
 72
     1
 10
267.7771352235823
 20
49.55486958821616
 11
268.4404642437646
 21
49.55486958821616
 72
     1
 10
268.4404642437646
 20
49.55486958821616
 11
268.4404642437646
 21
52.5733055013021
 97
        0
 75
     0
 76
     1
 98
        1
 10
0.0
 20
0.0
  0
HATCH
  5
131
330
78
100
AcDbEntity
  8
0
  6
Continuous
 62
     7
100
AcDbHatch
 10
0.0
 20
0.0
 30
0.0
210
0.0
220
0.0
230
1.0
  2
SOLID
 70
     1
 71
     0
 91
        1
 92
        0
 93
       10
 72
     1
 10
277.2619165933788
 20
50.12670030336879
 11
279.6434249755404
 21
53.66691832094693
 72
     1
 10
279.6434249755404
 20
53.66691832094693
 11
279.6434249755404
 21
54.04325710675423
 72
     1
 10
279.6434249755404
 20
54.04325710675423
 11
276.3750146495663
 21
54.04325710675421
 72
     1
 10
276.3750146495663
 20
54.04325710675421
 11
276.3749694859434
 21
53.47177920441256
 72
     1
 10
276.3749694859434
 20
53.47177920441256
 11
278.7109302679779
 21
53.47177920441256
 72
     1
 10
278.7109302679779
 20
53.47177920441256
 11
276.374695463315
 21
50.00443387717682
 72
     1
 10
276.374695463315
 20
50.00443387717682
 11
276.3746599344662
 21
49.55486958821617
 72
     1
 10
276.3746599344662
 20
49.55486958821617
 11
279.6774157734232
 21
49.55486958821617
 72
     1
 10
279.6774157734232
 20
49.55486958821617
 11
279.6776899522288
 21
50.12670030336879
 72
     1
 10
279.6776899522288
 20
50.12670030336879
 11
277.2619165933788
 21
50.12670030336879
 97
        0
 75
     0
 76
     1
 98
        1
 10
0.0
 20
0.0
  0
HATCH
  5
132
330
78
100
AcDbEntity
  8
0
  6
Continuous
 62
     7
100
AcDbHatch
 10
0.0
 20
0.0
 30
0.0
210
0.0
220
0.0
230
1.0
  2
SOLID
 70
     1
 71
     0
 91
        1
 92
        0
 93
       18
 72
     4
 94
        3
 73
     1
 74
     0
 95
        8
 96
        4
 40
25.0
 40
25.0
 40
25.0
 40
25.0
 40
26.0
 40
26.0
 40
26.0
 40
26.0
 10
275.3033712434755
 20
50.09781320298818
 42
1.0
 10
275.1656535513739
 20
50.1014408868571
 42
1.0
 10
275.1203746608532
 20
50.1463167001075
 42
1.0
 10
275.0822167821244
 20
50.23862114300191
 42
1.0
 97
        0
 72
     4
 94
        3
 73
     1
 74
     0
 95
        8
 96
        4
 40
26.0
 40
26.0
 40
26.0
 40
26.0
 40
27.0
 40
27.0
 40
27.0
 40
27.0
 10
275.0822167821244
 20
50.23862114300191
 42
1.0
 10
275.0460742842386
 20
50.33226917316051
 42
1.0
 10
275.0419091620066
 20
50.47912325839622
 42
1.0
 10
275.0421778774671
 20
50.64223474928492
 42
1.0
 97
        0
 72
     1
 10
275.0421778774671
 20
50.64223474928492
 11
275.0421778774671
 21
53.47142639967554
 72
     1
 10
275.0421778774671
 20
53.47142639967554
 11
275.7691929911002
 21
53.47142639967554
 72
     1
 10
275.7691929911002
 20
53.47142639967554
 11
275.7689641250673
 21
54.0429543062504
 72
     1
 10
275.7689641250673
 20
54.0429543062504
 11
275.0419489884256
 21
54.04301176190589
 72
     1
 10
275.0419489884256
 20
54.04301176190589
 11
275.041473321865
 21
55.23085388183598
 72
     1
 10
275.041473321865
 20
55.23085388183598
 11
274.3795206484703
 21
55.23085388183598
 72
     1
 10
274.3795206484703
 20
55.23085388183598
 11
274.3795206484703
 21
54.04298840332037
 72
     1
 10
274.3795206484703
 20
54.04298840332037
 11
273.7919506048935
 21
54.04298840332037
 72
     1
 10
273.7919506048935
 20
54.04298840332037
 11
273.7919506048935
 21
53.47142639160163
 72
     1
 10
273.7919506048935
 20
53.47142639160163
 11
274.3795206484703
 21
53.47142639160163
 72
     1
 10
274.3795206484703
 20
53.47142639160163
 11
274.3795206484703
 21
50.27785388183599
 72
     4
 94
        3
 73
     1
 74
     0
 95
        8
 96
        4
 40
20.0
 40
20.0
 40
20.0
 40
20.0
 40
21.0
 40
21.0
 40
21.0
 40
21.0
 10
274.3795206484703
 20
50.27785388183599
 42
1.0
 10
274.3784457823096
 20
49.9798462320833
 42
1.0
 10
274.474780989773
 20
49.78408557244977
 42
1.0
 10
274.6302340347482
 20
49.67283655090634
 42
1.0
 97
        0
 72
     4
 94
        3
 73
     1
 74
     0
 95
        8
 96
        4
 40
21.0
 40
21.0
 40
21.0
 40
21.0
 40
22.0
 40
22.0
 40
22.0
 40
22.0
 10
274.6302340347482
 20
49.67283655090634
 42
1.0
 10
274.7848809273797
 20
49.56158752935308
 42
1.0
 10
274.9834631217241
 20
49.53417835208514
 42
1.0
 10
275.1847324902169
 20
49.53390963708953
 42
1.0
 97
        0
 72
     4
 94
        2
 73
     1
 74
     0
 95
        6
 96
        3
 40
22.0
 40
22.0
 40
22.0
 40
23.0
 40
23.0
 40
23.0
 10
275.1847324902169
 20
49.53390963708953
 42
1.0
 10
275.2214124218576
 20
49.53390963753644
 42
1.0
 10
275.769192939439
 20
49.53364092676277
 42
1.0
 97
        0
 72
     1
 10
275.769192939439
 20
49.53364092676277
 11
275.769192939439
 21
50.09781320866384
 72
     1
 10
275.769192939439
 20
50.09781320866384
 11
275.3033712434755
 21
50.09781320298818
 97
        0
 75
     0
 76
     1
 98
        1
 10
0.0
 20
0.0
  0
HATCH
  5
133
330
78
100
AcDbEntity
  8
0
  6
Continuous
 62
     7
100
AcDbHatch
 10
0.0
 20
0.0
 30
0.0
210
0.0
220
0.0
230
1.0
  2
SOLID
 70
     1
 71
     0
 91
        2
 92
        0
 93
       12
 72
     4
 94
        3
 73
     1
 74
     0
 95
        8
 96
        4
 40
10.0
 40
10.0
 40
10.0
 40
10.0
 40
11.0
 40
11.0
 40
11.0
 40
11.0
 10
269.7527528823119
 20
53.54626417133141
 42
1.0
 10
269.3842069065273
 20
53.14695004000491
 42
1.0
 10
269.1588873324072
 20
52.55704806019009
 42
1.0
 10
269.1588873400616
 20
51.79919767770311
 42
1.0
 97
        0
 72
     4
 94
        3
 73
     1
 74
     0
 95
        8
 96
        4
 40
11.0
 40
11.0
 40
11.0
 40
11.0
 40
12.0
 40
12.0
 40
12.0
 40
12.0
 10
269.1588873400616
 20
51.79919767770311
 42
1.0
 10
269.1588873477193
 20
51.04101139840623
 42
1.0
 10
269.3842069337522
 20
50.4514453199528
 42
1.0
 10
269.7527529176072
 20
50.05172811989913
 42
1.0
 97
        0
 72
     4
 94
        3
 73
     1
 74
     0
 95
        8
 96
        4
 40
12.0
 40
12.0
 40
12.0
 40
12.0
 40
13.0
 40
13.0
 40
13.0
 40
13.0
 10
269.7527529176072
 20
50.05172811989913
 42
1.0
 10
270.1217019776297
 20
49.65241399602138
 42
1.0
 10
270.6333400005543
 20
49.4453672075692
 42
1.0
 10
271.1938845969058
 20
49.44563593067868
 42
1.0
 97
        0
 72
     1
 10
271.1938845969058
 20
49.44563593067868
 11
271.1949594666974
 21
49.44563593067868
 72
     4
 94
        3
 73
     1
 74
     0
 95
        8
 96
        4
 40
14.0
 40
14.0
 40
14.0
 40
14.0
 40
15.0
 40
15.0
 40
15.0
 40
15.0
 10
271.1949594666974
 20
49.44563593067868
 42
1.0
 10
271.7330661561506
 20
49.44563593611291
 42
1.0
 10
272.2242816489937
 20
49.63857506867777
 42
1.0
 10
272.5890655808147
 20
50.00752412835124
 42
1.0
 97
        0
 72
     1
 10
272.5890655808147
 20
50.00752412835124
 11
272.6762643972355
 21
49.55486958821616
 72
     1
 10
272.6762643972355
 20
49.55486958821616
 11
273.2284787527034
 21
49.55486958821616
 72
     1
 10
273.2284787527034
 20
49.55486958821616
 11
273.2284787527034
 21
54.04325711952716
 72
     1
 10
273.2284787527034
 20
54.04325711952716
 11
272.5521168951743
 21
54.04325711952716
 72
     1
 10
272.5521168951743
 20
54.04325711952716
 11
272.5521168951743
 21
53.62640917844642
 72
     4
 94
        3
 73
     1
 74
     0
 95
        8
 96
        4
 40
8.0
 40
8.0
 40
8.0
 40
8.0
 40
9.0
 40
9.0
 40
9.0
 40
9.0
 10
272.5521168951743
 20
53.62640917844642
 42
1.0
 10
272.1912293591284
 20
53.97231570963218
 42
1.0
 10
271.7145246047004
 20
54.1528938298174
 42
1.0
 10
271.1938845493668
 20
54.15242356902503
 42
1.0
 97
        0
 72
     4
 94
        3
 73
     1
 74
     0
 95
        8
 96
        4
 40
9.0
 40
9.0
 40
9.0
 40
9.0
 40
10.0
 40
10.0
 40
10.0
 40
10.0
 10
271.1938845493668
 20
54.15242356902503
 42
1.0
 10
270.6333399530077
 20
54.15289381889733
 42
1.0
 10
270.1217019342595
 20
53.94645163436776
 42
1.0
 10
269.7527528823119
 20
53.54626417133141
 42
1.0
 97
        0
 97
        0
 92
        0
 93
        5
 72
     4
 94
        3
 73
     1
 74
     0
 95
        8
 96
        4
 40
3.0
 40
3.0
 40
3.0
 40
3.0
 40
4.0
 40
4.0
 40
4.0
 40
4.0
 10
271.1605892956841
 20
53.52637906439517
 42
1.0
 10
271.9350329805802
 20
53.524565221705
 42
1.0
 10
272.5287641818192
 20
52.89966279663861
 42
1.0
 10
272.5327949436563
 20
51.7991976680583
 42
1.0
 97
        0
 72
     4
 94
        3
 73
     1
 74
     0
 95
        8
 96
        4
 40
4.0
 40
4.0
 40
4.0
 40
4.0
 40
5.0
 40
5.0
 40
5.0
 40
5.0
 10
272.5327949436563
 20
51.7991976680583
 42
1.0
 10
272.5287641820568
 20
50.6897976843339
 42
1.0
 10
271.9355704158469
 20
50.07403165236909
 42
1.0
 10
271.1605892960555
 20
50.07188191270246
 42
1.0
 97
        0
 72
     4
 94
        3
 73
     1
 74
     0
 95
        8
 96
        4
 40
0.0
 40
0.0
 40
0.0
 40
0.0
 40
1.0
 40
1.0
 40
1.0
 40
1.0
 10
271.1605892960555
 20
50.07188191270246
 42
1.0
 10
270.3854738175397
 20
50.07403165220246
 42
1.0
 10
269.7921456924734
 20
50.68979768403972
 42
1.0
 10
269.7885180068072
 20
51.79919766776329
 42
1.0
 97
        0
 72
     1
 10
269.7885180068072
 20
51.79919766776329
 11
269.7882492893593
 21
51.79919766776327
 72
     4
 94
        3
 73
     1
 74
     0
 95
        8
 96
        4
 40
2.0
 40
2.0
 40
2.0
 40
2.0
 40
3.0
 40
3.0
 40
3.0
 40
3.0
 10
269.7882492893593
 20
51.79919766776327
 42
1.0
 10
269.7921456922359
 20
52.89966279634443
 42
1.0
 10
270.3860112520646
 20
53.52456522153849
 42
1.0
 10
271.1605892956841
 20
53.52637906439517
 42
1.0
 97
        0
 97
        0
 75
     0
 76
     1
 98
        1
 10
0.0
 20
0.0
  0
ENDBLK
  5
7A
330
78
100
AcDbEntity
  8
0
100
AcDbBlockEnd
  0
ENDSEC
  0
SECTION
  2
ENTITIES
  0
SPLINE
  5
134
330
1F
100
AcDbEntity
  8
0
  6
SLD-Durchgehend
 62
     7
370
    25
100
AcDbSpline
210
0.0
220
0.0
230
1.0
 70
     8
 71
     3
 72
    12
 73
     8
 74
     0
 42
0.00000001
 43
0.00000001
 40
0.0
 40
0.0
 40
0.0
 40
0.0
 40
0.2018267776528594
 40
0.4623013572661873
 40
0.71191852388108
 40
0.9583308133305583
 40
1.0
 40
1.0
 40
1.0
 40
1.0
 10
118.7973719877002
 20
153.2957091495521
 30
0.0
 10
118.8444818117243
 20
153.2714970360101
 30
0.0
 10
118.9523908604651
 20
153.2160371357784
 30
0.0
 10
119.1360167949131
 20
153.174452237624
 30
0.0
 10
119.3329607904906
 20
153.1858459402529
 30
0.0
 10
119.4750841670712
 20
153.2218022683079
 30
0.0
 10
119.5354140561315
 20
153.2674703856838
 30
0.0
 10
119.5441403978695
 20
153.2740759936993
 30
0.0
  0
LINE
  5
135
330
1F
100
AcDbEntity
  8
0
  6
SLD-Durchgehend
 62
     7
370
    25
100
AcDbLine
 10
119.5385385058
 20
153.2659814462
 30
0.0
 11
124.7164026787
 21
156.151650579
 31
0.0
  0
LINE
  5
136
330
1F
100
AcDbEntity
  8
0
  6
SLD-Durchgehend
 62
     7
370
    25
100
AcDbLine
 10
107.0458958148
 20
160.0796919431
 30
0.0
 11
118.7973719877
 21
153.2957091496
 31
0.0
  0
SPLINE
  5
137
330
1F
100
AcDbEntity
  8
0
  6
SLD-Durchgehend
 62
     7
370
    25
100
AcDbSpline
210
0.0
220
0.0
230
1.0
 70
     8
 71
     3
 72
    11
 73
     7
 74
     0
 42
0.00000001
 43
0.00000001
 40
0.0
 40
0.0
 40
0.0
 40
0.0
 40
0.2016920931691614
 40
0.4535405561091058
 40
0.700286907964101
 40
1.0
 40
1.0
 40
1.0
 40
1.0
 10
106.7836370143091
 20
169.5862147621946
 30
0.0
 10
106.7398121400231
 20
169.5580280126456
 30
0.0
 10
106.6412641129648
 20
169.4946450913595
 30
0.0
 10
106.5360316234853
 20
169.3451505466526
 30
0.0
 10
106.4569916519396
 20
169.1561706350552
 30
0.0
 10
106.4475267327961
 20
169.0156785167145
 30
0.0
 10
106.4423355695468
 20
168.9386237093262
 30
0.0
  0
LINE
  5
138
330
1F
100
AcDbEntity
  8
0
  6
SLD-Durchgehend
 62
     7
370
    25
100
AcDbLine
 10
111.8755084636
 20
172.6363066379
 30
0.0
 11
106.787235503
 21
169.5954609527
 31
0.0
  0
LINE
  5
139
330
1F
100
AcDbEntity
  8
0
  6
SLD-Durchgehend
 62
     7
370
    25
100
AcDbLine
 10
106.4423355695
 20
168.9386237093
 30
0.0
 11
106.4423355695
 21
168.6527877881
 31
0.0
  0
SPLINE
  5
13A
330
1F
100
AcDbEntity
  8
0
  6
SLD-Durchgehend
 62
     7
370
    25
100
AcDbSpline
210
0.0
220
0.0
230
1.0
 70
     8
 71
     3
 72
    10
 73
     6
 74
     0
 42
0.00000001
 43
0.00000001
 40
0.0
 40
0.0
 40
0.0
 40
0.0
 40
0.3355038369947879
 40
0.9599966087753954
 40
1.0
 40
1.0
 40
1.0
 40
1.0
 10
106.4423355695468
 20
168.652787788108
 30
0.0
 10
106.4419994516224
 20
168.6378339380337
 30
0.0
 10
106.4410376978899
 20
168.5950456185675
 30
0.0
 10
106.428537470047
 20
168.5711879779872
 30
0.0
 10
106.4335147399988
 20
168.5782564999435
 30
0.0
 10
106.4338143770595
 20
168.5786820326477
 30
0.0
  0
SPLINE
  5
13B
330
1F
100
AcDbEntity
  8
0
  6
SLD-Durchgehend
 62
     7
370
    25
100
AcDbSpline
210
0.0
220
0.0
230
1.0
 70
     8
 71
     3
 72
    14
 73
    10
 74
     0
 42
0.00000001
 43
0.00000001
 40
0.0
 40
0.0
 40
0.0
 40
0.0
 40
0.082239771898524
 40
0.2364891272038286
 40
0.397527461555194
 40
0.5643225574398543
 40
0.7327579367060564
 40
0.8974673710850272
 40
1.0
 40
1.0
 40
1.0
 40
1.0
 10
105.9852760296607
 20
162.2025752141778
 30
0.0
 10
106.0006966699011
 20
162.1930126285475
 30
0.0
 10
106.0450403453173
 20
162.165514406248
 30
0.0
 10
106.1371188410796
 20
162.085411485806
 30
0.0
 10
106.245387980802
 20
161.9549488349884
 30
0.0
 10
106.3408425940079
 20
161.7960311144629
 30
0.0
 10
106.4086424686727
 20
161.6299578843436
 30
0.0
 10
106.4391111608752
 20
161.4940919505417
 30
0.0
 10
106.4414414924107
 20
161.4339688225739
 30
0.0
 10
106.4423355695468
 20
161.4109014121028
 30
0.0
  0
SPLINE
  5
13C
330
1F
100
AcDbEntity
  8
0
  6
SLD-Durchgehend
 62
     7
370
    25
100
AcDbSpline
210
0.0
220
0.0
230
1.0
 70
     8
 71
     3
 72
    13
 73
     9
 74
     0
 42
0.00000001
 43
0.00000001
 40
0.0
 40
0.0
 40
0.0
 40
0.0
 40
0.1230552018339614
 40
0.3129261102575403
 40
0.5063494967355379
 40
0.7034247000659715
 40
0.9080837867247636
 40
1.0
 40
1.0
 40
1.0
 40
1.0
 10
106.4423355695468
 20
161.1250654908846
 30
0.0
 10
106.444617018335
 20
161.0749931205865
 30
0.0
 10
106.4504186820146
 20
160.947660412702
 30
0.0
 10
106.5053862226567
 20
160.7408428992682
 30
0.0
 10
106.6109074998714
 20
160.5141968202531
 30
0.0
 10
106.7608017410262
 20
160.3063766129894
 30
0.0
 10
106.9119379495586
 20
160.1633799442503
 30
0.0
 10
107.0142016868533
 20
160.0994923348444
 30
0.0
 10
107.0458958147512
 20
160.0796919430616
 30
0.0
  0
LINE
  5
13D
330
1F
100
AcDbEntity
  8
0
  6
SLD-Durchgehend
 62
     7
370
    25
100
AcDbLine
 10
106.4423355695
 20
161.4109014121
 30
0.0
 11
106.4423355695
 21
161.1250654909
 31
0.0
  0
LINE
  5
13E
330
1F
100
AcDbEntity
  8
0
  6
SLD-Durchgehend
 62
     7
370
    25
100
AcDbLine
 10
100.5893319855
 20
165.317587406
 30
0.0
 11
105.9852760297
 21
162.2025752142
 31
0.0
  0
SPLINE
  5
13F
330
1F
100
AcDbEntity
  8
0
  6
SLD-Durchgehend
 62
     7
370
    25
100
AcDbSpline
210
0.0
220
0.0
230
1.0
 70
     8
 71
     3
 72
    16
 73
    12
 74
     0
 42
0.00000001
 43
0.00000001
 40
0.0
 40
0.0
 40
0.0
 40
0.0
 40
0.0689569534390854
 40
0.1997084052983978
 40
0.330533886341163
 40
0.4610992278415926
 40
0.5910346029546474
 40
0.7199076760856892
 40
0.8473992379190416
 40
0.9735303533704932
 40
0.9999999999999999
 40
0.9999999999999999
 40
0.9999999999999999
 40
0.9999999999999999
 10
124.4487205894383
 20
134.9164672972796
 30
0.0
 10
124.526578393754
 20
134.8730081888783
 30
0.0
 10
124.7520648336914
 20
134.7471448958868
 30
0.0
 10
125.1258341059539
 20
134.579356839773
 30
0.0
 10
125.5651620203008
 20
134.4335539388921
 30
0.0
 10
125.9958036910726
 20
134.3464700788001
 30
0.0
 10
126.4121642164691
 20
134.3192030115768
 30
0.0
 10
126.8098556997184
 20
134.3507983926025
 30
0.0
 10
127.1799574343093
 20
134.446365842578
 30
0.0
 10
127.4396391274098
 20
134.5464202925016
 30
0.0
 10
127.5639888010969
 20
134.630337897286
 30
0.0
 10
127.5855581030853
 20
134.6448939801938
 30
0.0
  0
LINE
  5
140
330
1F
100
AcDbEntity
  8
0
  6
SLD-Durchgehend
 62
     7
370
    25
100
AcDbLine
 10
127.5734666289
 20
134.6317960069
 30
0.0
 11
129.5180102772
 21
135.7543571607
 31
0.0
  0
SPLINE
  5
141
330
1F
100
AcDbEntity
  8
0
  6
SLD-Durchgehend
 62
     7
370
    25
100
AcDbSpline
210
0.0
220
0.0
230
1.0
 70
     8
 71
     3
 72
    10
 73
     6
 74
     0
 42
0.00000001
 43
0.00000001
 40
0.0
 40
0.0
 40
0.0
 40
0.0
 40
0.3422635728254434
 40
0.9251870043048345
 40
1.0
 40
1.0
 40
1.0
 40
1.0
 10
100.5259305903285
 20
165.3462208763871
 30
0.0
 10
100.5248597603232
 20
165.3464159542168
 30
0.0
 10
100.5219651548689
 20
165.3469432772717
 30
0.0
 10
100.5582365630538
 20
165.3352671947305
 30
0.0
 10
100.586156306616
 20
165.3193929878697
 30
0.0
 10
100.5893319854573
 20
165.3175874059976
 30
0.0
  0
SPLINE
  5
142
330
1F
100
AcDbEntity
  8
0
  6
SLD-Durchgehend
 62
     7
370
    25
100
AcDbSpline
210
0.0
220
0.0
230
1.0
 70
     8
 71
     3
 72
    12
 73
     8
 74
     0
 42
0.00000001
 43
0.00000001
 40
0.0
 40
0.0
 40
0.0
 40
0.0
 40
0.2018267776528625
 40
0.4623013572661908
 40
0.7119185238810872
 40
0.9583308133305687
 40
1.0
 40
1.0
 40
1.0
 40
1.0
 10
99.52871220036681
 20
164.4192696731365
 30
0.0
 10
99.57582202439097
 20
164.3950575595946
 30
0.0
 10
99.68373107313175
 20
164.3395976593628
 30
0.0
 10
99.86735700757973
 20
164.2980127612084
 30
0.0
 10
100.0643010031573
 20
164.3094064638373
 30
0.0
 10
100.2064243797379
 20
164.3453627918923
 30
0.0
 10
100.2667542687981
 20
164.3910309092682
 30
0.0
 10
100.2754806105361
 20
164.3976365172838
 30
0.0
  0
LINE
  5
143
330
1F
100
AcDbEntity
  8
0
  6
SLD-Durchgehend
 62
     7
370
    25
100
AcDbLine
 10
100.2698787185
 20
164.3895419698
 30
0.0
 11
101.250369929
 21
164.935978324
 31
0.0
  0
LINE
  5
144
330
1F
100
AcDbEntity
  8
0
  6
SLD-Durchgehend
 62
     7
370
    25
100
AcDbLine
 10
87.7772360274
 20
171.2032524666
 30
0.0
 11
99.5287122004
 21
164.4192696731
 31
0.0
  0
SPLINE
  5
145
330
1F
100
AcDbEntity
  8
0
  6
SLD-Durchgehend
 62
     7
370
    25
100
AcDbSpline
210
0.0
220
0.0
230
1.0
 70
     8
 71
     3
 72
    11
 73
     7
 74
     0
 42
0.00000001
 43
0.00000001
 40
0.0
 40
0.0
 40
0.0
 40
0.0
 40
0.2016920931691811
 40
0.4535405561091319
 40
0.7002869079641045
 40
1.0
 40
1.0
 40
1.0
 40
1.0
 10
87.51497722697572
 20
180.709775285779
 30
0.0
 10
87.47115235268973
 20
180.68158853623
 30
0.0
 10
87.37260432563146
 20
180.6182056149439
 30
0.0
 10
87.26737183615194
 20
180.468711070237
 30
0.0
 10
87.18833186460623
 20
180.2797311586396
 30
0.0
 10
87.1788669454627
 20
180.1392390402989
 30
0.0
 10
87.17367578221338
 20
180.0621842329106
 30
0.0
  0
LINE
  5
146
330
1F
100
AcDbEntity
  8
0
  6
SLD-Durchgehend
 62
     7
370
    25
100
AcDbLine
 10
92.6068486763
 20
183.7598671615
 30
0.0
 11
87.5185757156
 21
180.7190214763
 31
0.0
  0
LINE
  5
147
330
1F
100
AcDbEntity
  8
0
  6
SLD-Durchgehend
 62
     7
370
    25
100
AcDbLine
 10
87.1736757822
 20
180.0621842329
 30
0.0
 11
87.1736757822
 21
172.2486260145
 31
0.0
  0
LINE
  5
148
330
1F
100
AcDbEntity
  8
0
  6
SLD-Durchgehend
 62
     7
370
    25
100
AcDbLine
 10
93.3360222172
 20
152.8774457574
 30
0.0
 11
124.4487205894
 21
134.9164672973
 31
0.0
  0
SPLINE
  5
149
330
1F
100
AcDbEntity
  8
0
  6
SLD-Durchgehend
 62
     7
370
    25
100
AcDbSpline
210
0.0
220
0.0
230
1.0
 70
     8
 71
     3
 72
    15
 73
    11
 74
     0
 42
0.00000001
 43
0.00000001
 40
0.0
 40
0.0
 40
0.0
 40
0.0
 40
0.0350264446628012
 40
0.1770513187358246
 40
0.3193341874499214
 40
0.4629697587979874
 40
0.6084578536643321
 40
0.7556549579528526
 40
0.9040380601654772
 40
1.0
 40
1.0
 40
1.0
 40
1.0
 10
90.1810390407848
 20
186.1557647708026
 30
0.0
 10
90.15670594050786
 20
186.1421951568828
 30
0.0
 10
90.03370723097743
 20
186.0736036094856
 30
0.0
 10
89.84471594816578
 20
185.8968906288467
 30
0.0
 10
89.62028732635395
 20
185.6284548394937
 30
0.0
 10
89.43826508560858
 20
185.3099165983124
 30
0.0
 10
89.29689189067227
 20
184.9496445481502
 30
0.0
 10
89.19989919297053
 20
184.5492922174031
 30
0.0
 10
89.15185532644374
 20
184.167463843665
 30
0.0
 10
89.14703942291781
 20
183.9150538184494
 30
0.0
 10
89.14514806698715
 20
183.8159245074945
 30
0.0
  0
LINE
  5
14A
330
1F
100
AcDbEntity
  8
0
  6
SLD-Durchgehend
 62
     7
370
    25
100
AcDbLine
 10
92.1986520943
 20
187.3297607076
 30
0.0
 11
90.254108446
 21
186.2071995538
 31
0.0
  0
SPLINE
  5
14B
330
1F
100
AcDbEntity
  8
0
  6
SLD-Durchgehend
 62
     7
370
    25
100
AcDbSpline
210
0.0
220
0.0
230
1.0
 70
     8
 71
     3
 72
    13
 73
     9
 74
     0
 42
0.00000001
 43
0.00000001
 40
0.0
 40
0.0
 40
0.0
 40
0.0
 40
0.1230552018339608
 40
0.3129261102575348
 40
0.5063494967355344
 40
0.7034247000659639
 40
0.9080837867247522
 40
1.0
 40
1.0
 40
1.0
 40
1.0
 10
87.17367578221337
 20
172.248626014469
 30
0.0
 10
87.17595723100165
 20
172.1985536441709
 30
0.0
 10
87.18175889468127
 20
172.0712209362865
 30
0.0
 10
87.23672643532335
 20
171.8644034228526
 30
0.0
 10
87.34224771253801
 20
171.6377573438375
 30
0.0
 10
87.49214195369284
 20
171.4299371365739
 30
0.0
 10
87.64327816222523
 20
171.2869404678347
 30
0.0
 10
87.74554189951986
 20
171.2230528584288
 30
0.0
 10
87.77723602741786
 20
171.203252466646
 30
0.0
  0
LINE
  5
14C
330
1F
100
AcDbEntity
  8
0
  6
SLD-Durchgehend
 62
     7
370
    25
100
AcDbLine
 10
89.145148067
 20
183.8159245075
 30
0.0
 11
89.145148067
 21
181.6910910871
 31
0.0
  0
LINE
  5
14D
330
1F
100
AcDbEntity
  8
0
  6
SLD-Durchgehend
 62
     7
370
    25
100
AcDbLine
 10
89.145148067
 20
170.413573655
 30
0.0
 11
89.145148067
 21
160.1362409628
 31
0.0
  0
SPLINE
  5
14E
330
1F
100
AcDbEntity
  8
0
  6
SLD-Durchgehend
 62
     7
370
    25
100
AcDbSpline
210
0.0
220
0.0
230
1.0
 70
     8
 71
     3
 72
    23
 73
    19
 74
     0
 42
0.00000001
 43
0.00000001
 40
0.0
 40
0.0
 40
0.0
 40
0.0
 40
0.0350482461985655
 40
0.1013783773518434
 40
0.167671036129416
 40
0.2339068915788351
 40
0.3000851227910945
 40
0.366214488773382
 40
0.4323085160981704
 40
0.4983829668234097
 40
0.5644546287570513
 40
0.6305380493622433
 40
0.6966477941241082
 40
0.7628015367334969
 40
0.829016532031408
 40
0.8953084045917213
 40
0.9616885716928801
 40
0.9999999999999999
 40
0.9999999999999999
 40
0.9999999999999999
 40
0.9999999999999999
 10
89.14514806698715
 20
160.1362409628078
 30
0.0
 10
89.14643347095877
 20
160.0458197629539
 30
0.0
 10
89.15015155054957
 20
159.7842730234266
 30
0.0
 10
89.19124326209148
 20
159.3349617642304
 30
0.0
 10
89.28246180330137
 20
158.7874976260964
 30
0.0
 10
89.41786209638275
 20
158.2297417531595
 30
0.0
 10
89.59503466734073
 20
157.6678551510302
 30
0.0
 10
89.81220270360247
 20
157.1074374829519
 30
0.0
 10
90.06697136737348
 20
156.5542086125486
 30
0.0
 10
90.35668469904607
 20
156.0137794917493
 30
0.0
 10
90.67835283238367
 20
155.4916597283213
 30
0.0
 10
91.02870228521333
 20
154.9931995467151
 30
0.0
 10
91.4042075804984
 20
154.5235032026164
 30
0.0
 10
91.80114154871076
 20
154.0874843255802
 30
0.0
 10
92.2156118421528
 20
153.6894200191319
 30
0.0
 10
92.64362568827885
 20
153.3344581994406
 30
0.0
 10
93.01916738802923
 20
153.0669448041074
 30
0.0
 10
93.251134773893
 20
152.9282137688126
 30
0.0
 10
93.33602221723028
 20
152.8774457573792
 30
0.0
  0
LINE
  5
14F
330
1F
100
AcDbEntity
  8
0
  6
SLD-Durchgehend
 62
     7
370
    25
100
AcDbLine
 10
89.395148067
 20
188.9188733066
 30
0.0
 11
92.1732610924
 21
187.3151027942
 31
0.0
  0
LINE
  5
150
330
1F
100
AcDbEntity
  8
0
  6
SLD-Durchgehend
 62
     7
370
    25
100
AcDbLine
 10
89.430503406
 20
188.9392835094
 30
0.0
 11
89.395148067
 21
188.9188733066
 31
0.0
  0
LINE
  5
151
330
1F
100
AcDbEntity
  8
0
  6
SLD-Durchgehend
 62
     7
370
    25
100
AcDbLine
 10
89.430503406
 20
188.9392835094
 30
0.0
 11
92.2086563027
 21
187.3354899798
 31
0.0
  0
LINE
  5
152
330
1F
100
AcDbEntity
  8
0
  6
SLD-Durchgehend
 62
     7
370
    25
100
AcDbLine
 10
89.395148067
 20
185.1752128974
 30
0.0
 11
89.395148067
 21
188.9188733066
 31
0.0
  0
LWPOLYLINE
  5
153
330
1F
100
AcDbEntity
  8
0
  6
SLD-Durchgehend
 62
     7
370
    25
100
AcDbPolyline
 90
       21
 70
   128
 43
0.0
 10
108.3102544637
 20
163.8339577755
 10
108.2842982618
 20
164.0381857125
 10
108.20897043
 20
164.2523907889
 10
108.0916445812
 20
164.4556051195
 10
107.943805387
 20
164.6279366695
 10
107.7799243778
 20
164.7525164263
 10
107.6160433687
 20
164.8171496552
 10
107.4682041745
 20
164.8155096054
 10
107.3508783257
 20
164.7477568165
 10
107.2755504939
 20
164.6205234035
 10
107.2495942919
 20
164.4462638593
 10
107.2755504939
 20
164.2420359223
 10
107.3508783257
 20
164.0278308459
 10
107.4682041745
 20
163.8246165153
 10
107.6160433687
 20
163.6522849653
 10
107.7799243778
 20
163.5277052085
 10
107.943805387
 20
163.4630719796
 10
108.0916445812
 20
163.4647120293
 10
108.20897043
 20
163.5324648182
 10
108.2842982618
 20
163.6596982313
 10
108.3102544637
 20
163.8339577755
  0
LWPOLYLINE
  5
154
330
1F
100
AcDbEntity
  8
0
  6
SLD-Durchgehend
 62
     7
370
    25
100
AcDbPolyline
 90
       36
 70
   128
 43
0.0
 10
97.0319013038
 20
170.3448124672
 10
97.0569009969
 20
170.6511382337
 10
97.1310965656
 20
170.9187544066
 10
97.2521033032
 20
171.139059582
 10
97.4160319537
 20
171.3049729704
 10
97.6176137152
 20
171.4111619789
 10
97.8503695842
 20
171.4542136054
 10
98.1068185955
 20
171.4327441351
 10
98.3787182669
 20
171.3474436147
 10
98.6573295191
 20
171.2010536728
 10
98.9336975574
 20
170.9982794028
 10
99.1989396855
 20
170.7456381365
 10
99.4445308033
 20
170.4512499721
 10
99.6625774101
 20
170.1245767874
 10
99.8460713086
 20
169.7761181274
 10
99.9891148539
 20
169.4170737401
 10
100.0871105088
 20
169.0589836075
 10
100.1369086122
 20
168.7133570411
 10
100.1369086122
 20
168.3913027632
 10
100.0871105088
 20
168.1031718633
 10
99.9891148539
 20
167.8582251054
 10
99.8460713086
 20
167.6643352801
 10
99.6625774101
 20
167.5277341657
 10
99.4445308033
 20
167.4528122346
 10
99.1989396855
 20
167.4419775392
 10
98.9336975574
 20
167.4955783155
 10
98.6573295191
 20
167.6118917905
 10
98.3787182669
 20
167.7871795534
 10
98.1068185955
 20
168.0158077113
 10
97.8503695842
 20
168.2904279671
 10
97.6176137152
 20
168.6022137997
 10
97.4160319537
 20
168.941144156
 10
97.2521033032
 20
169.2963255355
 10
97.1310965656
 20
169.6563421164
 10
97.0569009969
 20
170.0096226695
 10
97.0319013038
 20
170.3448124672
  0
LWPOLYLINE
  5
155
330
1F
100
AcDbEntity
  8
0
  6
SLD-Durchgehend
 62
     7
370
    25
100
AcDbPolyline
 90
       26
 70
   128
 43
0.0
 10
89.395148067
 20
174.1410106622
 10
89.4202389338
 20
173.6659973618
 10
89.4951158361
 20
173.1695060068
 10
89.6185979206
 20
172.6593665623
 10
89.788737801
 20
172.1436242323
 10
90.0028522696
 20
171.6304125813
 10
90.2575646136
 20
171.1278252637
 10
90.5488578669
 20
170.6437883816
 10
90.8721381611
 20
170.1859354859
 10
91.2223071727
 20
169.7614871902
 10
91.5938425273
 20
169.3771372977
 10
91.9808848904
 20
169.0389472359
 10
92.3773303726
 20
168.7522504639
 10
92.776926792
 20
168.5215683612
 10
93.1733722743
 20
168.3505389223
 10
93.5604146373
 20
168.2418593837
 10
93.9319499919
 20
168.1972436866
 10
94.2821190035
 20
168.2173954471
 10
94.6053992977
 20
168.3019968601
 10
94.8966925511
 20
168.4497137106
 10
95.151404895
 20
168.6582164157
 10
95.3655193637
 20
168.9242167632
 10
95.535659244
 20
169.2435197687
 10
95.6591413285
 20
169.611089833
 10
95.7340182309
 20
170.0211301567
 10
95.7591090977
 20
170.467174159
  0
LINE
  5
156
330
1F
100
AcDbEntity
  8
0
  6
SLD-Durchgehend
 62
     7
370
    25
100
AcDbLine
 10
95.7591090977
 20
170.467174159
 30
0.0
 11
95.7591090977
 21
171.6919853768
 31
0.0
  0
LWPOLYLINE
  5
157
330
1F
100
AcDbEntity
  8
0
  6
SLD-Durchgehend
 62
     7
370
    25
100
AcDbPolyline
 90
       26
 70
   128
 43
0.0
 10
95.7591090977
 20
171.6919853768
 10
95.7340182309
 20
172.1669986772
 10
95.6591413285
 20
172.6634900322
 10
95.535659244
 20
173.1736294766
 10
95.3655193637
 20
173.6893718066
 10
95.151404895
 20
174.2025834576
 10
94.8966925511
 20
174.7051707753
 10
94.6053992977
 20
175.1892076573
 10
94.2821190035
 20
175.647060553
 10
93.9319499919
 20
176.0715088487
 10
93.5604146373
 20
176.4558587412
 10
93.1733722743
 20
176.7940488031
 10
92.776926792
 20
177.0807455751
 10
92.3773303726
 20
177.3114276778
 10
91.9808848904
 20
177.4824571166
 10
91.5938425273
 20
177.5911366553
 10
91.2223071727
 20
177.6357523524
 10
90.8721381611
 20
177.6156005918
 10
90.5488578669
 20
177.5309991789
 10
90.2575646136
 20
177.3832823284
 10
90.0028522696
 20
177.1747796233
 10
89.788737801
 20
176.9087792758
 10
89.6185979206
 20
176.5894762703
 10
89.4951158361
 20
176.2219062059
 10
89.4202389338
 20
175.8118658822
 10
89.395148067
 20
175.36582188
  0
LINE
  5
158
330
1F
100
AcDbEntity
  8
0
  6
SLD-Durchgehend
 62
     7
370
    25
100
AcDbLine
 10
89.395148067
 20
175.36582188
 30
0.0
 11
89.395148067
 21
174.1410106622
 31
0.0
  0
LWPOLYLINE
  5
159
330
1F
100
AcDbEntity
  8
0
  6
SLD-Durchgehend
 62
     7
370
    25
100
AcDbPolyline
 90
       26
 70
   128
 43
0.0
 10
115.5580989709
 20
155.9754325489
 10
115.956906878
 20
155.7741796515
 10
116.3494253462
 20
155.6340486462
 10
116.7294641248
 20
155.5572494827
 10
117.0910297751
 20
155.5449933297
 10
117.4284201909
 20
155.597473474
 10
117.7363145238
 20
155.7138622725
 10
118.0098570962
 20
155.8923242041
 10
118.2447339784
 20
156.1300448178
 10
118.4372410216
 20
156.4232751173
 10
118.5843422747
 20
156.7673906856
 10
118.6837178632
 20
157.1569646148
 10
118.7338005745
 20
157.5858530912
 10
118.7338005745
 20
158.0472922874
 10
118.6837178632
 20
158.5340050315
 10
118.5843422747
 20
159.0383155729
 10
118.4372410216
 20
159.552270633
 10
118.2447339784
 20
160.0677648336
 10
118.0098570962
 20
160.5766685231
 10
117.7363145238
 20
161.0709559863
 10
117.4284201909
 20
161.5428320148
 10
117.0910297751
 20
161.9848548416
 10
116.7294641248
 20
162.3900535026
 10
116.3494253462
 20
162.7520377731
 10
115.956906878
 20
163.0650989447
 10
115.5580989709
 20
163.3242998558
  0
LINE
  5
15A
330
1F
100
AcDbEntity
  8
0
  6
SLD-Durchgehend
 62
     7
370
    25
100
AcDbLine
 10
115.5580989709
 20
163.3242998558
 30
0.0
 11
112.022565065
 21
165.3653201354
 31
0.0
  0
LWPOLYLINE
  5
15B
330
1F
100
AcDbEntity
  8
0
  6
SLD-Durchgehend
 62
     7
370
    25
100
AcDbPolyline
 90
       26
 70
   128
 43
0.0
 10
112.022565065
 20
165.3653201354
 10
111.6237571578
 20
165.5665730328
 10
111.2312386896
 20
165.7067040381
 10
110.8511999111
 20
165.7835032016
 10
110.4896342608
 20
165.7957593546
 10
110.152243845
 20
165.7432792103
 10
109.8443495121
 20
165.6268904118
 10
109.5708069396
 20
165.4484284801
 10
109.3359300575
 20
165.2107078665
 10
109.1434230143
 20
164.917477567
 10
108.9963217611
 20
164.5733619986
 10
108.8969461727
 20
164.1837880694
 10
108.8468634613
 20
163.754899593
 10
108.8468634613
 20
163.2934603969
 10
108.8969461727
 20
162.8067476527
 10
108.9963217611
 20
162.3024371114
 10
109.1434230143
 20
161.7884820513
 10
109.3359300575
 20
161.2729878507
 10
109.5708069396
 20
160.7640841612
 10
109.8443495121
 20
160.2697966979
 10
110.152243845
 20
159.7979206695
 10
110.4896342608
 20
159.3558978427
 10
110.8511999111
 20
158.9506991816
 10
111.2312386896
 20
158.5887149112
 10
111.6237571578
 20
158.2756537396
 10
112.022565065
 20
158.0164528284
  0
LINE
  5
15C
330
1F
100
AcDbEntity
  8
0
  6
SLD-Durchgehend
 62
     7
370
    25
100
AcDbLine
 10
112.022565065
 20
158.0164528284
 30
0.0
 11
115.5580989709
 21
155.9754325489
 31
0.0
  0
ARC
  5
15D
330
1F
100
AcDbEntity
  8
0
  6
SLD-Durchgehend
 62
     7
370
    25
100
AcDbCircle
 10
123.1062902703
 20
161.8442044635
 30
0.0
 40
7.662015076030877
100
AcDbArc
 50
2.520154907
 51
57.4798452386
  0
ARC
  5
15E
330
1F
100
AcDbEntity
  8
0
  6
SLD-Durchgehend
 62
     7
370
    25
100
AcDbCircle
 10
118.9010479767
 20
159.5600963019
 30
0.0
 40
3.009332526039127
100
AcDbArc
 50
238.4372290714
 51
262.5520748972
  0
LINE
  5
15F
330
1F
100
AcDbEntity
  8
0
  6
SLD-Durchgehend
 62
     7
370
    25
100
AcDbLine
 10
117.3258659239
 20
158.8331595154
 30
0.0
 11
113.7903320179
 21
160.874179795
 31
0.0
  0
ARC
  5
160
330
1F
100
AcDbEntity
  8
0
  6
SLD-Durchgehend
 62
     7
370
    25
100
AcDbCircle
 10
117.9594330301
 20
159.6266623072
 30
0.0
 40
1.015408271926169
100
AcDbArc
 50
231.3946134026
 51
310.9395218909
  0
LWPOLYLINE
  5
161
330
1F
100
AcDbEntity
  8
0
  6
SLD-Durchgehend
 62
     7
370
    25
100
AcDbPolyline
 90
       16
 70
   128
 43
0.0
 10
113.7903320179
 20
160.874179795
 10
113.4979883252
 20
161.0742283242
 10
113.2156000464
 20
161.3300286563
 10
112.9527835755
 20
161.6328698177
 10
112.7184888122
 20
161.9724389158
 10
112.5206943839
 20
162.3371723323
 10
112.3661359424
 20
162.7146495082
 10
112.2600767901
 20
163.0920159109
 10
112.2061286442
 20
163.4564207802
 10
112.2061286442
 20
163.7954547454
 10
112.2600767901
 20
164.0975724113
 10
112.3661359424
 20
164.3524855233
 10
112.5206943839
 20
164.551513321
 10
112.7184888122
 20
164.6878781514
 10
112.9527835755
 20
164.756936274
 10
113.0620207226
 20
164.765255157
  0
LINE
  5
162
330
1F
100
AcDbEntity
  8
0
  6
SLD-Durchgehend
 62
     7
370
    25
100
AcDbLine
 10
113.7903320179
 20
159.0369629682
 30
0.0
 11
117.3258659239
 21
156.9959426887
 31
0.0
  0
ARC
  5
163
330
1F
100
AcDbEntity
  8
0
  6
SLD-Durchgehend
 62
     7
370
    25
100
AcDbCircle
 10
116.9258748574
 20
164.4291512127
 30
0.0
 40
6.237573483468961
100
AcDbArc
 50
167.4444799013
 51
239.822115005
  0
LINE
  5
164
330
1F
100
AcDbEntity
  8
0
  6
SLD-Durchgehend
 62
     7
370
    25
100
AcDbLine
 10
130.7608947664
 20
138.5014259995
 30
0.0
 11
130.7608947664
 21
162.1811095442
 31
0.0
  0
LINE
  5
165
330
1F
100
AcDbEntity
  8
0
  6
SLD-Durchgehend
 62
     7
370
    25
100
AcDbLine
 10
127.2253608605
 20
168.3048338832
 30
0.0
 11
94.6984489259
 21
187.0822204551
 31
0.0
  0
LWPOLYLINE
  5
166
330
1F
100
AcDbEntity
  8
0
  6
SLD-Durchgehend
 62
     7
370
    25
100
AcDbPolyline
 90
       16
 70
   128
 43
0.0
 10
97.739008085
 20
170.3448124672
 10
97.7636147645
 20
170.0511809566
 10
97.8364274026
 20
169.7411604871
 10
97.9544650415
 20
169.4274433331
 10
98.1128952062
 20
169.1228731119
 10
98.3052317472
 20
168.839918964
 10
98.523600384
 20
168.5901650656
 10
98.7590610788
 20
168.3838363705
 10
99.0019740433
 20
168.2293799998
 10
99.242394392
 20
168.1331194155
 10
99.4704792876
 20
168.0989955371
 10
99.6768909078
 20
168.1284054003
 10
99.8531787365
 20
168.2201449619
 10
99.9921255294
 20
168.3704583933
 10
100.0880427883
 20
168.573191845
 10
100.1317483398
 20
168.7726036653
  0
LWPOLYLINE
  5
167
330
1F
100
AcDbEntity
  8
0
  6
SLD-Durchgehend
 62
     7
370
    25
100
AcDbPolyline
 90
        9
 70
   128
 43
0.0
 10
98.7759598222
 20
171.1211527322
 10
98.7590610788
 20
171.1280604459
 10
98.523600384
 20
171.1935888825
 10
98.3052317472
 20
171.1959580455
 10
98.1128952062
 20
171.1350709411
 10
97.9544650415
 20
171.0134202945
 10
97.8364274026
 20
170.8359864974
 10
97.7636147645
 20
170.6100337105
 10
97.739008085
 20
170.3448124672
  0
ARC
  5
168
330
1F
100
AcDbEntity
  8
0
  6
SLD-Durchgehend
 62
     7
370
    25
100
AcDbCircle
 10
94.1716707516
 20
176.4685789652
 30
0.0
 40
3.009879667488033
100
AcDbArc
 50
157.4440136953
 51
181.5658398404
  0
ARC
  5
169
330
1F
100
AcDbEntity
  8
0
  6
SLD-Durchgehend
 62
     7
370
    25
100
AcDbCircle
 10
127.8298438741
 20
138.1728514747
 30
0.0
 40
2.94941020399964
100
AcDbArc
 50
304.9159547339
 51
6.3962256595
  0
LINE
  5
16A
330
1F
100
AcDbEntity
  8
0
  6
SLD-Durchgehend
 62
     7
370
    25
100
AcDbLine
 10
92.7539052776
 20
174.2430616761
 30
0.0
 11
92.7539052776
 21
175.467872894
 31
0.0
  0
LWPOLYLINE
  5
16B
330
1F
100
AcDbEntity
  8
0
  6
SLD-Durchgehend
 62
     7
370
    25
100
AcDbPolyline
 90
       16
 70
   128
 43
0.0
 10
95.7591090977
 20
171.6665234348
 10
95.6975827151
 20
171.5765428353
 10
95.5206515229
 20
171.4081280937
 10
95.3036813707
 20
171.304976591
 10
95.0540609168
 20
171.2706010282
 10
94.7802906864
 20
171.3061720237
 10
94.4916935963
 20
171.4104782499
 10
94.1980974743
 20
171.5799676835
 10
93.9095003842
 20
171.8088685649
 10
93.6357301538
 20
172.0893859494
 10
93.3861096999
 20
172.4119671537
 10
93.1691395477
 20
172.7656270618
 10
92.9922083554
 20
173.1383222098
 10
92.8613413028
 20
173.5173609114
 10
92.7809949101
 20
173.8898354581
 10
92.7539052776
 20
174.2430616761
  0
ARC
  5
16C
330
1F
100
AcDbEntity
  8
0
  6
SLD-Durchgehend
 62
     7
370
    25
100
AcDbCircle
 10
93.7580024081
 20
175.6199063044
 30
0.0
 40
1.015541828445693
100
AcDbArc
 50
109.0588098195
 51
188.609929471
  0
ARC
  5
16D
330
1F
100
AcDbEntity
  8
0
  6
SLD-Durchgehend
 62
     7
370
    25
100
AcDbCircle
 10
97.4003685325
 20
175.1808327048
 30
0.0
 40
6.237483408483217
100
AcDbArc
 50
180.1773940262
 51
252.5507668376
  0
LINE
  5
16E
330
1F
100
AcDbEntity
  8
0
  6
SLD-Durchgehend
 62
     7
370
    25
100
AcDbLine
 10
91.16291502
 20
176.3863320198
 30
0.0
 11
91.16291502
 21
175.1615208019
 31
0.0
  0
LINE
  5
16F
330
1F
100
AcDbEntity
  8
0
  6
SLD-Durchgehend
 62
     7
370
    25
100
AcDbLine
 10
90.1848639935
 20
186.1649473974
 30
0.0
 11
90.254108446
 21
186.2071995538
 31
0.0
  0
ARC
  5
170
330
1F
100
AcDbEntity
  8
0
  6
SLD-Durchgehend
 62
     7
370
    25
100
AcDbCircle
 10
93.2290128098
 20
184.9889788344
 30
0.0
 40
2.557518911329954
100
AcDbArc
 50
54.9315025352
 51
113.7580390357
  0
ELLIPSE
  5
171
330
1F
100
AcDbEntity
  8
0
  6
SLD-Durchgehend
 62
     8
370
    18
100
AcDbEllipse
 10
118.6937713553
 20
161.746429083
 30
0.0
 11
-0.2499796785164676
 21
0.4330244338706848
 31
0.0
210
0.0
220
0.0
230
1.0
 40
0.5774255159
 41
3.927110169639706
 42
5.497830344012891
  0
ARC
  5
172
330
1F
100
AcDbEntity
  8
0
  6
SLD-Durchgehend
 62
     8
370
    18
100
AcDbCircle
 10
119.4623893018
 20
162.1194028189
 30
0.0
 40
0.7694010745328916
100
AcDbArc
 50
122.918088183
 51
177.3706035983
  0
ELLIPSE
  5
173
330
1F
100
AcDbEntity
  8
0
  6
SLD-Durchgehend
 62
     8
370
    18
100
AcDbEllipse
 10
119.0473247459
 20
161.9505311109
 30
0.0
 11
-0.4999598936099403
 21
0.8660485579814292
 31
0.0
210
0.0
220
0.0
230
1.0
 40
0.5723436076
 41
3.92710980879032
 42
5.497829983163402
  0
ARC
  5
174
330
1F
100
AcDbEntity
  8
0
  6
SLD-Durchgehend
 62
     8
370
    18
100
AcDbCircle
 10
119.4010658498
 20
162.2257401042
 30
0.0
 40
0.7695094320447046
100
AcDbArc
 50
242.63357769
 51
297.0777772326
  0
LINE
  5
175
330
1F
100
AcDbEntity
  8
0
  6
SLD-Durchgehend
 62
     8
370
    18
100
AcDbLine
 10
119.0442663746
 20
162.7652752764
 30
0.0
 11
124.2201973686
 21
165.7532850413
 31
0.0
  0
ELLIPSE
  5
176
330
1F
100
AcDbEntity
  8
0
  6
SLD-Durchgehend
 62
     8
370
    18
100
AcDbEllipse
 10
124.2185874081
 20
164.9358458977
 30
0.0
 11
-0.4999590851622742
 21
0.8660490246892891
 31
0.0
210
0.0
220
0.0
230
1.0
 40
0.57996647
 41
3.927110354824876
 42
5.497830529197893
  0
LINE
  5
177
330
1F
100
AcDbEntity
  8
0
  6
SLD-Durchgehend
 62
     8
370
    18
100
AcDbLine
 10
124.9272772254
 20
164.528586808
 30
0.0
 11
119.7513462314
 21
161.5405770431
 31
0.0
  0
ARC
  5
178
330
1F
100
AcDbEntity
  8
0
  6
SLD-Durchgehend
 62
     8
370
    18
100
AcDbCircle
 10
121.170521246
 20
160.7267093422
 30
0.0
 40
7.299822835967427
100
AcDbArc
 50
2.6054784857
 51
57.39452166
  0
ARC
  5
179
330
1F
100
AcDbEntity
  8
0
  6
SLD-Durchgehend
 62
     8
370
    18
100
AcDbCircle
 10
125.4878445422
 20
166.8586212994
 30
0.0
 40
0.3842012018930713
100
AcDbArc
 50
122.60547834
 51
177.3945215143
  0
ARC
  5
17A
330
1F
100
AcDbEntity
  8
0
  6
SLD-Durchgehend
 62
     8
370
    18
100
AcDbCircle
 10
121.161746622
 20
160.7216433097
 30
0.0
 40
7.662015076031082
100
AcDbArc
 50
2.520154907
 51
57.4798452386
  0
ARC
  5
17B
330
1F
100
AcDbEntity
  8
0
  6
SLD-Durchgehend
 62
     8
370
    18
100
AcDbCircle
 10
128.6395744228
 20
161.3997261617
 30
0.0
 40
0.3842554769776905
100
AcDbArc
 50
242.6096722366
 51
297.3903277634
  0
LINE
  5
17C
330
1F
100
AcDbEntity
  8
0
  6
SLD-Durchgehend
 62
     8
370
    18
100
AcDbLine
 10
119.0473382086
 20
153.7287921567
 30
0.0
 11
119.0473382086
 21
161.5423503751
 31
0.0
  0
LINE
  5
17D
330
1F
100
AcDbEntity
  8
0
  6
SLD-Durchgehend
 62
     8
370
    18
100
AcDbLine
 10
119.7513462314
 20
161.5405770431
 30
0.0
 11
119.7513462314
 21
153.7270188247
 31
0.0
  0
ARC
  5
17E
330
1F
100
AcDbEntity
  8
0
  6
SLD-Durchgehend
 62
     8
370
    18
100
AcDbCircle
 10
119.4010658498
 20
154.4121818858
 30
0.0
 40
0.7695094320445978
100
AcDbArc
 50
242.63357769
 51
297.0777772326
  0
ELLIPSE
  5
17F
330
1F
100
AcDbEntity
  8
0
  6
SLD-Durchgehend
 62
     8
370
    18
100
AcDbEllipse
 10
100.485812128
 20
171.9719175617
 30
0.0
 11
-0.499959357032921
 21
0.8660488677414264
 31
0.0
210
0.0
220
0.0
230
1.0
 40
0.5774255159
 41
0.7855175160500383
 42
2.356237690423073
  0
LINE
  5
180
330
1F
100
AcDbEntity
  8
0
  6
SLD-Durchgehend
 62
     8
370
    18
100
AcDbLine
 10
105.8817023222
 20
168.0403645524
 30
0.0
 11
100.485758278
 21
171.1553767442
 31
0.0
  0
ELLIPSE
  5
181
330
1F
100
AcDbEntity
  8
0
  6
SLD-Durchgehend
 62
     8
370
    18
100
AcDbEllipse
 10
105.8816484723
 20
168.8569675437
 30
0.0
 11
-0.499997450167342
 21
0.8661148112507816
 31
0.0
210
0.0
220
0.0
230
1.0
 40
0.5773375779
 41
2.356313818089108
 42
3.927033992462153
  0
LINE
  5
182
330
1F
100
AcDbEntity
  8
0
  6
SLD-Durchgehend
 62
     8
370
    18
100
AcDbLine
 10
106.588782179
 20
168.7345216814
 30
0.0
 11
106.588782179
 21
168.4486857602
 31
0.0
  0
ELLIPSE
  5
183
330
1F
100
AcDbEntity
  8
0
  6
SLD-Durchgehend
 62
     8
370
    18
100
AcDbEllipse
 10
106.9423490323
 20
168.5303807896
 30
0.0
 11
-0.249998725083671
 21
0.4330574056253908
 31
0.0
210
0.0
220
0.0
230
1.0
 40
0.5773375779
 41
5.49790647167889
 42
7.068626646051906
  0
LINE
  5
184
330
1F
100
AcDbEntity
  8
0
  6
SLD-Durchgehend
 62
     8
370
    18
100
AcDbLine
 10
118.6937982803
 20
162.1546994917
 30
0.0
 11
106.9423221073
 21
168.9386822853
 31
0.0
  0
ELLIPSE
  5
185
330
1F
100
AcDbEntity
  8
0
  6
SLD-Durchgehend
 62
     8
370
    18
100
AcDbEllipse
 10
118.6937713553
 20
153.9329330485
 30
0.0
 11
-0.2499987250836852
 21
0.4330574056253624
 31
0.0
210
0.0
220
0.0
230
1.0
 40
0.5773375779
 41
2.356313818089099
 42
3.927033992461979
  0
LINE
  5
186
330
1F
100
AcDbEntity
  8
0
  6
SLD-Durchgehend
 62
     8
370
    18
100
AcDbLine
 10
106.9423221073
 20
160.3086143463
 30
0.0
 11
118.6937982803
 21
153.5246315528
 31
0.0
  0
ELLIPSE
  5
187
330
1F
100
AcDbEntity
  8
0
  6
SLD-Durchgehend
 62
     8
370
    18
100
AcDbEllipse
 10
106.9423490323
 20
160.7168847551
 30
0.0
 11
-0.2499796785164534
 21
0.4330244338707132
 31
0.0
210
0.0
220
0.0
230
1.0
 40
0.5774255159
 41
0.7855175160501157
 42
2.356237690423144
  0
LINE
  5
188
330
1F
100
AcDbEntity
  8
0
  6
SLD-Durchgehend
 62
     8
370
    18
100
AcDbLine
 10
106.588782179
 20
161.2067993841
 30
0.0
 11
106.588782179
 21
160.9209634629
 31
0.0
  0
ELLIPSE
  5
189
330
1F
100
AcDbEntity
  8
0
  6
SLD-Durchgehend
 62
     8
370
    18
100
AcDbEllipse
 10
105.8816484723
 20
161.6149567999
 30
0.0
 11
-0.499959357032921
 21
0.8660488677414264
 31
0.0
210
0.0
220
0.0
230
1.0
 40
0.5774255159
 41
3.927110169639847
 42
5.497830344012903
  0
LINE
  5
18A
330
1F
100
AcDbEntity
  8
0
  6
SLD-Durchgehend
 62
     8
370
    18
100
AcDbLine
 10
100.485758278
 20
165.5465098092
 30
0.0
 11
105.8817023222
 21
162.4314976174
 31
0.0
  0
ELLIPSE
  5
18B
330
1F
100
AcDbEntity
  8
0
  6
SLD-Durchgehend
 62
     8
370
    18
100
AcDbEllipse
 10
100.485812128
 20
164.7299068179
 30
0.0
 11
-0.4999974501673421
 21
0.8661148112508102
 31
0.0
210
0.0
220
0.0
230
1.0
 40
0.5773375779
 41
5.497906471678942
 42
7.068626646051923
  0
LINE
  5
18C
330
1F
100
AcDbEntity
  8
0
  6
SLD-Durchgehend
 62
     8
370
    18
100
AcDbLine
 10
99.7786784213
 20
164.8523526803
 30
0.0
 11
99.7786784213
 21
165.1381886015
 31
0.0
  0
ELLIPSE
  5
18D
330
1F
100
AcDbEntity
  8
0
  6
SLD-Durchgehend
 62
     8
370
    18
100
AcDbEllipse
 10
99.425111568
 20
165.056493572
 30
0.0
 11
-0.249998725083671
 21
0.4330574056253908
 31
0.0
210
0.0
220
0.0
230
1.0
 40
0.5773375779
 41
2.356313818089143
 42
3.927033992462128
  0
LINE
  5
18E
330
1F
100
AcDbEntity
  8
0
  6
SLD-Durchgehend
 62
     8
370
    18
100
AcDbLine
 10
87.67366232
 20
171.4321748699
 30
0.0
 11
99.4251384929
 21
164.6481920764
 31
0.0
  0
ELLIPSE
  5
18F
330
1F
100
AcDbEntity
  8
0
  6
SLD-Durchgehend
 62
     8
370
    18
100
AcDbEllipse
 10
87.673689245
 20
171.8404452786
 30
0.0
 11
-0.2499796785164534
 21
0.4330244338707132
 31
0.0
210
0.0
220
0.0
230
1.0
 40
0.5774255159
 41
0.7855175160500247
 42
2.356237690423125
  0
LINE
  5
190
330
1F
100
AcDbEntity
  8
0
  6
SLD-Durchgehend
 62
     8
370
    18
100
AcDbLine
 10
87.3201223916
 20
179.858082205
 30
0.0
 11
87.3201223916
 21
172.0445239865
 31
0.0
  0
ELLIPSE
  5
191
330
1F
100
AcDbEntity
  8
0
  6
SLD-Durchgehend
 62
     8
370
    18
100
AcDbEllipse
 10
87.673689245
 20
179.6539413132
 30
0.0
 11
-0.249998725083671
 21
0.4330574056253908
 31
0.0
210
0.0
220
0.0
230
1.0
 40
0.5773375779
 41
5.497906471678906
 42
7.068626646051931
  0
LINE
  5
192
330
1F
100
AcDbEntity
  8
0
  6
SLD-Durchgehend
 62
     8
370
    18
100
AcDbLine
 10
99.4251384929
 20
173.2782600153
 30
0.0
 11
87.67366232
 21
180.0622428088
 31
0.0
  0
ELLIPSE
  5
193
330
1F
100
AcDbEntity
  8
0
  6
SLD-Durchgehend
 62
     8
370
    18
100
AcDbEllipse
 10
99.425111568
 20
172.8699896066
 30
0.0
 11
-0.2499796785164818
 21
0.4330244338707132
 31
0.0
210
0.0
220
0.0
230
1.0
 40
0.5774255159
 41
3.927110169639795
 42
5.497830344012899
  0
LINE
  5
194
330
1F
100
AcDbEntity
  8
0
  6
SLD-Durchgehend
 62
     8
370
    18
100
AcDbLine
 10
99.7786784213
 20
172.3800749775
 30
0.0
 11
99.7786784213
 21
172.6659108987
 31
0.0
  0
ARC
  5
195
330
1F
100
AcDbEntity
  8
0
  6
SLD-Durchgehend
 62
     8
370
    18
100
AcDbCircle
 10
107.7109131288
 20
168.9033856124
 30
0.0
 40
0.7694010745329007
100
AcDbArc
 50
122.918088183
 51
177.3706035983
  0
LINE
  5
196
330
1F
100
AcDbEntity
  8
0
  6
SLD-Durchgehend
 62
     8
370
    18
100
AcDbLine
 10
107.2927902017
 20
169.5492580699
 30
0.0
 11
119.0442663746
 21
162.7652752764
 31
0.0
  0
LINE
  5
197
330
1F
100
AcDbEntity
  8
0
  6
SLD-Durchgehend
 62
     8
370
    18
100
AcDbLine
 10
130.7608947664
 20
162.1811095442
 30
0.0
 11
128.8163511181
 21
161.0585483904
 31
0.0
  0
LINE
  5
198
330
1F
100
AcDbEntity
  8
0
  6
SLD-Durchgehend
 62
     8
370
    18
100
AcDbLine
 10
125.2808172122
 20
167.1822727294
 30
0.0
 11
127.2253608605
 21
168.3048338832
 31
0.0
  0
LINE
  5
199
330
1F
100
AcDbEntity
  8
0
  6
SLD-Durchgehend
 62
     8
370
    18
100
AcDbLine
 10
124.9272772254
 20
156.6116105799
 30
0.0
 11
124.9272772254
 21
164.528586808
 31
0.0
  0
LINE
  5
19A
330
1F
100
AcDbEntity
  8
0
  6
SLD-Durchgehend
 62
     8
370
    18
100
AcDbLine
 10
119.7513462314
 20
153.7270188247
 30
0.0
 11
124.9272772254
 21
156.6116105799
 31
0.0
  0
LINE
  5
19B
330
1F
100
AcDbEntity
  8
0
  6
SLD-Durchgehend
 62
     8
370
    18
100
AcDbLine
 10
112.3791634236
 20
172.5889684362
 30
0.0
 11
107.2927902017
 21
169.5492580699
 31
0.0
  0
LINE
  5
19C
330
1F
100
AcDbEntity
  8
0
  6
SLD-Durchgehend
 62
     8
370
    18
100
AcDbLine
 10
124.2201973686
 20
165.7532850413
 30
0.0
 11
112.3791634236
 21
172.5889684362
 31
0.0
  0
LWPOLYLINE
  5
19D
330
1F
100
AcDbEntity
  8
0
  6
SLD-Durchgehend
 62
     8
370
    18
100
AcDbPolyline
 90
       15
 70
   128
 43
0.0
 10
124.3969337357
 20
135.0309284989
 10
124.8521660675
 20
134.7976503318
 10
125.3016735885
 20
134.6263495012
 10
125.739803481
 20
134.5191802145
 10
126.1610460072
 20
134.4774901876
 10
126.5601037981
 20
134.5018036968
 10
126.9319584704
 20
134.5918149857
 10
127.2719337357
 20
134.7463921101
 10
127.575754208
 20
134.9635911729
 10
127.8395991684
 20
135.2406807698
 10
128.0601506135
 20
135.5741763385
 10
128.2346349809
 20
135.9598839787
 10
128.3608580285
 20
136.392953193
 10
128.4372324282
 20
136.8679378847
 10
128.4627977275
 20
137.3788648457
  0
LINE
  5
19E
330
1F
100
AcDbEntity
  8
0
  6
SLD-Durchgehend
 62
     8
370
    18
100
AcDbLine
 10
93.2842353635
 20
152.991906959
 30
0.0
 11
124.3969337357
 21
135.0309284989
 31
0.0
  0
ARC
  5
19F
330
1F
100
AcDbEntity
  8
0
  6
SLD-Durchgehend
 62
     8
370
    18
100
AcDbCircle
 10
98.0019566055
 20
160.4105399294
 30
0.0
 40
8.791644264142096
100
AcDbArc
 50
182.4534496702
 51
237.5465504754
  0
LINE
  5
1A0
330
1F
100
AcDbEntity
  8
0
  6
SLD-Durchgehend
 62
     8
370
    18
100
AcDbLine
 10
89.2183713717
 20
183.7138734935
 30
0.0
 11
89.2183713717
 21
181.7348506833
 31
0.0
  0
LINE
  5
1A1
330
1F
100
AcDbEntity
  8
0
  6
SLD-Durchgehend
 62
     8
370
    18
100
AcDbLine
 10
89.2183713717
 20
170.3713027409
 30
0.0
 11
89.2183713717
 21
160.0341899488
 31
0.0
  0
ARC
  5
1A2
330
1F
100
AcDbEntity
  8
0
  6
SLD-Durchgehend
 62
     8
370
    18
100
AcDbCircle
 10
91.265974617
 20
184.0460276788
 30
0.0
 40
2.074368687785261
100
AcDbArc
 50
50.7967147643
 51
189.2140369905
  0
LINE
  5
1A3
330
1F
100
AcDbEntity
  8
0
  6
SLD-Durchgehend
 62
     8
370
    18
100
AcDbLine
 10
125.1040405169
 20
166.8760865125
 30
0.0
 11
92.5771285823
 21
185.6534730844
 31
0.0
  0
LINE
  5
1A4
330
1F
100
AcDbEntity
  8
0
  6
SLD-Durchgehend
 62
     8
370
    18
100
AcDbLine
 10
128.4627977275
 20
137.3788648457
 30
0.0
 11
128.4627977275
 21
161.0585483904
 31
0.0
  0
ELLIPSE
  5
1A5
330
1F
100
AcDbEntity
  8
0
  6
SLD-Durchgehend
 62
     8
370
    18
100
AcDbEllipse
 10
93.2858049958
 20
182.9970631129
 30
0.0
 11
-0.6249968127091705
 21
1.082643514063506
 31
0.0
210
0.0
220
0.0
230
1.0
 40
0.5773375779
 41
5.497906471678945
 42
6.931288334647072
  0
ELLIPSE
  5
1A6
330
1F
100
AcDbEntity
  8
0
  6
SLD-Durchgehend
 62
     8
370
    18
100
AcDbEllipse
 10
124.3953641034
 20
157.1210761433
 30
0.0
 11
-0.6249968127091848
 21
1.082643514063506
 31
0.0
210
0.0
220
0.0
230
1.0
 40
0.5773375779
 41
2.493489620256576
 42
3.927033992462158
  0
LINE
  5
1A7
330
1F
100
AcDbEntity
  8
0
  6
SLD-Durchgehend
 62
     8
370
    18
100
AcDbLine
 10
125.2792812367
 20
164.527700142
 30
0.0
 11
125.2792812367
 21
156.6107239139
 31
0.0
  0
ELLIPSE
  5
1A8
330
1F
100
AcDbEntity
  8
0
  6
SLD-Durchgehend
 62
     8
370
    18
100
AcDbEllipse
 10
124.3953641034
 20
165.0378969117
 30
0.0
 11
-0.6249491962911691
 21
1.082561084676797
 31
0.0
210
0.0
220
0.0
230
1.0
 40
0.5774255159
 41
3.927110169639889
 42
5.497830344012879
  0
LINE
  5
1A9
330
1F
100
AcDbEntity
  8
0
  6
SLD-Durchgehend
 62
     8
370
    18
100
AcDbLine
 10
112.5543974707
 20
172.8942563285
 30
0.0
 11
124.3954314158
 21
166.0585729336
 31
0.0
  0
ELLIPSE
  5
1AA
330
1F
100
AcDbEntity
  8
0
  6
SLD-Durchgehend
 62
     8
370
    18
100
AcDbEllipse
 10
112.5544647832
 20
171.8735025893
 30
0.0
 11
-0.6249968127091847
 21
1.082643514063477
 31
0.0
210
0.0
220
0.0
230
1.0
 40
0.5773375779
 41
5.497906471678927
 42
6.931288334647038
  0
LINE
  5
1AB
330
1F
100
AcDbEntity
  8
0
  6
SLD-Durchgehend
 62
     8
370
    18
100
AcDbLine
 10
106.1873914136
 20
175.0592501861
 30
0.0
 11
111.1429082151
 21
172.1984912295
 31
0.0
  0
ELLIPSE
  5
1AC
330
1F
100
AcDbEntity
  8
0
  6
SLD-Durchgehend
 62
     8
370
    18
100
AcDbEllipse
 10
106.1874048761
 20
175.2633853904
 30
0.0
 11
-0.1249898392582196
 21
0.2165122169353708
 31
0.0
210
0.0
220
0.0
230
1.0
 40
0.5774255159
 41
0.7855175160501495
 42
2.356237690423163
  0
LINE
  5
1AD
330
1F
100
AcDbEntity
  8
0
  6
SLD-Durchgehend
 62
     8
370
    18
100
AcDbLine
 10
106.0106214494
 20
175.6512606656
 30
0.0
 11
106.0106214494
 21
175.3654247444
 31
0.0
  0
ELLIPSE
  5
1AE
330
1F
100
AcDbEntity
  8
0
  6
SLD-Durchgehend
 62
     8
370
    18
100
AcDbEllipse
 10
105.1267043161
 20
176.1614574353
 30
0.0
 11
-0.6249491962911691
 21
1.082561084676797
 31
0.0
210
0.0
220
0.0
230
1.0
 40
0.5774255159
 41
3.927110169639862
 42
5.49783034401289
  0
LINE
  5
1AF
330
1F
100
AcDbEntity
  8
0
  6
SLD-Durchgehend
 62
     8
370
    18
100
AcDbLine
 10
93.2857376834
 20
184.017816852
 30
0.0
 11
105.1267716285
 21
177.1821334572
 31
0.0
  0
LINE
  5
1B0
330
1F
100
AcDbEntity
  8
0
  6
SLD-Durchgehend
 62
     8
370
    18
100
AcDbLine
 10
117.3258659239
 20
156.9959426887
 30
0.0
 11
115.5580989709
 21
155.9754325489
 31
0.0
  0
LINE
  5
1B1
330
1F
100
AcDbEntity
  8
0
  6
SLD-Durchgehend
 62
     8
370
    18
100
AcDbLine
 10
128.8163511181
 20
161.0585483904
 30
0.0
 11
128.8163511181
 21
137.3788648457
 31
0.0
  0
ARC
  5
1B2
330
1F
100
AcDbEntity
  8
0
  6
SLD-Durchgehend
 62
     8
370
    18
100
AcDbCircle
 10
128.6395744228
 20
137.720042617
 30
0.0
 40
0.3842554769777662
100
AcDbArc
 50
242.6096722366
 51
297.3903277634
  0
LINE
  5
1B3
330
1F
100
AcDbEntity
  8
0
  6
SLD-Durchgehend
 62
     8
370
    18
100
AcDbLine
 10
92.7539052776
 20
185.9596593013
 30
0.0
 11
125.2808172122
 21
167.1822727294
 31
0.0
  0
ARC
  5
1B4
330
1F
100
AcDbEntity
  8
0
  6
SLD-Durchgehend
 62
     8
370
    18
100
AcDbCircle
 10
92.9609326077
 20
185.6360078713
 30
0.0
 40
0.3842012018930442
100
AcDbArc
 50
122.60547834
 51
177.3945215143
  0
LINE
  5
1B5
330
1F
100
AcDbEntity
  8
0
  6
SLD-Durchgehend
 62
     8
370
    18
100
AcDbLine
 10
128.8163511181
 20
137.3788648457
 30
0.0
 11
130.7608947664
 21
138.5014259995
 31
0.0
  0
LINE
  5
1B6
330
1F
100
AcDbEntity
  8
0
  6
SLD-Durchgehend
 62
     8
370
    18
100
AcDbLine
 10
94.6984489259
 20
187.0822204551
 30
0.0
 11
92.7539052776
 21
185.9596593013
 31
0.0
  0
ARC
  5
1B7
330
1F
100
AcDbEntity
  8
0
  6
SLD-Durchgehend
 62
     8
370
    18
100
AcDbCircle
 10
124.0111359051
 20
166.07622127
 30
0.0
 40
0.38470053726646
100
AcDbArc
 50
302.918088183
 51
357.3706035983
  0
ARC
  5
1B8
330
1F
100
AcDbEntity
  8
0
  6
SLD-Durchgehend
 62
     8
370
    18
100
AcDbCircle
 10
125.1024174161
 20
164.1860052775
 30
0.0
 40
0.3847547160223432
100
AcDbArc
 50
62.63357769
 51
117.0777772326
  0
ARC
  5
1B9
330
1F
100
AcDbEntity
  8
0
  6
SLD-Durchgehend
 62
     8
370
    18
100
AcDbCircle
 10
125.1024174161
 20
156.2690290493
 30
0.0
 40
0.3847547160223679
100
AcDbArc
 50
62.63357769
 51
117.0777772326
  0
ARC
  5
1BA
330
1F
100
AcDbEntity
  8
0
  6
SLD-Durchgehend
 62
     8
370
    18
100
AcDbCircle
 10
112.17010196
 20
172.9119046649
 30
0.0
 40
0.3847005372664893
100
AcDbArc
 50
302.918088183
 51
357.3706035983
  0
LINE
  5
1BB
330
1F
100
AcDbEntity
  8
0
  6
SLD-Durchgehend
 62
     8
370
    18
100
AcDbLine
 10
118.4584229617
 20
159.4869707766
 30
0.0
 11
117.3258659239
 21
158.8331595154
 31
0.0
  0
ELLIPSE
  5
1BC
330
1F
100
AcDbEntity
  8
0
  6
SLD-Durchgehend
 62
     8
370
    18
100
AcDbEllipse
 10
119.0473247459
 20
154.1370350764
 30
0.0
 11
-0.4934097934320789
 21
0.8698188628121385
 31
0.0
210
0.0
220
0.0
230
1.0
 40
0.5773591526
 41
3.145053000202136
 42
3.931397177889535
  0
ARC
  5
1BD
330
1F
100
AcDbEntity
  8
0
  6
SLD-Durchgehend
 62
     8
370
    18
100
AcDbCircle
 10
118.9318660492
 20
153.4944575732
 30
0.0
 40
0.2399723559773068
100
AcDbArc
 50
172.7765429324
 51
235.9334476403
  0
ELLIPSE
  5
1BE
330
1F
100
AcDbEntity
  8
0
  6
SLD-Durchgehend
 62
     8
370
    18
100
AcDbEllipse
 10
124.2185874081
 20
157.0190251294
 30
0.0
 11
-0.5032874097078662
 21
0.8642567770182269
 31
0.0
210
0.0
220
0.0
230
1.0
 40
0.577310309
 41
3.130685009077879
 42
3.924853038729163
  0
LINE
  5
1BF
330
1F
100
AcDbEntity
  8
0
  6
SLD-Durchgehend
 62
     8
370
    18
100
AcDbLine
 10
113.7903320179
 20
159.0369629682
 30
0.0
 11
112.022565065
 21
158.0164528284
 31
0.0
  0
ARC
  5
1C0
330
1F
100
AcDbEntity
  8
0
  6
SLD-Durchgehend
 62
     8
370
    18
100
AcDbCircle
 10
107.1804186432
 20
160.2784471423
 30
0.0
 40
0.2400000428739575
100
AcDbArc
 50
172.779011159
 51
235.9088084476
  0
LINE
  5
1C1
330
1F
100
AcDbEntity
  8
0
  6
SLD-Durchgehend
 62
     8
370
    18
100
AcDbLine
 10
116.6154645258
 20
162.5050940768
 30
0.0
 11
113.7903320179
 21
160.874179795
 31
0.0
  0
ARC
  5
1C2
330
1F
100
AcDbEntity
  8
0
  6
SLD-Durchgehend
 62
     8
370
    18
100
AcDbCircle
 10
106.6816411949
 20
168.9557320068
 30
0.0
 40
0.2399099933391211
100
AcDbArc
 50
184.0678420434
 51
247.2284541869
  0
ELLIPSE
  5
1C3
330
1F
100
AcDbEntity
  8
0
  6
SLD-Durchgehend
 62
     8
370
    18
100
AcDbEllipse
 10
107.2959024229
 20
168.7344828175
 30
0.0
 11
-0.5064994335080402
 21
0.8622623743783041
 31
0.0
210
0.0
220
0.0
230
1.0
 40
0.5773599713
 41
5.493543298627813
 42
6.294636742089839
  0
ELLIPSE
  5
1C4
330
1F
100
AcDbEntity
  8
0
  6
SLD-Durchgehend
 62
     8
370
    18
100
AcDbEllipse
 10
112.3776880879
 20
171.7714515753
 30
0.0
 11
-0.4967431970031839
 21
0.8680346706524347
 31
0.0
210
0.0
220
0.0
230
1.0
 40
0.5773098998
 41
5.500087409948084
 42
6.294092936227593
  0
ARC
  5
1C5
330
1F
100
AcDbEntity
  8
0
  6
SLD-Durchgehend
 62
     8
370
    18
100
AcDbCircle
 10
106.6816629727
 20
168.6699192353
 30
0.0
 40
0.2399397682575091
100
AcDbArc
 50
184.0943421617
 51
247.2257987959
  0
ARC
  5
1C6
330
1F
100
AcDbEntity
  8
0
  6
SLD-Durchgehend
 62
     8
370
    18
100
AcDbCircle
 10
106.6502933438
 20
168.0050678796
 30
0.0
 40
0.7694010745330256
100
AcDbArc
 50
122.918088183
 51
177.3706035983
  0
ELLIPSE
  5
1C7
330
1F
100
AcDbEntity
  8
0
  6
SLD-Durchgehend
 62
     8
370
    18
100
AcDbEllipse
 10
106.2352018629
 20
169.0610695717
 30
0.0
 11
-0.2434845473684391
 21
0.4368839432046059
 31
0.0
210
0.0
220
0.0
230
1.0
 40
0.5771610179
 41
2.365032491983026
 42
3.021231295088564
  0
LINE
  5
1C8
330
1F
100
AcDbEntity
  8
0
  6
SLD-Durchgehend
 62
     8
370
    18
100
AcDbLine
 10
106.2321704166
 20
168.650940337
 30
0.0
 11
106.4423355695
 21
168.7765389052
 31
0.0
  0
ARC
  5
1C9
330
1F
100
AcDbEntity
  8
0
  6
SLD-Durchgehend
 62
     8
370
    18
100
AcDbCircle
 10
101.2543492996
 20
171.1200800714
 30
0.0
 40
0.7694010745329477
100
AcDbArc
 50
122.918088183
 51
177.3706035983
  0
LINE
  5
1CA
330
1F
100
AcDbEntity
  8
0
  6
SLD-Durchgehend
 62
     8
370
    18
100
AcDbLine
 10
100.8362263724
 20
171.7659525288
 30
0.0
 11
106.2321704166
 21
168.650940337
 31
0.0
  0
LINE
  5
1CB
330
1F
100
AcDbEntity
  8
0
  6
SLD-Durchgehend
 62
     8
370
    18
100
AcDbLine
 10
106.0121573664
 20
174.7539622937
 30
0.0
 11
100.8362263724
 21
171.7659525288
 31
0.0
  0
LINE
  5
1CC
330
1F
100
AcDbEntity
  8
0
  6
SLD-Durchgehend
 62
     8
370
    18
100
AcDbLine
 10
110.7969670878
 20
171.9917504369
 30
0.0
 11
106.0121573664
 21
174.7539622937
 31
0.0
  0
ARC
  5
1CD
330
1F
100
AcDbEntity
  8
0
  6
SLD-Durchgehend
 62
     8
370
    18
100
AcDbCircle
 10
100.1937295145
 20
173.2429633425
 30
0.0
 40
0.7694010745328691
100
AcDbArc
 50
122.918088183
 51
177.3706035983
  0
ELLIPSE
  5
1CE
330
1F
100
AcDbEntity
  8
0
  6
SLD-Durchgehend
 62
     8
370
    18
100
AcDbEllipse
 10
99.7786649586
 20
173.0740916345
 30
0.0
 11
-0.4999598936099687
 21
0.8660485579814861
 31
0.0
210
0.0
220
0.0
230
1.0
 40
0.5723436076
 41
3.927109808790392
 42
5.497829983163428
  0
ARC
  5
1CF
330
1F
100
AcDbEntity
  8
0
  6
SLD-Durchgehend
 62
     8
370
    18
100
AcDbCircle
 10
100.1324060625
 20
173.3493006278
 30
0.0
 40
0.7695094320445725
100
AcDbArc
 50
242.63357769
 51
297.0777772326
  0
ARC
  5
1D0
330
1F
100
AcDbEntity
  8
0
  6
SLD-Durchgehend
 62
     8
370
    18
100
AcDbCircle
 10
106.1269724409
 20
162.404568071
 30
0.0
 40
0.2467440609172624
100
AcDbArc
 50
173.7342807334
 51
234.9312233514
  0
ARC
  5
1D1
330
1F
100
AcDbEntity
  8
0
  6
SLD-Durchgehend
 62
     8
370
    18
100
AcDbCircle
 10
106.6937145251
 20
161.4371142623
 30
0.0
 40
0.2530923554416368
100
AcDbArc
 50
186.7419696688
 51
245.5058073024
  0
LINE
  5
1D2
330
1F
100
AcDbEntity
  8
0
  6
SLD-Durchgehend
 62
     8
370
    18
100
AcDbLine
 10
99.7756065873
 20
173.8888357999
 30
0.0
 11
104.9515375813
 21
176.8768455649
 31
0.0
  0
ELLIPSE
  5
1D3
330
1F
100
AcDbEntity
  8
0
  6
SLD-Durchgehend
 62
     8
370
    18
100
AcDbEllipse
 10
104.9499276208
 20
176.0594064213
 30
0.0
 11
-0.4999590851622742
 21
0.8660490246892891
 31
0.0
210
0.0
220
0.0
230
1.0
 40
0.57996647
 41
3.927110354824901
 42
5.497830529197913
  0
LINE
  5
1D4
330
1F
100
AcDbEntity
  8
0
  6
SLD-Durchgehend
 62
     8
370
    18
100
AcDbLine
 10
105.658617438
 20
175.6521473316
 30
0.0
 11
100.482686444
 21
172.6641375667
 31
0.0
  0
ARC
  5
1D5
330
1F
100
AcDbEntity
  8
0
  6
SLD-Durchgehend
 62
     8
370
    18
100
AcDbCircle
 10
100.1324060625
 20
173.0634647066
 30
0.0
 40
0.7695094320445098
100
AcDbArc
 50
242.63357769
 51
297.0777772326
  0
ELLIPSE
  5
1D6
330
1F
100
AcDbEntity
  8
0
  6
SLD-Durchgehend
 62
     8
370
    18
100
AcDbEllipse
 10
100.8393655186
 20
172.1760195897
 30
0.0
 11
-0.2499791273208842
 21
0.4330247520695423
 31
0.0
210
0.0
220
0.0
230
1.0
 40
0.5875893325
 41
0.785518276476979
 42
2.356238450849988
  0
ARC
  5
1D7
330
1F
100
AcDbEntity
  8
0
  6
SLD-Durchgehend
 62
     8
370
    18
100
AcDbCircle
 10
106.6880651655
 20
161.1468044084
 30
0.0
 40
0.2467007175882627
100
AcDbArc
 50
185.0856104345
 51
246.2690062423
  0
LINE
  5
1D8
330
1F
100
AcDbEntity
  8
0
  6
SLD-Durchgehend
 62
     8
370
    18
100
AcDbLine
 10
100.482686444
 20
172.6641375667
 30
0.0
 11
100.482686444
 21
172.3783016455
 31
0.0
  0
LINE
  5
1D9
330
1F
100
AcDbEntity
  8
0
  6
SLD-Durchgehend
 62
     8
370
    18
100
AcDbLine
 10
88.0241304144
 20
180.6728185935
 30
0.0
 11
99.7756065873
 21
173.8888357999
 31
0.0
  0
ARC
  5
1DA
330
1F
100
AcDbEntity
  8
0
  6
SLD-Durchgehend
 62
     8
370
    18
100
AcDbCircle
 10
88.4422533415
 20
180.026946136
 30
0.0
 40
0.7694010745329498
100
AcDbArc
 50
122.918088183
 51
177.3706035983
  0
ARC
  5
1DB
330
1F
100
AcDbEntity
  8
0
  6
SLD-Durchgehend
 62
     8
370
    18
100
AcDbCircle
 10
100.7309969684
 20
165.5195740033
 30
0.0
 40
0.2467135036864019
100
AcDbArc
 50
173.7320391494
 51
234.9557804572
  0
LINE
  5
1DC
330
1F
100
AcDbEntity
  8
0
  6
SLD-Durchgehend
 62
     8
370
    18
100
AcDbLine
 10
100.482686444
 20
172.3783016455
 30
0.0
 11
105.658617438
 21
175.3663114104
 31
0.0
  0
ELLIPSE
  5
1DD
330
1F
100
AcDbEntity
  8
0
  6
SLD-Durchgehend
 62
     8
370
    18
100
AcDbEllipse
 10
106.0106281808
 20
175.1613343765
 30
0.0
 11
-0.2499799468049844
 21
0.4330242789907573
 31
0.0
210
0.0
220
0.0
230
1.0
 40
0.5723436076
 41
0.7855171552005495
 42
2.35623732957357
  0
ARC
  5
1DE
330
1F
100
AcDbEntity
  8
0
  6
SLD-Durchgehend
 62
     8
370
    18
100
AcDbCircle
 10
105.8030959028
 20
175.0768985225
 30
0.0
 40
0.3847005372664268
100
AcDbArc
 50
302.918088183
 51
357.3706035983
  0
LINE
  5
1DF
330
1F
100
AcDbEntity
  8
0
  6
SLD-Durchgehend
 62
     8
370
    18
100
AcDbLine
 10
105.658617438
 20
175.3663114104
 30
0.0
 11
105.658617438
 21
175.6521473316
 31
0.0
  0
LINE
  5
1E0
330
1F
100
AcDbEntity
  8
0
  6
SLD-Durchgehend
 62
     8
370
    18
100
AcDbLine
 10
93.1105036362
 20
183.7125289597
 30
0.0
 11
88.0241304144
 21
180.6728185935
 31
0.0
  0
LINE
  5
1E1
330
1F
100
AcDbEntity
  8
0
  6
SLD-Durchgehend
 62
     8
370
    18
100
AcDbLine
 10
104.9515375813
 20
176.8768455649
 30
0.0
 11
93.1105036362
 21
183.7125289597
 31
0.0
  0
LINE
  5
1E2
330
1F
100
AcDbEntity
  8
0
  6
SLD-Durchgehend
 62
     8
370
    18
100
AcDbLine
 10
91.16291502
 20
176.3863320198
 30
0.0
 11
89.395148067
 21
175.36582188
 31
0.0
  0
ARC
  5
1E3
330
1F
100
AcDbEntity
  8
0
  6
SLD-Durchgehend
 62
     8
370
    18
100
AcDbCircle
 10
105.8337576288
 20
175.309565801
 30
0.0
 40
0.3847547160224061
100
AcDbArc
 50
62.63357769
 51
117.0777772326
  0
ARC
  5
1E4
330
1F
100
AcDbEntity
  8
0
  6
SLD-Durchgehend
 62
     8
370
    18
100
AcDbCircle
 10
104.7424761177
 20
177.1997817936
 30
0.0
 40
0.3847005372663173
100
AcDbArc
 50
302.918088183
 51
357.3706035983
  0
ARC
  5
1E5
330
1F
100
AcDbEntity
  8
0
  6
SLD-Durchgehend
 62
     8
370
    18
100
AcDbCircle
 10
125.8793870693
 20
137.0515190127
 30
0.0
 40
2.955150270061455
100
AcDbArc
 50
305.2990215601
 51
6.3597794523
  0
ARC
  5
1E6
330
1F
100
AcDbEntity
  8
0
  6
SLD-Durchgehend
 62
     8
370
    18
100
AcDbCircle
 10
124.5158457878
 20
135.0157852806
 30
0.0
 40
0.1198724038278798
100
AcDbArc
 50
172.7425584024
 51
235.9597035166
  0
ARC
  5
1E7
330
1F
100
AcDbEntity
  8
0
  6
SLD-Durchgehend
 62
     8
370
    18
100
AcDbCircle
 10
105.8337576288
 20
175.0237298798
 30
0.0
 40
0.3847547160224503
100
AcDbArc
 50
62.63357769
 51
117.0777772326
  0
ARC
  5
1E8
330
1F
100
AcDbEntity
  8
0
  6
SLD-Durchgehend
 62
     8
370
    18
100
AcDbCircle
 10
92.9014421726
 20
184.0354651885
 30
0.0
 40
0.3847005372663566
100
AcDbArc
 50
302.918088183
 51
357.3706035983
  0
ELLIPSE
  5
1E9
330
1F
100
AcDbEntity
  8
0
  6
SLD-Durchgehend
 62
     8
370
    18
100
AcDbEllipse
 10
100.8393655186
 20
164.9340088458
 30
0.0
 11
-0.2565700794056909
 21
0.4293298259179039
 31
0.0
210
0.0
220
0.0
230
1.0
 40
0.5771626535
 41
0.1238589343236802
 42
0.7767225661094155
  0
ARC
  5
1EA
330
1F
100
AcDbEntity
  8
0
  6
SLD-Durchgehend
 62
     8
370
    18
100
AcDbCircle
 10
100.1324060625
 20
165.8215783306
 30
0.0
 40
0.7695094320444089
100
AcDbArc
 50
242.63357769
 51
297.0777772326
  0
LINE
  5
1EB
330
1F
100
AcDbEntity
  8
0
  6
SLD-Durchgehend
 62
     8
370
    18
100
AcDbLine
 10
100.6966279644
 20
165.2556467558
 30
0.0
 11
100.482686444
 21
165.1364152695
 31
0.0
  0
LINE
  5
1EC
330
1F
100
AcDbEntity
  8
0
  6
SLD-Durchgehend
 62
     8
370
    18
100
AcDbLine
 10
100.482686444
 20
165.1364152695
 30
0.0
 11
100.482686444
 21
164.8505793482
 31
0.0
  0
ARC
  5
1ED
330
1F
100
AcDbEntity
  8
0
  6
SLD-Durchgehend
 62
     8
370
    18
100
AcDbCircle
 10
100.1324060625
 20
165.5357424094
 30
0.0
 40
0.7695094320444593
100
AcDbArc
 50
242.63357769
 51
297.0777772326
  0
ELLIPSE
  5
1EE
330
1F
100
AcDbEntity
  8
0
  6
SLD-Durchgehend
 62
     8
370
    18
100
AcDbEllipse
 10
99.7786649586
 20
165.2605956
 30
0.0
 11
-0.4934097934320931
 21
0.8698188628121102
 31
0.0
210
0.0
220
0.0
230
1.0
 40
0.5773591526
 41
3.145053000202044
 42
3.931397177889464
  0
ARC
  5
1EF
330
1F
100
AcDbEntity
  8
0
  6
SLD-Durchgehend
 62
     8
370
    18
100
AcDbCircle
 10
99.6704017892
 20
164.6212611711
 30
0.0
 40
0.2467374275227888
100
AcDbArc
 50
173.7337941664
 51
234.9365530129
  0
LINE
  5
1F0
330
1F
100
AcDbEntity
  8
0
  6
SLD-Durchgehend
 62
     8
370
    18
100
AcDbLine
 10
100.482686444
 20
164.8505793482
 30
0.0
 11
100.9485553454
 21
165.1102121744
 31
0.0
  0
ARC
  5
1F1
330
1F
100
AcDbEntity
  8
0
  6
SLD-Durchgehend
 62
     8
370
    18
100
AcDbCircle
 10
87.9189010104
 20
171.405239064
 30
0.0
 40
0.2467135036870078
100
AcDbArc
 50
173.7320391495
 51
234.9557804571
  0
LINE
  5
1F2
330
1F
100
AcDbEntity
  8
0
  6
SLD-Durchgehend
 62
     8
370
    18
100
AcDbLine
 10
91.16291502
 20
175.1615208019
 30
0.0
 11
89.395148067
 21
174.1410106622
 31
0.0
  0
LINE
  5
1F3
330
1F
100
AcDbEntity
  8
0
  6
SLD-Durchgehend
 62
     8
370
    18
100
AcDbLine
 10
93.8866404874
 20
176.1217870116
 30
0.0
 11
92.7539052776
 21
175.467872894
 31
0.0
  0
LINE
  5
1F4
330
1F
100
AcDbEntity
  8
0
  6
SLD-Durchgehend
 62
     8
370
    18
100
AcDbLine
 10
94.5466075369
 20
175.2779666618
 30
0.0
 11
92.7539052776
 21
174.2430616761
 31
0.0
  0
ELLIPSE
  5
1F5
330
1F
100
AcDbEntity
  8
0
  6
SLD-Durchgehend
 62
     8
370
    18
100
AcDbEllipse
 10
88.0272426355
 20
179.8580433411
 30
0.0
 11
-0.5064994335080401
 21
0.8622623743783606
 31
0.0
210
0.0
220
0.0
230
1.0
 40
0.5773599713
 41
5.493543298627833
 42
6.294636742089843
  0
ARC
  5
1F6
330
1F
100
AcDbEntity
  8
0
  6
SLD-Durchgehend
 62
     8
370
    18
100
AcDbCircle
 10
87.4193853713
 20
180.0839003466
 30
0.0
 40
0.2466717904594855
100
AcDbArc
 50
185.0623697694
 51
246.2711287713
  0
ELLIPSE
  5
1F7
330
1F
100
AcDbEntity
  8
0
  6
SLD-Durchgehend
 62
     8
370
    18
100
AcDbEllipse
 10
93.1090283005
 20
182.8950120989
 30
0.0
 11
-0.4967431970031698
 21
0.8680346706524632
 31
0.0
210
0.0
220
0.0
230
1.0
 40
0.5773098998
 41
5.500087409948093
 42
6.294092936227615
  0
ARC
  5
1F8
330
1F
100
AcDbEntity
  8
0
  6
SLD-Durchgehend
 62
     8
370
    18
100
AcDbCircle
 10
87.4193727228
 20
172.270327711
 30
0.0
 40
0.2466535023514282
100
AcDbArc
 50
185.0476700865
 51
246.2724708711
  0
ARC
  5
1F9
330
1F
100
AcDbEntity
  8
0
  6
SLD-Durchgehend
 62
     8
370
    18
100
AcDbCircle
 10
93.4031567525
 20
152.9767659519
 30
0.0
 40
0.119881386647895
100
AcDbArc
 50
172.7441704512
 51
235.9436491555
  0
ARC
  5
1FA
330
1F
100
AcDbEntity
  8
0
  6
SLD-Durchgehend
 62
     8
370
    18
100
AcDbCircle
 10
91.2844691615
 20
183.8664176807
 30
0.0
 40
2.557518911329852
100
AcDbArc
 50
54.9315025352
 51
113.7580390357
  0
ARC
  5
1FB
330
1F
100
AcDbEntity
  8
0
  6
SLD-Durchgehend
 62
     8
370
    18
100
AcDbCircle
 10
89.2702695
 20
183.8284095719
 30
0.0
 40
0.1257454928160545
100
AcDbArc
 50
185.7106541511
 51
245.6239597913
  0
ARC
  5
1FC
330
1F
100
AcDbEntity
  8
0
  6
SLD-Durchgehend
 62
     8
370
    18
100
AcDbCircle
 10
89.2702623326
 20
160.148717557
 30
0.0
 40
0.125734819623456
100
AcDbArc
 50
185.6947992512
 51
245.6253417064
  0
ENDSEC
  0
SECTION
  2
OBJECTS
  0
DICTIONARY
  5
C
330
0
100
AcDbDictionary
281
     1
  3
ACAD_DETAILVIEWSTYLE
350
204
  3
ACAD_GROUP
350
D
  3
ACAD_LAYOUT
350
1A
  3
ACAD_MATERIAL
350
43
  3
ACAD_MLEADERSTYLE
350
6B
  3
ACAD_MLINESTYLE
350
17
  3
ACAD_PLOTSETTINGS
350
19
  3
ACAD_PLOTSTYLENAME
350
E
  3
ACAD_SCALELIST
350
47
  3
ACAD_SECTIONVIEWSTYLE
350
205
  3
ACAD_TABLESTYLE
350
69
  3
ACAD_VISUALSTYLE
350
2A
  3
ACDB_RECOMPOSE_DATA
350
201
  3
AcDbVariableDictionary
350
1FD
  0
SUN
  5
6D
330
29
100
AcDbSun
 90
        1
290
     0
 63
     7
421
 16777215
 40
1.0
291
     1
 91
  2455826
 92
 54000000
292
     0
 70
     2
 71
   256
280
     1
  0
DICTIONARY
  5
204
102
{ACAD_REACTORS
330
C
102
}
330
C
100
AcDbDictionary
281
     1
  0
DICTIONARY
  5
D
102
{ACAD_REACTORS
330
C
102
}
330
C
100
AcDbDictionary
281
     1
  0
DICTIONARY
  5
1A
102
{ACAD_REACTORS
330
C
102
}
330
C
100
AcDbDictionary
281
     1
  3
Layout1
350
1E
  3
Layout2
350
26
  3
Model
350
22
  0
DICTIONARY
  5
43
102
{ACAD_REACTORS
330
C
102
}
330
C
100
AcDbDictionary
281
     1
  3
ByBlock
350
45
  3
ByLayer
350
44
  3
Global
350
46
  0
DICTIONARY
  5
6B
102
{ACAD_REACTORS
330
C
102
}
330
C
100
AcDbDictionary
281
     1
  3
Standard
350
6C
  0
DICTIONARY
  5
17
102
{ACAD_REACTORS
330
C
102
}
330
C
100
AcDbDictionary
281
     1
  3
Standard
350
18
  0
DICTIONARY
  5
19
102
{ACAD_REACTORS
330
C
102
}
330
C
100
AcDbDictionary
281
     1
  0
ACDBDICTIONARYWDFLT
  5
E
102
{ACAD_REACTORS
330
C
102
}
330
C
100
AcDbDictionary
281
     1
  3
Normal
350
F
100
AcDbDictionaryWithDefault
340
F
  0
DICTIONARY
  5
47
102
{ACAD_REACTORS
330
C
102
}
330
C
100
AcDbDictionary
281
     1
  3
A0
350
48
  3
A1
350
49
  3
A2
350
4A
  3
A3
350
4B
  3
A4
350
4C
  3
A5
350
4D
  3
A6
350
4E
  3
A7
350
4F
  3
A8
350
50
  3
A9
350
51
  3
B0
350
52
  3
B1
350
53
  3
B2
350
54
  3
B3
350
55
  3
B4
350
56
  3
B5
350
57
  3
B6
350
58
  3
B7
350
59
  3
B8
350
5A
  3
B9
350
5B
  3
C0
350
5C
  3
C1
350
5D
  3
C2
350
5E
  3
C3
350
5F
  3
C4
350
60
  3
C5
350
61
  3
C6
350
62
  3
C7
350
63
  3
C8
350
64
  3
C9
350
65
  3
D0
350
66
  3
D1
350
67
  3
D2
350
68
  0
DICTIONARY
  5
205
102
{ACAD_REACTORS
330
C
102
}
330
C
100
AcDbDictionary
281
     1
  0
DICTIONARY
  5
69
102
{ACAD_REACTORS
330
C
102
}
330
C
100
AcDbDictionary
281
     1
  3
Standard
350
6A
  0
DICTIONARY
  5
2A
102
{ACAD_REACTORS
330
C
102
}
330
C
100
AcDbDictionary
281
     1
  3
2dWireframe
350
2F
  3
Basic
350
32
  3
Brighten
350
36
  3
ColorChange
350
3A
  3
Conceptual
350
34
  3
Dim
350
35
  3
EdgeColorOff
350
3D
  3
Facepattern
350
39
  3
Flat
350
2B
  3
FlatWithEdges
350
2C
  3
Gouraud
350
2D
  3
GouraudWithEdges
350
2E
  3
Hidden
350
31
  3
JitterOff
350
3B
  3
Linepattern
350
38
  3
OverhangOff
350
3C
  3
Realistic
350
33
  3
Shaded
350
42
  3
Shaded with edges
350
41
  3
Shades of Gray
350
3E
  3
Sketchy
350
3F
  3
Thicken
350
37
  3
Wireframe
350
30
  3
X-Ray
350
40
  0
XRECORD
  5
201
102
{ACAD_REACTORS
330
C
102
}
330
C
100
AcDbXrecord
280
     1
 90
        1
330
6A
  0
DICTIONARY
  5
1FD
102
{ACAD_REACTORS
330
C
102
}
330
C
100
AcDbDictionary
281
     1
  3
CANNOSCALE
350
1FE
  3
CENTEREXE
350
206
  3
CENTERLTYPEFILE
350
207
  3
CMLEADERSTYLE
350
203
  3
CTABLESTYLE
350
202
  0
LAYOUT
  5
1E
102
{ACAD_REACTORS
330
1A
102
}
330
1A
100
AcDbPlotSettings
  1

  2
none_device
  4

  6

 40
0.0
 41
0.0
 42
0.0
 43
0.0
 44
0.0
 45
0.0
 46
0.0
 47
0.0
 48
0.0
 49
0.0
140
0.0
141
0.0
142
1.0
143
1.0
 70
   688
 72
     1
 73
     0
 74
     5
  7

 75
    16
 76
     0
 77
     2
 78
   300
147
1.0
148
0.0
149
0.0
100
AcDbLayout
  1
Layout1
 70
     1
 71
     1
 10
0.0
 20
0.0
 11
420.0
 21
297.0
 12
0.0
 22
0.0
 32
0.0
 14
1.0000000000E+20
 24
1.0000000000E+20
 34
1.0000000000E+20
 15
-1.0000000000E+20
 25
-1.0000000000E+20
 35
-1.0000000000E+20
146
0.0
 13
0.0
 23
0.0
 33
0.0
 16
1.0
 26
0.0
 36
0.0
 17
0.0
 27
1.0
 37
0.0
 76
     0
330
1B
  0
LAYOUT
  5
26
102
{ACAD_REACTORS
330
1A
102
}
330
1A
100
AcDbPlotSettings
  1

  2
none_device
  4

  6

 40
0.0
 41
0.0
 42
0.0
 43
0.0
 44
0.0
 45
0.0
 46
0.0
 47
0.0
 48
0.0
 49
0.0
140
0.0
141
0.0
142
1.0
143
1.0
 70
   688
 72
     1
 73
     0
 74
     5
  7

 75
    16
 76
     0
 77
     2
 78
   300
147
1.0
148
0.0
149
0.0
100
AcDbLayout
  1
Layout2
 70
     1
 71
     2
 10
0.0
 20
0.0
 11
0.0
 21
0.0
 12
0.0
 22
0.0
 32
0.0
 14
0.0
 24
0.0
 34
0.0
 15
0.0
 25
0.0
 35
0.0
146
0.0
 13
0.0
 23
0.0
 33
0.0
 16
1.0
 26
0.0
 36
0.0
 17
0.0
 27
1.0
 37
0.0
 76
     0
330
23
  0
LAYOUT
  5
22
102
{ACAD_REACTORS
330
1A
102
}
330
1A
100
AcDbPlotSettings
  1

  2
none_device
  4
Letter_(8.50_x_11.00_Inches)
  6

 40
6.35
 41
6.35
 42
6.35000508
 43
6.35000508
 44
215.9
 45
279.4
 46
0.0
 47
0.0
 48
0.0
 49
0.0
140
0.0
141
0.0
142
1.0
143
1.0
 70
  1712
 72
     1
 73
     0
 74
     0
  7

 75
     0
 76
     0
 77
     2
 78
   300
147
1.0
148
0.0
149
0.0
100
AcDbLayout
  1
Model
 70
     1
 71
     0
 10
0.0
 20
0.0
 11
210.0
 21
297.0
 12
0.0
 22
0.0
 32
0.0
 14
0.0
 24
0.0
 34
0.0
 15
210.0
 25
297.0
 35
0.0
146
0.0
 13
0.0
 23
0.0
 33
0.0
 16
1.0
 26
0.0
 36
0.0
 17
0.0
 27
1.0
 37
0.0
 76
     0
330
1F
331
29
  0
MATERIAL
  5
45
102
{ACAD_REACTORS
330
43
102
}
330
43
100
AcDbMaterial
  1
ByBlock
 72
     1
 94
      127
  0
MATERIAL
  5
44
102
{ACAD_REACTORS
330
43
102
}
330
43
100
AcDbMaterial
  1
ByLayer
 72
     1
 94
      127
  0
MATERIAL
  5
46
102
{ACAD_REACTORS
330
43
102
}
330
43
100
AcDbMaterial
  1
Global
 72
     1
 94
      127
  0
MLEADERSTYLE
  5
6C
102
{ACAD_REACTORS
330
6B
102
}
330
6B
100
AcDbMLeaderStyle
179
     2
170
     2
171
     1
172
     0
 90
        2
 40
0.0
 41
0.0
173
     1
 91
-1056964608
340
14
 92
       -2
290
     1
 42
2.0
291
     1
 43
8.0
  3
Standard
341
0
 44
4.0
300

342
11
174
     1
178
     6
175
     1
176
     0
 93
-1056964608
 45
4.0
292
     0
297
     0
 46
4.0
343
0
 94
-1056964608
 47
1.0
 49
1.0
140
1.0
293
     1
141
0.0
294
     1
177
     0
142
1.0
295
     0
296
     0
143
3.75
271
     0
272
     9
273
     9
  0
MLINESTYLE
  5
18
102
{ACAD_REACTORS
330
17
102
}
330
17
100
AcDbMlineStyle
  2
Standard
 70
     0
  3

 62
   256
 51
90.0
 52
90.0
 71
     2
 49
0.5
 62
   256
  6
BYLAYER
 49
-0.5
 62
   256
  6
BYLAYER
  0
ACDBPLACEHOLDER
  5
F
102
{ACAD_REACTORS
330
E
102
}
330
E
  0
SCALE
  5
48
102
{ACAD_REACTORS
330
47
102
}
330
47
100
AcDbScale
 70
     0
300
1:1
140
1.0
141
1.0
290
     1
  0
SCALE
  5
49
102
{ACAD_REACTORS
330
47
102
}
330
47
100
AcDbScale
 70
     0
300
1:2
140
1.0
141
2.0
290
     0
  0
SCALE
  5
4A
102
{ACAD_REACTORS
330
47
102
}
330
47
100
AcDbScale
 70
     0
300
1:4
140
1.0
141
4.0
290
     0
  0
SCALE
  5
4B
102
{ACAD_REACTORS
330
47
102
}
330
47
100
AcDbScale
 70
     0
300
1:5
140
1.0
141
5.0
290
     0
  0
SCALE
  5
4C
102
{ACAD_REACTORS
330
47
102
}
330
47
100
AcDbScale
 70
     0
300
1:8
140
1.0
141
8.0
290
     0
  0
SCALE
  5
4D
102
{ACAD_REACTORS
330
47
102
}
330
47
100
AcDbScale
 70
     0
300
1:10
140
1.0
141
10.0
290
     0
  0
SCALE
  5
4E
102
{ACAD_REACTORS
330
47
102
}
330
47
100
AcDbScale
 70
     0
300
1:16
140
1.0
141
16.0
290
     0
  0
SCALE
  5
4F
102
{ACAD_REACTORS
330
47
102
}
330
47
100
AcDbScale
 70
     0
300
1:20
140
1.0
141
20.0
290
     0
  0
SCALE
  5
50
102
{ACAD_REACTORS
330
47
102
}
330
47
100
AcDbScale
 70
     0
300
1:30
140
1.0
141
30.0
290
     0
  0
SCALE
  5
51
102
{ACAD_REACTORS
330
47
102
}
330
47
100
AcDbScale
 70
     0
300
1:40
140
1.0
141
40.0
290
     0
  0
SCALE
  5
52
102
{ACAD_REACTORS
330
47
102
}
330
47
100
AcDbScale
 70
     0
300
1:50
140
1.0
141
50.0
290
     0
  0
SCALE
  5
53
102
{ACAD_REACTORS
330
47
102
}
330
47
100
AcDbScale
 70
     0
300
1:100
140
1.0
141
100.0
290
     0
  0
SCALE
  5
54
102
{ACAD_REACTORS
330
47
102
}
330
47
100
AcDbScale
 70
     0
300
2:1
140
2.0
141
1.0
290
     0
  0
SCALE
  5
55
102
{ACAD_REACTORS
330
47
102
}
330
47
100
AcDbScale
 70
     0
300
4:1
140
4.0
141
1.0
290
     0
  0
SCALE
  5
56
102
{ACAD_REACTORS
330
47
102
}
330
47
100
AcDbScale
 70
     0
300
8:1
140
8.0
141
1.0
290
     0
  0
SCALE
  5
57
102
{ACAD_REACTORS
330
47
102
}
330
47
100
AcDbScale
 70
     0
300
10:1
140
10.0
141
1.0
290
     0
  0
SCALE
  5
58
102
{ACAD_REACTORS
330
47
102
}
330
47
100
AcDbScale
 70
     0
300
100:1
140
100.0
141
1.0
290
     0
  0
SCALE
  5
59
102
{ACAD_REACTORS
330
47
102
}
330
47
100
AcDbScale
 70
     0
300
1/128" = 1'-0"
140
0.0078125
141
12.0
290
     0
  0
SCALE
  5
5A
102
{ACAD_REACTORS
330
47
102
}
330
47
100
AcDbScale
 70
     0
300
1/64" = 1'-0"
140
0.015625
141
12.0
290
     0
  0
SCALE
  5
5B
102
{ACAD_REACTORS
330
47
102
}
330
47
100
AcDbScale
 70
     0
300
1/32" = 1'-0"
140
0.03125
141
12.0
290
     0
  0
SCALE
  5
5C
102
{ACAD_REACTORS
330
47
102
}
330
47
100
AcDbScale
 70
     0
300
1/16" = 1'-0"
140
0.0625
141
12.0
290
     0
  0
SCALE
  5
5D
102
{ACAD_REACTORS
330
47
102
}
330
47
100
AcDbScale
 70
     0
300
3/32" = 1'-0"
140
0.09375
141
12.0
290
     0
  0
SCALE
  5
5E
102
{ACAD_REACTORS
330
47
102
}
330
47
100
AcDbScale
 70
     0
300
1/8" = 1'-0"
140
0.125
141
12.0
290
     0
  0
SCALE
  5
5F
102
{ACAD_REACTORS
330
47
102
}
330
47
100
AcDbScale
 70
     0
300
3/16" = 1'-0"
140
0.1875
141
12.0
290
     0
  0
SCALE
  5
60
102
{ACAD_REACTORS
330
47
102
}
330
47
100
AcDbScale
 70
     0
300
1/4" = 1'-0"
140
0.25
141
12.0
290
     0
  0
SCALE
  5
61
102
{ACAD_REACTORS
330
47
102
}
330
47
100
AcDbScale
 70
     0
300
3/8" = 1'-0"
140
0.375
141
12.0
290
     0
  0
SCALE
  5
62
102
{ACAD_REACTORS
330
47
102
}
330
47
100
AcDbScale
 70
     0
300
1/2" = 1'-0"
140
0.5
141
12.0
290
     0
  0
SCALE
  5
63
102
{ACAD_REACTORS
330
47
102
}
330
47
100
AcDbScale
 70
     0
300
3/4" = 1'-0"
140
0.75
141
12.0
290
     0
  0
SCALE
  5
64
102
{ACAD_REACTORS
330
47
102
}
330
47
100
AcDbScale
 70
     0
300
1" = 1'-0"
140
1.0
141
12.0
290
     0
  0
SCALE
  5
65
102
{ACAD_REACTORS
330
47
102
}
330
47
100
AcDbScale
 70
     0
300
1-1/2" = 1'-0"
140
1.5
141
12.0
290
     0
  0
SCALE
  5
66
102
{ACAD_REACTORS
330
47
102
}
330
47
100
AcDbScale
 70
     0
300
3" = 1'-0"
140
3.0
141
12.0
290
     0
  0
SCALE
  5
67
102
{ACAD_REACTORS
330
47
102
}
330
47
100
AcDbScale
 70
     0
300
6" = 1'-0"
140
6.0
141
12.0
290
     0
  0
SCALE
  5
68
102
{ACAD_REACTORS
330
47
102
}
330
47
100
AcDbScale
 70
     0
300
1'-0" = 1'-0"
140
12.0
141
12.0
290
     0
  0
TABLESTYLE
  5
6A
102
{ACAD_REACTORS
330
69
102
}
102
{ACAD_XDICTIONARY
360
1FF
102
}
330
69
100
AcDbTableStyle
  3
Standard
 70
     0
 71
     0
 40
0.06
 41
0.06
280
     0
281
     0
  7
STANDARD
140
4.5
170
     2
 62
     0
 63
   257
283
     0
 90
        4
 91
        0
  1

274
    -2
284
     1
 64
     0
275
    -2
285
     1
 65
     0
276
    -2
286
     1
 66
     0
277
    -2
287
     1
 67
     0
278
    -2
288
     1
 68
     0
279
    -2
289
     1
 69
     0
  7
STANDARD
140
6.0
170
     5
 62
     0
 63
   257
283
     0
 90
        4
 91
        0
  1

274
    -2
284
     1
 64
     0
275
    -2
285
     1
 65
     0
276
    -2
286
     1
 66
     0
277
    -2
287
     1
 67
     0
278
    -2
288
     1
 68
     0
279
    -2
289
     1
 69
     0
  7
STANDARD
140
4.5
170
     5
 62
     0
 63
   257
283
     0
 90
        4
 91
        0
  1

274
    -2
284
     1
 64
     0
275
    -2
285
     1
 65
     0
276
    -2
286
     1
 66
     0
277
    -2
287
     1
 67
     0
278
    -2
288
     1
 68
     0
279
    -2
289
     1
 69
     0
  0
VISUALSTYLE
  5
2F
102
{ACAD_REACTORS
330
2A
102
}
330
2A
100
AcDbVisualStyle
  2
2dWireframe
 70
     4
177
     2
291
     0
 71
     0
176
     1
 72
     2
176
     1
 73
     0
176
     1
 90
        0
176
     1
 40
0.6
176
     1
 41
30.0
176
     1
 62
     5
 63
     7
421
 16777215
176
     1
 74
     1
176
     1
 91
        4
176
     1
 64
     7
176
     1
 65
   257
176
     1
 75
     1
176
     1
175
     1
176
     1
 42
1.0
176
     1
 92
        0
176
     1
 66
   257
176
     1
 43
1.0
176
     1
 76
     1
176
     1
 77
     6
176
     1
 78
     2
176
     1
 67
     7
176
     1
 79
     5
176
     1
170
     0
176
     1
171
     0
176
     1
290
     0
176
     1
 93
        1
176
     1
 44
0.0
176
     1
173
     0
176
     1
  0
VISUALSTYLE
  5
32
102
{ACAD_REACTORS
330
2A
102
}
330
2A
100
AcDbVisualStyle
  2
Basic
 70
     7
177
     2
291
     1
 71
     1
176
     1
 72
     0
176
     1
 73
     1
176
     1
 90
        0
176
     1
 40
0.6
176
     1
 41
30.0
176
     1
 62
     5
 63
     7
421
 16777215
176
     1
 74
     0
176
     1
 91
        4
176
     1
 64
     7
176
     1
 65
   257
176
     1
 75
     1
176
     1
175
     1
176
     1
 42
1.0
176
     1
 92
        8
176
     1
 66
     7
176
     1
 43
1.0
176
     1
 76
     1
176
     1
 77
     6
176
     1
 78
     2
176
     1
 67
     7
176
     1
 79
     5
176
     1
170
     0
176
     1
171
     0
176
     1
290
     0
176
     1
 93
        1
176
     1
 44
0.0
176
     1
173
     0
176
     1
  0
VISUALSTYLE
  5
36
102
{ACAD_REACTORS
330
2A
102
}
330
2A
100
AcDbVisualStyle
  2
Brighten
 70
    12
177
     2
291
     1
 71
     2
176
     1
 72
     2
176
     1
 73
     0
176
     1
 90
        0
176
     1
 40
0.6
176
     1
 41
30.0
176
     1
 62
     5
 63
     7
421
 16777215
176
     1
 74
     1
176
     1
 91
        4
176
     1
 64
     7
176
     1
 65
   257
176
     1
 75
     1
176
     1
175
     1
176
     1
 42
1.0
176
     1
 92
        8
176
     1
 66
     7
176
     1
 43
1.0
176
     1
 76
     1
176
     1
 77
     6
176
     1
 78
     2
176
     1
 67
     7
176
     1
 79
     5
176
     1
170
     0
176
     1
171
     0
176
     1
290
     0
176
     1
 93
        1
176
     1
 44
50.0
176
     1
173
     0
176
     1
  0
VISUALSTYLE
  5
3A
102
{ACAD_REACTORS
330
2A
102
}
330
2A
100
AcDbVisualStyle
  2
ColorChange
 70
    16
177
     2
291
     1
 71
     2
176
     1
 72
     2
176
     1
 73
     3
176
     1
 90
        0
176
     1
 40
0.6
176
     1
 41
30.0
176
     1
 62
     5
 63
     8
421
  8421504
176
     1
 74
     1
176
     1
 91
        4
176
     1
 64
     7
176
     1
 65
   257
176
     1
 75
     1
176
     1
175
     1
176
     1
 42
1.0
176
     1
 92
        8
176
     1
 66
     8
424
  8421504
176
     1
 43
1.0
176
     1
 76
     1
176
     1
 77
     6
176
     1
 78
     2
176
     1
 67
     7
176
     1
 79
     5
176
     1
170
     0
176
     1
171
     0
176
     1
290
     0
176
     1
 93
        1
176
     1
 44
0.0
176
     1
173
     0
176
     1
  0
VISUALSTYLE
  5
34
102
{ACAD_REACTORS
330
2A
102
}
330
2A
100
AcDbVisualStyle
  2
Conceptual
 70
     9
177
     2
291
     0
 71
     3
176
     1
 72
     2
176
     1
 73
     0
176
     1
 90
        0
176
     1
 40
0.6
176
     1
 41
30.0
176
     1
 62
     5
 63
     7
421
 16777215
176
     1
 74
     2
176
     1
 91
        2
176
     1
 64
     7
176
     1
 65
   257
176
     1
 75
     1
176
     1
175
     1
176
     1
 42
179.0
176
     1
 92
        8
176
     1
 66
     7
176
     1
 43
1.0
176
     1
 76
     1
176
     1
 77
     6
176
     1
 78
     2
176
     1
 67
     7
176
     1
 79
     3
176
     1
170
     0
176
     1
171
     0
176
     1
290
     0
176
     1
 93
        1
176
     1
 44
0.0
176
     1
173
     0
176
     1
  0
VISUALSTYLE
  5
35
102
{ACAD_REACTORS
330
2A
102
}
330
2A
100
AcDbVisualStyle
  2
Dim
 70
    11
177
     2
291
     1
 71
     2
176
     1
 72
     2
176
     1
 73
     0
176
     1
 90
        0
176
     1
 40
0.6
176
     1
 41
30.0
176
     1
 62
     5
 63
     7
421
 16777215
176
     1
 74
     1
176
     1
 91
        4
176
     1
 64
     7
176
     1
 65
   257
176
     1
 75
     1
176
     1
175
     1
176
     1
 42
1.0
176
     1
 92
        8
176
     1
 66
     7
176
     1
 43
1.0
176
     1
 76
     1
176
     1
 77
     6
176
     1
 78
     2
176
     1
 67
     7
176
     1
 79
     5
176
     1
170
     0
176
     1
171
     0
176
     1
290
     0
176
     1
 93
        1
176
     1
 44
-50.0
176
     1
173
     0
176
     1
  0
VISUALSTYLE
  5
3D
102
{ACAD_REACTORS
330
2A
102
}
330
2A
100
AcDbVisualStyle
  2
EdgeColorOff
 70
    22
177
     2
291
     1
 71
     2
176
     0
 72
     2
176
     0
 73
     0
176
     0
 90
        0
176
     0
 40
0.6
176
     0
 41
30.0
176
     0
 62
     5
 63
     7
421
 16777215
176
     0
 74
     1
176
     0
 91
        4
176
     0
 64
     7
176
     0
 65
   257
176
     0
 75
     1
176
     0
175
     1
176
     0
 42
1.0
176
     0
 92
        8
176
     2
 66
     7
176
     0
 43
1.0
176
     0
 76
     1
176
     0
 77
     6
176
     0
 78
     2
176
     0
 67
     7
176
     0
 79
     5
176
     0
170
     0
176
     0
171
     0
176
     0
290
     0
176
     0
 93
        1
176
     0
 44
0.0
176
     0
173
     0
176
     0
  0
VISUALSTYLE
  5
39
102
{ACAD_REACTORS
330
2A
102
}
330
2A
100
AcDbVisualStyle
  2
Facepattern
 70
    15
177
     2
291
     1
 71
     2
176
     1
 72
     2
176
     1
 73
     0
176
     1
 90
        0
176
     1
 40
0.6
176
     1
 41
30.0
176
     1
 62
     5
 63
     7
421
 16777215
176
     1
 74
     1
176
     1
 91
        4
176
     1
 64
     7
176
     1
 65
   257
176
     1
 75
     1
176
     1
175
     1
176
     1
 42
1.0
176
     1
 92
        8
176
     1
 66
     7
176
     1
 43
1.0
176
     1
 76
     1
176
     1
 77
     6
176
     1
 78
     2
176
     1
 67
     7
176
     1
 79
     5
176
     1
170
     0
176
     1
171
     0
176
     1
290
     0
176
     1
 93
        1
176
     1
 44
0.0
176
     1
173
     0
176
     1
  0
VISUALSTYLE
  5
2B
102
{ACAD_REACTORS
330
2A
102
}
330
2A
100
AcDbVisualStyle
  2
Flat
 70
     0
177
     2
291
     1
 71
     2
176
     1
 72
     1
176
     1
 73
     1
176
     1
 90
        2
176
     1
 40
0.6
176
     1
 41
30.0
176
     1
 62
     5
 63
     7
421
 16777215
176
     1
 74
     0
176
     1
 91
        0
176
     1
 64
     7
176
     1
 65
   257
176
     1
 75
     1
176
     1
175
     1
176
     1
 42
1.0
176
     1
 92
        8
176
     1
 66
     7
176
     1
 43
1.0
176
     1
 76
     1
176
     1
 77
     6
176
     1
 78
     2
176
     1
 67
     7
176
     1
 79
     5
176
     1
170
     0
176
     1
171
     0
176
     1
290
     0
176
     1
 93
       13
176
     1
 44
0.0
176
     1
173
     0
176
     1
  0
VISUALSTYLE
  5
2C
102
{ACAD_REACTORS
330
2A
102
}
330
2A
100
AcDbVisualStyle
  2
FlatWithEdges
 70
     1
177
     2
291
     1
 71
     2
176
     1
 72
     1
176
     1
 73
     1
176
     1
 90
        2
176
     1
 40
0.6
176
     1
 41
30.0
176
     1
 62
     5
 63
     7
421
 16777215
176
     1
 74
     1
176
     1
 91
        0
176
     1
 64
     7
176
     1
 65
   257
176
     1
 75
     1
176
     1
175
     1
176
     1
 42
1.0
176
     1
 92
        0
176
     1
 66
   257
176
     1
 43
1.0
176
     1
 76
     1
176
     1
 77
     6
176
     1
 78
     2
176
     1
 67
     7
176
     1
 79
     5
176
     1
170
     0
176
     1
171
     0
176
     1
290
     0
176
     1
 93
       13
176
     1
 44
0.0
176
     1
173
     0
176
     1
  0
VISUALSTYLE
  5
2D
102
{ACAD_REACTORS
330
2A
102
}
330
2A
100
AcDbVisualStyle
  2
Gouraud
 70
     2
177
     2
291
     1
 71
     2
176
     1
 72
     2
176
     1
 73
     1
176
     1
 90
        2
176
     1
 40
0.6
176
     1
 41
30.0
176
     1
 62
     5
 63
     7
421
 16777215
176
     1
 74
     0
176
     1
 91
        0
176
     1
 64
     7
176
     1
 65
   257
176
     1
 75
     1
176
     1
175
     1
176
     1
 42
1.0
176
     1
 92
        0
176
     1
 66
     7
176
     1
 43
1.0
176
     1
 76
     1
176
     1
 77
     6
176
     1
 78
     2
176
     1
 67
     7
176
     1
 79
     5
176
     1
170
     0
176
     1
171
     0
176
     1
290
     0
176
     1
 93
       13
176
     1
 44
0.0
176
     1
173
     0
176
     1
  0
VISUALSTYLE
  5
2E
102
{ACAD_REACTORS
330
2A
102
}
330
2A
100
AcDbVisualStyle
  2
GouraudWithEdges
 70
     3
177
     2
291
     1
 71
     2
176
     1
 72
     2
176
     1
 73
     1
176
     1
 90
        2
176
     1
 40
0.6
176
     1
 41
30.0
176
     1
 62
     5
 63
     7
421
 16777215
176
     1
 74
     1
176
     1
 91
        0
176
     1
 64
     7
176
     1
 65
   257
176
     1
 75
     1
176
     1
175
     1
176
     1
 42
1.0
176
     1
 92
        0
176
     1
 66
   257
176
     1
 43
1.0
176
     1
 76
     1
176
     1
 77
     6
176
     1
 78
     2
176
     1
 67
     7
176
     1
 79
     5
176
     1
170
     0
176
     1
171
     0
176
     1
290
     0
176
     1
 93
       13
176
     1
 44
0.0
176
     1
173
     0
176
     1
  0
VISUALSTYLE
  5
31
102
{ACAD_REACTORS
330
2A
102
}
330
2A
100
AcDbVisualStyle
  2
Hidden
 70
     6
177
     2
291
     0
 71
     1
176
     1
 72
     2
176
     1
 73
     2
176
     1
 90
        0
176
     1
 40
0.6
176
     1
 41
30.0
176
     1
 62
     5
 63
     7
421
 16777215
176
     1
 74
     2
176
     1
 91
        2
176
     1
 64
     7
176
     1
 65
   257
176
     1
 75
     2
176
     1
175
     1
176
     1
 42
40.0
176
     1
 92
        0
176
     1
 66
   257
176
     1
 43
1.0
176
     1
 76
     1
176
     1
 77
     6
176
     1
 78
     2
176
     1
 67
     7
176
     1
 79
     3
176
     1
170
     0
176
     1
171
     0
176
     1
290
     0
176
     1
 93
        1
176
     1
 44
0.0
176
     1
173
     0
176
     1
  0
VISUALSTYLE
  5
3B
102
{ACAD_REACTORS
330
2A
102
}
330
2A
100
AcDbVisualStyle
  2
JitterOff
 70
    20
177
     2
291
     1
 71
     2
176
     0
 72
     2
176
     0
 73
     0
176
     0
 90
        0
176
     0
 40
0.6
176
     0
 41
30.0
176
     0
 62
     5
 63
     7
421
 16777215
176
     0
 74
     1
176
     0
 91
        4
176
     0
 64
     7
176
     0
 65
   257
176
     0
 75
     1
176
     0
175
     1
176
     0
 42
1.0
176
     0
 92
       10
176
     2
 66
     7
176
     0
 43
1.0
176
     0
 76
     1
176
     0
 77
     6
176
     0
 78
     2
176
     0
 67
     7
176
     0
 79
     5
176
     0
170
     0
176
     0
171
     0
176
     0
290
     0
176
     0
 93
        1
176
     0
 44
0.0
176
     0
173
     0
176
     0
  0
VISUALSTYLE
  5
38
102
{ACAD_REACTORS
330
2A
102
}
330
2A
100
AcDbVisualStyle
  2
Linepattern
 70
    14
177
     2
291
     1
 71
     2
176
     1
 72
     2
176
     1
 73
     0
176
     1
 90
        0
176
     1
 40
0.6
176
     1
 41
30.0
176
     1
 62
     5
 63
     7
421
 16777215
176
     1
 74
     1
176
     1
 91
        4
176
     1
 64
     7
176
     1
 65
   257
176
     1
 75
     7
176
     1
175
     7
176
     1
 42
1.0
176
     1
 92
        8
176
     1
 66
     7
176
     1
 43
1.0
176
     1
 76
     1
176
     1
 77
     6
176
     1
 78
     2
176
     1
 67
     7
176
     1
 79
     5
176
     1
170
     0
176
     1
171
     0
176
     1
290
     0
176
     1
 93
        1
176
     1
 44
0.0
176
     1
173
     0
176
     1
  0
VISUALSTYLE
  5
3C
102
{ACAD_REACTORS
330
2A
102
}
330
2A
100
AcDbVisualStyle
  2
OverhangOff
 70
    21
177
     2
291
     1
 71
     2
176
     0
 72
     2
176
     0
 73
     0
176
     0
 90
        0
176
     0
 40
0.6
176
     0
 41
30.0
176
     0
 62
     5
 63
     7
421
 16777215
176
     0
 74
     1
176
     0
 91
        4
176
     0
 64
     7
176
     0
 65
   257
176
     0
 75
     1
176
     0
175
     1
176
     0
 42
1.0
176
     0
 92
        9
176
     2
 66
     7
176
     0
 43
1.0
176
     0
 76
     1
176
     0
 77
     6
176
     0
 78
     2
176
     0
 67
     7
176
     0
 79
     5
176
     0
170
     0
176
     0
171
     0
176
     0
290
     0
176
     0
 93
        1
176
     0
 44
0.0
176
     0
173
     0
176
     0
  0
VISUALSTYLE
  5
33
102
{ACAD_REACTORS
330
2A
102
}
330
2A
100
AcDbVisualStyle
  2
Realistic
 70
     8
177
     2
291
     0
 71
     2
176
     1
 72
     3
176
     1
 73
     0
176
     1
 90
        2
176
     1
 40
0.6
176
     1
 41
30.0
176
     1
 62
     5
 63
     7
421
 16777215
176
     1
 74
     0
176
     1
 91
        0
176
     1
 64
     7
176
     1
 65
   257
176
     1
 75
     1
176
     1
175
     1
176
     1
 42
1.0
176
     1
 92
        8
176
     1
 66
   257
176
     1
 43
1.0
176
     1
 76
     1
176
     1
 77
     6
176
     1
 78
     2
176
     1
 67
     7
176
     1
 79
     3
176
     1
170
     0
176
     1
171
     0
176
     1
290
     0
176
     1
 93
       13
176
     1
 44
0.0
176
     1
173
     0
176
     1
  0
VISUALSTYLE
  5
42
102
{ACAD_REACTORS
330
2A
102
}
330
2A
100
AcDbVisualStyle
  2
Shaded
 70
    27
177
     2
291
     0
 71
     2
176
     1
 72
     2
176
     1
 73
     1
176
     1
 90
        2
176
     1
 40
0.6
176
     1
 41
30.0
176
     1
 62
     5
 63
     7
421
 16777215
176
     1
 74
     0
176
     1
 91
        4
176
     1
 64
     7
176
     1
 65
   257
176
     1
 75
     1
176
     1
175
     1
176
     1
 42
1.0
176
     1
 92
        8
176
     1
 66
   257
176
     1
 43
1.0
176
     1
 76
     1
176
     1
 77
     6
176
     1
 78
     2
176
     1
 67
     8
425
  7895160
176
     1
 79
     3
176
     1
170
     0
176
     1
171
     0
176
     1
290
     0
176
     1
 93
        5
176
     1
 44
0.0
176
     1
173
     0
176
     1
  0
VISUALSTYLE
  5
41
102
{ACAD_REACTORS
330
2A
102
}
330
2A
100
AcDbVisualStyle
  2
Shaded with edges
 70
    26
177
     2
291
     0
 71
     2
176
     1
 72
     2
176
     1
 73
     1
176
     1
 90
        2
176
     1
 40
0.6
176
     1
 41
30.0
176
     1
 62
     5
 63
     7
421
 16777215
176
     1
 74
     1
176
     1
 91
       10
176
     1
 64
     7
176
     1
 65
   257
176
     1
 75
     2
176
     1
175
     1
176
     1
 42
1.0
176
     1
 92
        8
176
     1
 66
   257
176
     1
 43
1.0
176
     1
 76
     1
176
     1
 77
     6
176
     1
 78
     2
176
     1
 67
     7
176
     1
 79
     3
176
     1
170
     0
176
     1
171
     0
176
     1
290
     0
176
     1
 93
        5
176
     1
 44
0.0
176
     1
173
     0
176
     1
  0
VISUALSTYLE
  5
3E
102
{ACAD_REACTORS
330
2A
102
}
330
2A
100
AcDbVisualStyle
  2
Shades of Gray
 70
    23
177
     2
291
     0
 71
     2
176
     1
 72
     2
176
     1
 73
     3
176
     1
 90
        0
176
     1
 40
0.6
176
     1
 41
30.0
176
     1
 62
     5
 63
     7
421
 16777215
176
     1
 74
     2
176
     1
 91
        2
176
     1
 64
     7
176
     1
 65
     7
176
     1
 75
     1
176
     1
175
     1
176
     1
 42
40.0
176
     1
 92
        8
176
     1
 66
     7
176
     1
 43
1.0
176
     1
 76
     1
176
     1
 77
     6
176
     1
 78
     2
176
     1
 67
     7
176
     1
 79
     3
176
     1
170
     0
176
     1
171
     0
176
     1
290
     0
176
     1
 93
        1
176
     1
 44
0.0
176
     1
173
     0
176
     1
  0
VISUALSTYLE
  5
3F
102
{ACAD_REACTORS
330
2A
102
}
330
2A
100
AcDbVisualStyle
  2
Sketchy
 70
    24
177
     2
291
     0
 71
     1
176
     1
 72
     2
176
     1
 73
     2
176
     1
 90
        0
176
     1
 40
0.6
176
     1
 41
30.0
176
     1
 62
     5
 63
     7
421
 16777215
176
     1
 74
     2
176
     1
 91
        2
176
     1
 64
     7
176
     1
 65
     7
176
     1
 75
     1
176
     1
175
     1
176
     1
 42
40.0
176
     1
 92
       11
176
     1
 66
     7
176
     1
 43
1.0
176
     1
 76
     1
176
     1
 77
     6
176
     1
 78
     2
176
     1
 67
     7
176
     1
 79
     6
176
     1
170
     0
176
     1
171
     0
176
     1
290
     0
176
     1
 93
        1
176
     1
 44
0.0
176
     1
173
     0
176
     1
  0
VISUALSTYLE
  5
37
102
{ACAD_REACTORS
330
2A
102
}
330
2A
100
AcDbVisualStyle
  2
Thicken
 70
    13
177
     2
291
     1
 71
     2
176
     1
 72
     2
176
     1
 73
     0
176
     1
 90
        0
176
     1
 40
0.6
176
     1
 41
30.0
176
     1
 62
     5
 63
     7
421
 16777215
176
     1
 74
     1
176
     1
 91
        4
176
     1
 64
     7
176
     1
 65
   257
176
     1
 75
     1
176
     1
175
     1
176
     1
 42
1.0
176
     1
 92
       12
176
     1
 66
     7
176
     1
 43
1.0
176
     1
 76
     1
176
     1
 77
     6
176
     1
 78
     2
176
     1
 67
     7
176
     1
 79
     5
176
     1
170
     0
176
     1
171
     0
176
     1
290
     0
176
     1
 93
        1
176
     1
 44
0.0
176
     1
173
     0
176
     1
  0
VISUALSTYLE
  5
30
102
{ACAD_REACTORS
330
2A
102
}
330
2A
100
AcDbVisualStyle
  2
Wireframe
 70
     5
177
     2
291
     0
 71
     0
176
     1
 72
     2
176
     1
 73
     0
176
     1
 90
        0
176
     1
 40
0.6
176
     1
 41
30.0
176
     1
 62
     5
 63
     7
421
 16777215
176
     1
 74
     1
176
     1
 91
        4
176
     1
 64
     7
176
     1
 65
   257
176
     1
 75
     1
176
     1
175
     1
176
     1
 42
1.0
176
     1
 92
        0
176
     1
 66
   257
176
     1
 43
1.0
176
     1
 76
     1
176
     1
 77
     6
176
     1
 78
     2
176
     1
 67
     7
176
     1
 79
     3
176
     1
170
     0
176
     1
171
     0
176
     1
290
     0
176
     1
 93
        1
176
     1
 44
0.0
176
     1
173
     0
176
     1
  0
VISUALSTYLE
  5
40
102
{ACAD_REACTORS
330
2A
102
}
330
2A
100
AcDbVisualStyle
  2
X-Ray
 70
    25
177
     2
291
     0
 71
     2
176
     1
 72
     2
176
     1
 73
     1
176
     1
 90
        1
176
     1
 40
0.5
176
     1
 41
30.0
176
     1
 62
     5
 63
     7
421
 16777215
176
     1
 74
     1
176
     1
 91
        0
176
     1
 64
     7
176
     1
 65
   257
176
     1
 75
     1
176
     1
175
     1
176
     1
 42
1.0
176
     1
 92
        8
176
     1
 66
     7
176
     1
 43
1.0
176
     1
 76
     1
176
     1
 77
     6
176
     1
 78
     2
176
     1
 67
     7
176
     1
 79
     3
176
     1
170
     0
176
     1
171
     0
176
     1
290
     0
176
     1
 93
       13
176
     1
 44
0.0
176
     1
173
     0
176
     1
  0
DICTIONARYVAR
  5
1FE
102
{ACAD_REACTORS
330
1FD
102
}
330
1FD
100
DictionaryVariables
280
     0
  1
1:1
  0
DICTIONARYVAR
  5
206
102
{ACAD_REACTORS
330
1FD
102
}
330
1FD
100
DictionaryVariables
280
     0
  1
3.500000
  0
DICTIONARYVAR
  5
207
102
{ACAD_REACTORS
330
1FD
102
}
330
1FD
100
DictionaryVariables
280
     0
  1
acadiso.lin
  0
DICTIONARYVAR
  5
203
102
{ACAD_REACTORS
330
1FD
102
}
330
1FD
100
DictionaryVariables
280
     0
  1
Standard
  0
DICTIONARYVAR
  5
202
102
{ACAD_REACTORS
330
1FD
102
}
330
1FD
100
DictionaryVariables
280
     0
  1
Standard
  0
DICTIONARY
  5
1FF
330
6A
100
AcDbDictionary
280
     1
281
     1
  3
ACAD_ROUNDTRIP_2008_TABLESTYLE_CELLSTYLEMAP
360
200
  0
CELLSTYLEMAP
  5
200
102
{ACAD_REACTORS
330
1FF
102
}
330
1FF
100
AcDbCellStyleMap
 90
        3
300
CELLSTYLE
  1
TABLEFORMAT_BEGIN
 90
        5
170
     1
 91
        0
 92
    32768
 62
   257
 93
        1
300
CONTENTFORMAT
  1
CONTENTFORMAT_BEGIN
 90
        0
 91
        0
 92
        4
 93
        0
300

 40
0.0
140
1.0
 94
        5
 62
     0
340
11
144
6.0
309
CONTENTFORMAT_END
171
     1
301
MARGIN
  1
CELLMARGIN_BEGIN
 40
1.5
 40
1.5
 40
1.5
 40
1.5
 40
1.5
 40
1.5
309
CELLMARGIN_END
 94
        6
 95
        1
302
GRIDFORMAT
  1
GRIDFORMAT_BEGIN
 90
        0
 91
        1
 62
     0
 92
       -2
340
14
 93
        0
 40
0.045
309
GRIDFORMAT_END
 95
        2
302
GRIDFORMAT
  1
GRIDFORMAT_BEGIN
 90
        0
 91
        1
 62
     0
 92
       -2
340
14
 93
        0
 40
0.045
309
GRIDFORMAT_END
 95
        4
302
GRIDFORMAT
  1
GRIDFORMAT_BEGIN
 90
        0
 91
        1
 62
     0
 92
       -2
340
14
 93
        0
 40
0.045
309
GRIDFORMAT_END
 95
        8
302
GRIDFORMAT
  1
GRIDFORMAT_BEGIN
 90
        0
 91
        1
 62
     0
 92
       -2
340
14
 93
        0
 40
0.045
309
GRIDFORMAT_END
 95
       16
302
GRIDFORMAT
  1
GRIDFORMAT_BEGIN
 90
        0
 91
        1
 62
     0
 92
       -2
340
14
 93
        0
 40
0.045
309
GRIDFORMAT_END
 95
       32
302
GRIDFORMAT
  1
GRIDFORMAT_BEGIN
 90
        0
 91
        1
 62
     0
 92
       -2
340
14
 93
        0
 40
0.045
309
GRIDFORMAT_END
309
TABLEFORMAT_END
  1
CELLSTYLE_BEGIN
 90
        1
 91
        1
300
_TITLE
309
CELLSTYLE_END
300
CELLSTYLE
  1
TABLEFORMAT_BEGIN
 90
        5
170
     1
 91
        0
 92
        0
 62
   257
 93
        1
300
CONTENTFORMAT
  1
CONTENTFORMAT_BEGIN
 90
        0
 91
        0
 92
        4
 93
        0
300

 40
0.0
140
1.0
 94
        5
 62
     0
340
11
144
4.5
309
CONTENTFORMAT_END
171
     1
301
MARGIN
  1
CELLMARGIN_BEGIN
 40
1.5
 40
1.5
 40
1.5
 40
1.5
 40
1.5
 40
1.5
309
CELLMARGIN_END
 94
        6
 95
        1
302
GRIDFORMAT
  1
GRIDFORMAT_BEGIN
 90
        0
 91
        1
 62
     0
 92
       -2
340
14
 93
        0
 40
0.045
309
GRIDFORMAT_END
 95
        2
302
GRIDFORMAT
  1
GRIDFORMAT_BEGIN
 90
        0
 91
        1
 62
     0
 92
       -2
340
14
 93
        0
 40
0.045
309
GRIDFORMAT_END
 95
        4
302
GRIDFORMAT
  1
GRIDFORMAT_BEGIN
 90
        0
 91
        1
 62
     0
 92
       -2
340
14
 93
        0
 40
0.045
309
GRIDFORMAT_END
 95
        8
302
GRIDFORMAT
  1
GRIDFORMAT_BEGIN
 90
        0
 91
        1
 62
     0
 92
       -2
340
14
 93
        0
 40
0.045
309
GRIDFORMAT_END
 95
       16
302
GRIDFORMAT
  1
GRIDFORMAT_BEGIN
 90
        0
 91
        1
 62
     0
 92
       -2
340
14
 93
        0
 40
0.045
309
GRIDFORMAT_END
 95
       32
302
GRIDFORMAT
  1
GRIDFORMAT_BEGIN
 90
        0
 91
        1
 62
     0
 92
       -2
340
14
 93
        0
 40
0.045
309
GRIDFORMAT_END
309
TABLEFORMAT_END
  1
CELLSTYLE_BEGIN
 90
        2
 91
        1
300
_HEADER
309
CELLSTYLE_END
300
CELLSTYLE
  1
TABLEFORMAT_BEGIN
 90
        5
170
     1
 91
        0
 92
        0
 62
   257
 93
        1
300
CONTENTFORMAT
  1
CONTENTFORMAT_BEGIN
 90
        0
 91
        0
 92
        4
 93
        0
300

 40
0.0
140
1.0
 94
        2
 62
     0
340
11
144
4.5
309
CONTENTFORMAT_END
171
     1
301
MARGIN
  1
CELLMARGIN_BEGIN
 40
1.5
 40
1.5
 40
1.5
 40
1.5
 40
1.5
 40
1.5
309
CELLMARGIN_END
 94
        6
 95
        1
302
GRIDFORMAT
  1
GRIDFORMAT_BEGIN
 90
        0
 91
        1
 62
     0
 92
       -2
340
14
 93
        0
 40
0.045
309
GRIDFORMAT_END
 95
        2
302
GRIDFORMAT
  1
GRIDFORMAT_BEGIN
 90
        0
 91
        1
 62
     0
 92
       -2
340
14
 93
        0
 40
0.045
309
GRIDFORMAT_END
 95
        4
302
GRIDFORMAT
  1
GRIDFORMAT_BEGIN
 90
        0
 91
        1
 62
     0
 92
       -2
340
14
 93
        0
 40
0.045
309
GRIDFORMAT_END
 95
        8
302
GRIDFORMAT
  1
GRIDFORMAT_BEGIN
 90
        0
 91
        1
 62
     0
 92
       -2
340
14
 93
        0
 40
0.045
309
GRIDFORMAT_END
 95
       16
302
GRIDFORMAT
  1
GRIDFORMAT_BEGIN
 90
        0
 91
        1
 62
     0
 92
       -2
340
14
 93
        0
 40
0.045
309
GRIDFORMAT_END
 95
       32
302
GRIDFORMAT
  1
GRIDFORMAT_BEGIN
 90
        0
 91
        1
 62
     0
 92
       -2
340
14
 93
        0
 40
0.045
309
GRIDFORMAT_END
309
TABLEFORMAT_END
  1
CELLSTYLE_BEGIN
 90
        3
 91
        2
300
_DATA
309
CELLSTYLE_END
  0
ENDSEC
  0
EOF
